  0
SECTION
  2
HEADER
  9
$ACADVER
  1
AC1003
  9
$EXTMIN
 10
-2.81250000E+02
 20
-1.95000000E+02
  9
$EXTMAX
 10
2.82099854E+02
 20
1.95500000E+02
  9
$LIMMIN
 10
-2.81251000E+02
 20
-1.95001000E+02
  9
$LIMMAX
 10
2.82100854E+02
 20
1.95501000E+02
  9
$SNAPUNIT
 10
1
 20
1
  9
$SNAPBASE
 10
0
 20
0
  9
$GRIDMODE
 70
0
  9
$GRIDUNIT
 10
0
 20
0
  9
$LTSCALE
 40
9.38916423E+00
  9
$TEXTSIZE
 40
3.2
  9
$DIMTAD
 70
0
  9
$LUNITS
 70
2
  9
$LUPREC
 70
4
  9
$FILLETRAD
 40
0
  9
$AUNITS
 70
0
  9
$AUPREC
 70
0
  0
ENDSEC
  0
SECTION
  2
TABLES
  0
TABLE
  2
LTYPE
 70
2
  0
LTYPE
  2
CONTINUOUS
 70
64
  3
Solid-Line
 72
65
 73
0
 40
0
  0
LTYPE
  2
DASHED
 70
64
  3
DASHED
 72
65
 73
2
 40
.75
 49
.5
 49
-.25
  0
LTYPE
  2
HIDDEN
 70
64
  3
HIDDEN
 72
65
 73
2
 40
.375
 49
.25
 49
-.125
  0
LTYPE
  2
CENTER
 70
64
  3
CENTER
 72
65
 73
4
 40
2
 49
1.25
 49
-.25
 49
.25
 49
-.25
  0
LTYPE
  2
PHANTOM
 70
64
  3
PHANTOM
 72
65
 73
6
 40
2.5
 49
1.25
 49
-.25
 49
.25
 49
-.25
 49
.25
 49
-.25
  0
ENDTAB
  0
TABLE
  2
LAYER
 70
1
  0
LAYER
  2
1
 70
0
 62
7
  6
CONTINUOUS
 0
ENDTAB
  0
TABLE
  2
STYLE
 70
2
  0
STYLE
  2
MONOTXT
 70
0
 40
0
 41
1
 50
0
 71
0
 42
.2
  3
monotxt
  0
STYLE
  2
BIGFONT
 70
0
 40
0
 41
1
 50
0
 71
0
 42
.2
  3
txt
  4
bigfont
  0
ENDTAB
  0
ENDSEC
  0
SECTION
  2
ENTITIES
  0
LINE
  8
0
  6
PHANTOM
 10
-1.17500000E+02
 20
3.91400412E+00
 11
-1.17500000E+02
 21
8.78530076E+01
  0
LINE
  8
0
 62
7
 10
-9.86500000E+01
 20
4.15852027E+01
 11
-9.86500000E+01
 21
3.95852027E+01
  0
LINE
  8
0
 62
7
 10
-1.01650000E+02
 20
3.61852027E+01
 11
-9.88800000E+01
 21
3.61852027E+01
  0
LINE
  8
0
 62
7
 10
-1.01650000E+02
 20
4.19852027E+01
 11
-9.88800000E+01
 21
4.19852027E+01
  0
LINE
  8
0
 62
7
 10
-9.88800000E+01
 20
4.19852027E+01
 11
-9.86500000E+01
 21
4.15852027E+01
  0
LINE
  8
0
 62
7
 10
-9.88800000E+01
 20
3.61852027E+01
 11
-9.86500000E+01
 21
3.65852027E+01
  0
LINE
  8
0
 62
7
 10
-1.01650000E+02
 20
4.19852027E+01
 11
-1.01650000E+02
 21
3.61852027E+01
  0
LINE
  8
0
 62
7
 10
-9.91500000E+01
 20
3.95852027E+01
 11
-9.86500000E+01
 21
3.95852027E+01
  0
LINE
  8
0
 62
7
 10
-9.91500000E+01
 20
3.85852027E+01
 11
-9.86500000E+01
 21
3.85852027E+01
  0
LINE
  8
0
 62
7
 10
-9.91500000E+01
 20
3.95852027E+01
 11
-9.91500000E+01
 21
3.85852027E+01
  0
LINE
  8
0
 62
7
 10
-9.86500000E+01
 20
3.85852027E+01
 11
-9.86500000E+01
 21
3.65852027E+01
  0
LINE
  8
0
 62
7
 10
-1.01650000E+02
 20
3.76352027E+01
 11
-9.88800000E+01
 21
3.76352027E+01
  0
LINE
  8
0
 62
7
 10
-1.01650000E+02
 20
4.05252027E+01
 11
-9.88800000E+01
 21
4.05252027E+01
  0
ARC
  8
0
 62
7
 10
-9.99092284E+01
 20
3.69102027E+01
 40
1.25894246E+00
 50
3.24838706E+02
 51
3.51612945E+01
  0
ARC
  8
0
 62
7
 10
-9.99092258E+01
 20
4.12552027E+01
 40
1.26182634E+00
 50
3.24653028E+02
 51
3.53469725E+01
  0
ARC
  8
0
 62
7
 10
-1.03277328E+02
 20
3.90570085E+01
 40
4.62147405E+00
 50
3.42082213E+02
 51
3.54140471E+02
  0
ARC
  8
0
 62
7
 10
-1.03274254E+02
 20
3.90989785E+01
 40
4.61991120E+00
 50
6.04130223E+00
 51
1.79816546E+01
  0
LINE
  8
0
 62
7
 10
-1.02250000E+02
 20
3.65852027E+01
 11
-1.01650000E+02
 21
3.65852027E+01
  0
LINE
  8
0
 62
7
 10
-1.02250000E+02
 20
4.15852027E+01
 11
-1.01650000E+02
 21
4.15852027E+01
  0
LINE
  8
0
 62
7
 10
-1.65250000E+02
 20
5.15701269E+01
 11
-1.31250000E+02
 21
5.15701269E+01
  0
LINE
  8
0
 62
7
 10
-1.02250000E+02
 20
5.20822590E+01
 11
-1.31250000E+02
 21
5.20822590E+01
  0
LINE
  8
0
 62
7
 10
-1.37750000E+02
 20
5.19236803E+01
 11
-1.57250000E+02
 21
5.19236803E+01
  0
LINE
  8
0
 62
7
 10
-1.02250000E+02
 20
2.70852027E+01
 11
-1.65250000E+02
 21
2.70852027E+01
  0
LINE
  8
0
 62
7
 10
-1.02250000E+02
 20
5.00852027E+01
 11
-1.65250000E+02
 21
5.00852027E+01
  0
LINE
  8
0
 62
7
 10
-1.02750000E+02
 20
5.25941237E+01
 11
-1.71250000E+02
 21
5.25941237E+01
  0
LINE
  8
0
 62
7
 10
-1.02750000E+02
 20
6.60941237E+01
 11
-1.71250000E+02
 21
6.60941237E+01
  0
LINE
  8
0
 62
7
 10
-1.31250000E+02
 20
5.25941237E+01
 11
-1.31250000E+02
 21
5.15701269E+01
  0
LINE
  8
0
 62
7
 10
-1.02750000E+02
 20
6.61542640E+01
 11
-1.02750000E+02
 21
5.27675995E+01
  0
LINE
  8
0
 62
7
 10
-1.37750000E+02
 20
5.15701269E+01
 11
-1.37750000E+02
 21
5.25941237E+01
  0
LINE
  8
0
 62
7
 10
-1.57250000E+02
 20
5.25941237E+01
 11
-1.57250000E+02
 21
5.15701269E+01
  0
LINE
  8
0
 62
7
 10
-1.02250000E+02
 20
5.69155328E+01
 11
-1.02750000E+02
 21
5.69155328E+01
  0
LINE
  8
0
 62
7
 10
-1.65250000E+02
 20
5.25941237E+01
 11
-1.65250000E+02
 21
2.70852027E+01
  0
CIRCLE
  8
0
 62
7
 10
-1.58250000E+02
 20
4.45851951E+01
 40
1.75000000E+00
  0
CIRCLE
  8
0
 62
7
 10
-1.58250000E+02
 20
3.35852027E+01
 40
1.75000000E+00
  0
LINE
  8
0
  6
CENTER
 62
2
 10
-1.58250000E+02
 20
2.95470406E+01
 11
-1.58250000E+02
 21
4.83939434E+01
  0
LINE
  8
0
  6
CENTER
 62
2
 10
-1.62245543E+02
 20
4.45852027E+01
 11
-1.54452667E+02
 21
4.45852027E+01
  0
LINE
  8
0
  6
CENTER
 62
2
 10
-1.62330249E+02
 20
3.35852027E+01
 11
-1.53605615E+02
 21
3.35852027E+01
  0
LINE
  8
0
 62
7
 10
-1.02250000E+02
 20
5.69155328E+01
 11
-1.02250000E+02
 21
2.70852027E+01
  0
CIRCLE
  8
0
 62
7
 10
-1.58250000E+02
 20
4.45852027E+01
 40
3.00000000E+00
  0
CIRCLE
  8
0
 62
7
 10
-1.58250000E+02
 20
3.35852027E+01
 40
3.00000000E+00
  0
LINE
  8
0
  6
CENTER
 62
2
 10
-1.79370000E+02
 20
3.90852027E+01
 11
-9.59376190E+01
 21
3.90852027E+01
  0
LINE
  8
0
 62
7
 10
-1.68450000E+02
 20
4.05852027E+01
 11
-1.65250000E+02
 21
4.05852027E+01
  0
LINE
  8
0
 62
7
 10
-1.68450000E+02
 20
3.75852027E+01
 11
-1.65250000E+02
 21
3.75852027E+01
  0
LINE
  8
0
 62
7
 10
-1.71250000E+02
 20
6.60941237E+01
 11
-1.71250000E+02
 21
2.95852027E+01
  0
LINE
  8
0
 62
7
 10
-1.76250000E+02
 20
6.57852027E+01
 11
-1.76250000E+02
 21
2.95852027E+01
  0
ARC
  8
0
 62
7
 10
-1.69840730E+02
 20
4.14902027E+01
 40
1.39042813E+00
 50
3.25126510E+02
 51
3.48734900E+01
  0
ARC
  8
0
 62
7
 10
-1.73779258E+02
 20
3.90802027E+01
 40
5.32983009E+00
 50
3.42361427E+02
 51
1.76385730E+01
  0
ARC
  8
0
 62
7
 10
-1.69840730E+02
 20
3.66752027E+01
 40
1.38757549E+00
 50
3.25295897E+02
 51
3.47041029E+01
  0
ARC
  8
0
 62
7
 10
-1.68869896E+02
 20
3.66752027E+01
 40
1.37885242E+00
 50
1.45044489E+02
 51
2.14955511E+02
  0
ARC
  8
0
 62
7
 10
-1.64931361E+02
 20
3.90802027E+01
 40
5.31971110E+00
 50
1.62326771E+02
 51
1.97673230E+02
  0
ARC
  8
0
 62
7
 10
-1.68869897E+02
 20
4.14902027E+01
 40
1.38172306E+00
 50
1.44874553E+02
 51
2.15125446E+02
  0
LINE
  8
0
 62
7
 10
-1.71250000E+02
 20
4.40852027E+01
 11
-1.70250000E+02
 21
4.40852027E+01
  0
LINE
  8
0
 62
7
 10
-1.71250000E+02
 20
3.40852027E+01
 11
-1.70250000E+02
 21
3.40852027E+01
  0
LINE
  8
0
 62
7
 10
-1.76250000E+02
 20
2.95852027E+01
 11
-1.71250000E+02
 21
2.95852027E+01
  0
LINE
  8
0
 62
7
 10
-1.68700000E+02
 20
3.58852027E+01
 11
-1.68450000E+02
 21
3.63152027E+01
  0
LINE
  8
0
 62
7
 10
-1.68700000E+02
 20
4.22852027E+01
 11
-1.68450000E+02
 21
4.18452027E+01
  0
LINE
  8
0
 62
7
 10
-1.70000000E+02
 20
4.22852027E+01
 11
-1.70250000E+02
 21
4.18452027E+01
  0
LINE
  8
0
 62
7
 10
-1.70000000E+02
 20
3.58852027E+01
 11
-1.70250000E+02
 21
3.63152027E+01
  0
LINE
  8
0
 62
7
 10
-1.70000000E+02
 20
3.58852027E+01
 11
-1.68700000E+02
 21
3.58852027E+01
  0
LINE
  8
0
 62
7
 10
-1.70000000E+02
 20
4.22852027E+01
 11
-1.68700000E+02
 21
4.22852027E+01
  0
LINE
  8
0
 62
7
 10
-1.70250000E+02
 20
4.40852027E+01
 11
-1.70250000E+02
 21
3.40852027E+01
  0
LINE
  8
0
 62
7
 10
-1.68450000E+02
 20
4.18452027E+01
 11
-1.68450000E+02
 21
3.63152027E+01
  0
LINE
  8
0
 62
7
 10
-1.70000000E+02
 20
3.74652027E+01
 11
-1.68700000E+02
 21
3.74652027E+01
  0
LINE
  8
0
 62
7
 10
-1.70000000E+02
 20
4.06952027E+01
 11
-1.68700000E+02
 21
4.06952027E+01
  0
LINE
  8
0
 62
2
 10
-1.68450000E+02
 20
3.78352027E+01
 11
-1.68250000E+02
 21
3.78352027E+01
  0
LINE
  8
0
 62
2
 10
-1.68450000E+02
 20
4.03352027E+01
 11
-1.68250000E+02
 21
4.03352027E+01
  0
LINE
  8
0
 62
2
 10
-1.68250000E+02
 20
3.78352027E+01
 11
-1.67820000E+02
 21
3.75852027E+01
  0
LINE
  8
0
 62
2
 10
-1.68250000E+02
 20
4.03352027E+01
 11
-1.67820000E+02
 21
4.05852027E+01
  0
LINE
  8
0
 62
7
 10
-1.68250000E+02
 20
4.05852027E+01
 11
-1.68250000E+02
 21
3.75852027E+01
  0
LINE
  8
0
 62
7
 10
-1.76250000E+02
 20
6.57852027E+01
 11
-1.71250000E+02
 21
6.57852027E+01
  0
LINE
  8
0
  6
CENTER
 62
2
 10
-1.18566688E+02
 20
6.15941237E+01
 11
-1.54728324E+02
 21
6.15941237E+01
  0
LINE
  8
0
  6
CENTER
 62
2
 10
-1.51250000E+02
 20
6.44589279E+01
 11
-1.51250000E+02
 21
5.89461462E+01
  0
LINE
  8
0
  6
CENTER
 62
2
 10
-1.36250000E+02
 20
6.44589279E+01
 11
-1.36250000E+02
 21
5.89461462E+01
  0
LINE
  8
0
  6
CENTER
 62
6
 10
-1.21250000E+02
 20
6.44589279E+01
 11
-1.21250000E+02
 21
5.89461462E+01
  0
CIRCLE
  8
0
 62
7
 10
-1.51250000E+02
 20
6.15941237E+01
 40
1.25000000E+00
  0
CIRCLE
  8
0
 62
7
 10
-1.36250000E+02
 20
6.15941237E+01
 40
1.25000000E+00
  0
CIRCLE
  8
0
 62
4
 10
-1.21250000E+02
 20
6.15941237E+01
 40
1.25000000E+00
  0
CIRCLE
  8
0
 62
6
 10
-1.21250000E+02
 20
6.15941237E+01
 40
1.50000000E+00
  0
CIRCLE
  8
0
 62
2
 10
-1.36250000E+02
 20
6.15941237E+01
 40
1.50000000E+00
  0
CIRCLE
  8
0
 62
2
 10
-1.51250000E+02
 20
6.15941237E+01
 40
1.50000000E+00
  0
LINE
  8
0
 62
7
 10
-1.02250000E+02
 20
4.52852027E+01
 11
-1.55332810E+02
 21
4.52852027E+01
  0
LINE
  8
0
 62
7
 10
-1.02250000E+02
 20
4.20852027E+01
 11
-1.56591688E+02
 21
4.20852027E+01
  0
LINE
  8
0
 62
7
 10
-1.02250000E+02
 20
3.60852027E+01
 11
-1.56591688E+02
 21
3.60852027E+01
  0
LINE
  8
0
 62
7
 10
-1.02250000E+02
 20
3.28852027E+01
 11
-1.55332810E+02
 21
3.28852027E+01
  0
LINE
  8
0
 62
7
 10
-1.61167190E+02
 20
4.52852027E+01
 11
-1.65250000E+02
 21
4.52852027E+01
  0
LINE
  8
0
 62
7
 10
-1.60422313E+02
 20
4.20852027E+01
 11
-1.65250000E+02
 21
4.20852027E+01
  0
LINE
  8
0
 62
7
 10
-1.59908312E+02
 20
3.60852027E+01
 11
-1.65250000E+02
 21
3.60852027E+01
  0
LINE
  8
0
 62
7
 10
-1.61167190E+02
 20
3.28852027E+01
 11
-1.65250000E+02
 21
3.28852027E+01
  0
CIRCLE
  8
0
 62
7
 10
-2.27755315E+02
 20
5.97851905E+01
 40
2.50000000E+00
  0
CIRCLE
  8
0
 62
7
 10
-2.27755315E+02
 20
5.97851905E+01
 40
2.25000000E+00
  0
LINE
  8
0
 62
7
 10
-2.28750000E+02
 20
6.03552027E+01
 11
-2.28750000E+02
 21
5.92052027E+01
  0
LINE
  8
0
 62
7
 10
-2.26750000E+02
 20
5.92052027E+01
 11
-2.27750000E+02
 21
5.86352027E+01
  0
LINE
  8
0
 62
7
 10
-2.26750000E+02
 20
6.03552027E+01
 11
-2.26750000E+02
 21
5.92052027E+01
  0
LINE
  8
0
 62
7
 10
-2.27750000E+02
 20
6.09352027E+01
 11
-2.26750000E+02
 21
6.03552027E+01
  0
LINE
  8
0
 62
7
 10
-2.27750000E+02
 20
5.86352027E+01
 11
-2.28750000E+02
 21
5.92052027E+01
  0
LINE
  8
0
 62
7
 10
-2.27750000E+02
 20
6.09352027E+01
 11
-2.28750000E+02
 21
6.03552027E+01
  0
LINE
  8
0
  6
CENTER
 62
2
 10
-2.24660274E+02
 20
5.97852027E+01
 11
-2.30878951E+02
 21
5.97852027E+01
  0
LINE
  8
0
  6
CENTER
 62
2
 10
-2.27750000E+02
 20
6.33286537E+01
 11
-2.27750000E+02
 21
5.62427109E+01
  0
CIRCLE
  8
0
 62
7
 10
-2.34755315E+02
 20
6.27851905E+01
 40
2.50000000E+00
  0
CIRCLE
  8
0
 62
7
 10
-2.34755315E+02
 20
6.27851905E+01
 40
2.25000000E+00
  0
LINE
  8
0
 62
7
 10
-2.35750000E+02
 20
6.33552027E+01
 11
-2.35750000E+02
 21
6.22052027E+01
  0
LINE
  8
0
 62
7
 10
-2.33750000E+02
 20
6.22052027E+01
 11
-2.34750000E+02
 21
6.16352027E+01
  0
LINE
  8
0
 62
7
 10
-2.33750000E+02
 20
6.33552027E+01
 11
-2.33750000E+02
 21
6.22052027E+01
  0
LINE
  8
0
 62
7
 10
-2.34750000E+02
 20
6.39352027E+01
 11
-2.33750000E+02
 21
6.33552027E+01
  0
LINE
  8
0
 62
7
 10
-2.34750000E+02
 20
6.16352027E+01
 11
-2.35750000E+02
 21
6.22052027E+01
  0
LINE
  8
0
 62
7
 10
-2.34750000E+02
 20
6.39352027E+01
 11
-2.35750000E+02
 21
6.33552027E+01
  0
LINE
  8
0
  6
CENTER
 62
2
 10
-2.31660274E+02
 20
6.27852027E+01
 11
-2.37878951E+02
 21
6.27852027E+01
  0
LINE
  8
0
  6
CENTER
 62
2
 10
-2.34750000E+02
 20
6.63286537E+01
 11
-2.34750000E+02
 21
5.92427109E+01
  0
LINE
  8
0
  6
CENTER
 62
2
 10
-2.34250000E+02
 20
4.91369253E+01
 11
-2.34250000E+02
 21
2.92475995E+01
  0
LINE
  8
0
  6
CENTER
 62
2
 10
-2.36849648E+02
 20
4.61675995E+01
 11
-2.25460967E+02
 21
4.61675995E+01
  0
LINE
  8
0
  6
CENTER
 62
2
 10
-2.36849648E+02
 20
3.21675995E+01
 11
-2.25460967E+02
 21
3.21675995E+01
  0
LINE
  8
0
  6
CENTER
 62
2
 10
-2.28250000E+02
 20
4.91369253E+01
 11
-2.28250000E+02
 21
2.92475995E+01
  0
CIRCLE
  8
0
 62
7
 10
-2.31250000E+02
 20
3.90852027E+01
 40
5.00000000E+00
  0
CIRCLE
  8
0
 62
7
 10
-2.31250000E+02
 20
3.90852027E+01
 40
4.00000000E+00
  0
LINE
  8
0
 62
7
 10
-2.28500000E+02
 20
4.06952027E+01
 11
-2.28500000E+02
 21
3.74652027E+01
  0
LINE
  8
0
 62
7
 10
-2.31250000E+02
 20
4.22852027E+01
 11
-2.28500000E+02
 21
4.06952027E+01
  0
LINE
  8
0
 62
7
 10
-2.31250000E+02
 20
3.58852027E+01
 11
-2.28500000E+02
 21
3.74652027E+01
  0
LINE
  8
0
 62
7
 10
-2.34000000E+02
 20
4.06952027E+01
 11
-2.34000000E+02
 21
3.74652027E+01
  0
CIRCLE
  8
0
 62
7
 10
-2.31255315E+02
 20
3.90852027E+01
 40
2.75000000E+00
  0
LINE
  8
0
 62
7
 10
-2.34000000E+02
 20
3.74652027E+01
 11
-2.31250000E+02
 21
3.58852027E+01
  0
LINE
  8
0
 62
7
 10
-2.34000000E+02
 20
4.06952027E+01
 11
-2.31250000E+02
 21
4.22852027E+01
  0
CIRCLE
  8
0
 62
7
 10
-2.31255315E+02
 20
3.90852027E+01
 40
1.50000000E+00
  0
CIRCLE
  8
0
 62
2
 10
-2.31255315E+02
 20
3.90852027E+01
 40
1.25000000E+00
  0
CIRCLE
  8
0
 62
2
 10
-2.34250000E+02
 20
3.21675995E+01
 40
1.50000000E+00
  0
CIRCLE
  8
0
 62
2
 10
-2.34250000E+02
 20
4.61675995E+01
 40
1.50000000E+00
  0
CIRCLE
  8
0
 62
7
 10
-2.34250000E+02
 20
4.61675995E+01
 40
1.25000000E+00
  0
CIRCLE
  8
0
 62
7
 10
-2.34250000E+02
 20
3.21675995E+01
 40
1.25000000E+00
  0
CIRCLE
  8
0
 62
7
 10
-2.28250000E+02
 20
3.21675995E+01
 40
1.25000000E+00
  0
CIRCLE
  8
0
 62
7
 10
-2.28250000E+02
 20
4.61675995E+01
 40
1.25000000E+00
  0
CIRCLE
  8
0
 62
2
 10
-2.28250000E+02
 20
4.61675995E+01
 40
1.50000000E+00
  0
CIRCLE
  8
0
 62
2
 10
-2.28250000E+02
 20
3.21675995E+01
 40
1.50000000E+00
  0
LINE
  8
0
 62
7
 10
-2.24750000E+02
 20
2.95852027E+01
 11
-2.37750000E+02
 21
2.95852027E+01
  0
LINE
  8
0
 62
7
 10
-2.24750000E+02
 20
6.57852027E+01
 11
-2.37750000E+02
 21
6.57852027E+01
  0
LINE
  8
0
 62
7
 10
-2.38250000E+02
 20
4.52852027E+01
 11
-2.38250000E+02
 21
5.65852027E+01
  0
LINE
  8
0
 62
7
 10
-2.38050000E+02
 20
3.60852027E+01
 11
-2.37750000E+02
 21
3.60852027E+01
  0
LINE
  8
0
 62
7
 10
-2.38250000E+02
 20
3.28852027E+01
 11
-2.37750000E+02
 21
3.28852027E+01
  0
LINE
  8
0
 62
7
 10
-2.38250000E+02
 20
2.73852027E+01
 11
-2.38250000E+02
 21
3.28852027E+01
  0
LINE
  8
0
 62
7
 10
-2.24250000E+02
 20
4.52852027E+01
 11
-2.24250000E+02
 21
5.00852027E+01
  0
LINE
  8
0
 62
7
 10
-2.38250000E+02
 20
4.52852027E+01
 11
-2.37750000E+02
 21
4.52852027E+01
  0
LINE
  8
0
 62
7
 10
-2.24450000E+02
 20
3.60852027E+01
 11
-2.24750000E+02
 21
3.60852027E+01
  0
LINE
  8
0
 62
7
 10
-2.24250000E+02
 20
3.28852027E+01
 11
-2.24750000E+02
 21
3.28852027E+01
  0
LINE
  8
0
 62
7
 10
-2.24250000E+02
 20
2.73852027E+01
 11
-2.24250000E+02
 21
3.28852027E+01
  0
LINE
  8
0
 62
7
 10
-2.24250000E+02
 20
4.52852027E+01
 11
-2.24750000E+02
 21
4.52852027E+01
  0
LINE
  8
0
 62
7
 10
-2.24450000E+02
 20
4.20852027E+01
 11
-2.24750000E+02
 21
4.20852027E+01
  0
LINE
  8
0
 62
7
 10
-2.38050000E+02
 20
4.20852027E+01
 11
-2.37750000E+02
 21
4.20852027E+01
  0
LINE
  8
0
 62
7
 10
-2.24550000E+02
 20
2.70852027E+01
 11
-2.37950000E+02
 21
2.70852027E+01
  0
LINE
  8
0
 62
7
 10
-2.24750000E+02
 20
5.05852027E+01
 11
-2.24250000E+02
 21
5.00852027E+01
  0
ARC
  8
0
 62
7
 10
-2.24550000E+02
 20
2.73852027E+01
 40
3.00000000E-01
 50
2.70000000E+02
 51
0.00000000E+00
  0
ARC
  8
0
 62
7
 10
-2.37950000E+02
 20
2.73852027E+01
 40
3.00000000E-01
 50
1.80000000E+02
 51
2.70000000E+02
  0
LINE
  8
0
 62
7
 10
-2.38050000E+02
 20
3.60852027E+01
 11
-2.38050000E+02
 21
4.20852027E+01
  0
LINE
  8
0
 62
7
 10
-2.24450000E+02
 20
3.60852027E+01
 11
-2.24450000E+02
 21
4.20852027E+01
  0
LINE
  8
0
 62
7
 10
-2.37750000E+02
 20
5.68852027E+01
 11
-2.37950000E+02
 21
5.68852027E+01
  0
ARC
  8
0
 62
7
 10
-2.37950000E+02
 20
5.65852027E+01
 40
3.00000000E-01
 50
9.00000002E+01
 51
1.80000000E+02
  0
LINE
  8
0
  6
CENTER
 62
2
 10
-2.31250000E+02
 20
2.59181427E+01
 11
-2.31250000E+02
 21
6.76948460E+01
  0
LINE
  8
0
  6
CENTER
 62
2
 10
-2.39429445E+02
 20
3.90852027E+01
 11
-2.23209429E+02
 21
3.90852027E+01
  0
LINE
  8
0
 62
7
 10
-2.24750000E+02
 20
2.95852027E+01
 11
-2.24750000E+02
 21
6.57941237E+01
  0
LINE
  8
0
 62
7
 10
-2.37450000E+02
 20
6.60941237E+01
 11
-2.25050000E+02
 21
6.60941237E+01
  0
LINE
  8
0
 62
7
 10
-2.37750000E+02
 20
6.57941237E+01
 11
-2.37750000E+02
 21
2.95852027E+01
  0
ARC
  8
0
 62
7
 10
-2.25050000E+02
 20
6.57941237E+01
 40
3.00000000E-01
 50
0.00000000E+00
 51
9.00000002E+01
  0
ARC
  8
0
 62
7
 10
-2.37450000E+02
 20
6.57941237E+01
 40
3.00000000E-01
 50
9.00000002E+01
 51
1.80000000E+02
  0
LINE
  8
0
 62
7
 10
-5.46233231E+01
 20
3.95852027E+01
 11
-4.96233231E+01
 21
3.95852027E+01
  0
LINE
  8
0
 62
7
 10
-5.46233231E+01
 20
3.85852027E+01
 11
-4.96233231E+01
 21
3.85852027E+01
  0
LINE
  8
0
 62
7
 10
-5.21233231E+01
 20
4.19652027E+01
 11
-5.46233231E+01
 21
4.05252027E+01
  0
LINE
  8
0
 62
7
 10
-5.46233231E+01
 20
4.05252027E+01
 11
-5.46233231E+01
 21
3.76352027E+01
  0
LINE
  8
0
 62
7
 10
-5.21233231E+01
 20
3.61952027E+01
 11
-5.46233231E+01
 21
3.76352027E+01
  0
LINE
  8
0
 62
7
 10
-4.96233231E+01
 20
3.76352027E+01
 11
-5.21233231E+01
 21
3.61952027E+01
  0
LINE
  8
0
 62
7
 10
-4.96233231E+01
 20
4.05252027E+01
 11
-4.96233231E+01
 21
3.76352027E+01
  0
LINE
  8
0
 62
7
 10
-5.21233231E+01
 20
4.19652027E+01
 11
-4.96233231E+01
 21
4.05252027E+01
  0
ARC
  8
0
 62
7
 10
-5.21233231E+01
 20
3.90852027E+01
 40
5.50600581E+00
 50
2.44898435E+02
 51
2.95101565E+02
  0
ARC
  8
0
 62
7
 10
-5.21204972E+01
 20
3.90752431E+01
 40
5.50283490E+00
 50
1.79896300E+02
 51
2.06904284E+02
  0
ARC
  8
0
 62
7
 10
-5.21204972E+01
 20
3.90951623E+01
 40
5.50283490E+00
 50
1.53095716E+02
 51
1.80103699E+02
  0
ARC
  8
0
 62
7
 10
-5.21233231E+01
 20
3.90852027E+01
 40
5.49656256E+00
 50
6.48727143E+01
 51
1.15127285E+02
  0
ARC
  8
0
 62
7
 10
-5.21219069E+01
 20
3.90901594E+01
 40
5.49858600E+00
 50
3.32898784E+02
 51
3.59948350E+02
  0
ARC
  8
0
 62
7
 10
-5.21219069E+01
 20
3.90802460E+01
 40
5.49858600E+00
 50
5.16496279E-02
 51
2.71012160E+01
  0
CIRCLE
  8
0
 62
7
 10
-5.21233231E+01
 20
3.90852027E+01
 40
4.09999943E+00
  0
CIRCLE
  8
0
 62
7
 10
-5.21233231E+01
 20
3.90852027E+01
 40
2.94999981E+00
  0
CIRCLE
  8
0
 62
7
 10
-5.21233231E+01
 20
3.90852027E+01
 40
3.44999981E+00
  0
ARC
  8
0
 62
7
 10
-5.21233231E+01
 20
3.90852027E+01
 40
2.50049995E+00
 50
1.15346206E+01
 51
1.68465380E+02
  0
ARC
  8
0
 62
7
 10
-5.21233231E+01
 20
3.90852027E+01
 40
2.50049995E+00
 50
1.91534621E+02
 51
3.48465379E+02
  0
LINE
  8
0
 62
7
 10
-5.22643873E+01
 20
5.82169307E+01
 11
-4.95066709E+01
 21
6.09746471E+01
  0
LINE
  8
0
 62
7
 10
-4.56233231E+01
 20
6.57941237E+01
 11
-4.56233231E+01
 21
5.68852027E+01
  0
LINE
  8
0
 62
7
 10
-4.59233231E+01
 20
6.60941237E+01
 11
-5.83233231E+01
 21
6.60941237E+01
  0
LINE
  8
0
 62
7
 10
-5.78871944E+01
 20
5.25941237E+01
 11
-5.61534746E+01
 21
5.43278434E+01
  0
LINE
  8
0
 62
7
 10
-5.86233231E+01
 20
3.28852027E+01
 11
-5.86233231E+01
 21
3.60852027E+01
  0
LINE
  8
0
 62
7
 10
-5.65777387E+01
 20
5.47521075E+01
 11
-5.61534746E+01
 21
5.43278434E+01
  0
LINE
  8
0
 62
7
 10
-4.56233231E+01
 20
5.75941237E+01
 11
-4.61261474E+01
 21
5.75941237E+01
  0
LINE
  8
0
 62
7
 10
-5.65777387E+01
 20
5.47521074E+01
 11
-5.26886514E+01
 21
5.86411947E+01
  0
LINE
  8
0
 62
7
 10
-4.95066709E+01
 20
6.09746471E+01
 11
-4.61261474E+01
 21
5.75941237E+01
  0
LINE
  8
0
  6
CENTER
 62
2
 10
-5.04590976E+01
 20
6.25941237E+01
 11
-5.50001389E+01
 21
6.25941237E+01
  0
LINE
  8
0
  6
CENTER
 62
2
 10
-5.26771142E+01
 20
6.49376176E+01
 11
-5.26771142E+01
 21
6.02724140E+01
  0
CIRCLE
  8
0
 62
7
 10
-5.26771142E+01
 20
6.25941237E+01
 40
1.50000000E+00
  0
CIRCLE
  8
0
 62
7
 10
-5.21233231E+01
 20
2.95852027E+01
 40
1.25000000E+00
  0
CIRCLE
  8
0
 62
7
 10
-5.21233231E+01
 20
4.85852027E+01
 40
1.25000000E+00
  0
CIRCLE
  8
0
 62
2
 10
-5.21233231E+01
 20
2.95852027E+01
 40
1.50000000E+00
  0
CIRCLE
  8
0
 62
2
 10
-5.21233231E+01
 20
4.85852027E+01
 40
1.50000000E+00
  0
LINE
  8
0
  6
CENTER
 62
2
 10
-4.95317368E+01
 20
4.85852027E+01
 11
-5.48480006E+01
 21
4.85852027E+01
  0
LINE
  8
0
  6
CENTER
 62
2
 10
-4.92190153E+01
 20
2.95852027E+01
 11
-5.49730892E+01
 21
2.95852027E+01
  0
LINE
  8
0
  6
CENTER
 62
2
 10
-4.39438777E+01
 20
3.90852027E+01
 11
-6.01638942E+01
 21
3.90852027E+01
  0
LINE
  8
0
  6
CENTER
 62
2
 10
-5.21233231E+01
 20
2.59181427E+01
 11
-5.21233231E+01
 21
6.76019127E+01
  0
ARC
  8
0
 62
7
 10
-4.79564184E+01
 20
5.65852027E+01
 40
3.00000000E-01
 50
9.00000002E+01
 51
1.35000000E+02
  0
ARC
  8
0
 62
7
 10
-5.48806824E+01
 20
5.05094668E+01
 40
3.00000000E-01
 50
2.25000000E+02
 51
3.15000000E+02
  0
LINE
  8
0
 62
7
 10
-4.81685504E+01
 20
5.67973347E+01
 11
-5.46685504E+01
 21
5.02973347E+01
  0
ARC
  8
0
 62
7
 10
-5.70020028E+01
 20
5.17822590E+01
 40
3.00000000E-01
 50
4.50000000E+01
 51
1.35000000E+02
  0
ARC
  8
0
 62
7
 10
-4.54233231E+01
 20
5.65852027E+01
 40
3.00000000E-01
 50
0.00000000E+00
 51
9.00000002E+01
  0
LINE
  8
0
 62
7
 10
-4.79564184E+01
 20
5.68852027E+01
 11
-4.54233231E+01
 21
5.68852027E+01
  0
LINE
  8
0
 62
7
 10
-5.89233231E+01
 20
3.60852027E+01
 11
-5.89233231E+01
 21
4.20852027E+01
  0
LINE
  8
0
 62
7
 10
-4.53233231E+01
 20
3.60852027E+01
 11
-4.53233231E+01
 21
4.20852027E+01
  0
ARC
  8
0
 62
7
 10
-4.54233231E+01
 20
2.73852027E+01
 40
3.00000000E-01
 50
2.70000000E+02
 51
0.00000000E+00
  0
ARC
  8
0
 62
7
 10
-5.88233231E+01
 20
2.73852027E+01
 40
3.00000000E-01
 50
1.80000000E+02
 51
2.70000000E+02
  0
LINE
  8
0
 62
7
 10
-5.72141348E+01
 20
5.19943910E+01
 11
-5.91233231E+01
 21
5.00852027E+01
  0
LINE
  8
0
 62
7
 10
-5.67898707E+01
 20
5.19943910E+01
 11
-5.50928145E+01
 21
5.02973347E+01
  0
ARC
  8
0
 62
7
 10
-4.77233231E+01
 20
4.36852027E+01
 40
2.10000001E+00
 50
9.00000002E+01
 51
2.70000000E+02
  0
ARC
  8
0
 62
7
 10
-5.65233231E+01
 20
4.36852027E+01
 40
2.10000001E+00
 50
2.70000000E+02
 51
9.00000002E+01
  0
ARC
  8
0
 62
7
 10
-5.65233231E+01
 20
3.44852027E+01
 40
2.10000001E+00
 50
2.70000000E+02
 51
9.00000002E+01
  0
ARC
  8
0
 62
7
 10
-4.77233231E+01
 20
3.44852027E+01
 40
2.10000001E+00
 50
9.00000002E+01
 51
2.70000000E+02
  0
LINE
  8
0
 62
7
 10
-5.88233231E+01
 20
2.70852027E+01
 11
-4.54233231E+01
 21
2.70852027E+01
  0
LINE
  8
0
 62
7
 10
-4.61233231E+01
 20
4.57852027E+01
 11
-4.56233231E+01
 21
4.52852027E+01
  0
LINE
  8
0
 62
7
 10
-4.61233231E+01
 20
4.57852027E+01
 11
-4.77233231E+01
 21
4.57852027E+01
  0
LINE
  8
0
 62
7
 10
-5.81233231E+01
 20
4.57852027E+01
 11
-5.86233231E+01
 21
4.52852027E+01
  0
LINE
  8
0
 62
7
 10
-5.81233231E+01
 20
4.57852027E+01
 11
-5.65233231E+01
 21
4.57852027E+01
  0
LINE
  8
0
 62
7
 10
-4.53233231E+01
 20
4.20852027E+01
 11
-4.56233231E+01
 21
4.20852027E+01
  0
LINE
  8
0
 62
7
 10
-5.89233231E+01
 20
4.20852027E+01
 11
-5.86233231E+01
 21
4.20852027E+01
  0
LINE
  8
0
 62
7
 10
-4.61233231E+01
 20
4.15852027E+01
 11
-4.56233231E+01
 21
4.20852027E+01
  0
LINE
  8
0
 62
7
 10
-5.81233231E+01
 20
4.15852027E+01
 11
-5.86233231E+01
 21
4.20852027E+01
  0
LINE
  8
0
 62
7
 10
-5.81233231E+01
 20
4.15852027E+01
 11
-5.65233231E+01
 21
4.15852027E+01
  0
LINE
  8
0
 62
7
 10
-4.61233231E+01
 20
4.15852027E+01
 11
-4.77233231E+01
 21
4.15852027E+01
  0
LINE
  8
0
 62
7
 10
-5.91233231E+01
 20
4.52852027E+01
 11
-5.86233231E+01
 21
4.52852027E+01
  0
LINE
  8
0
 62
7
 10
-5.91233231E+01
 20
2.73852027E+01
 11
-5.91233231E+01
 21
3.28852027E+01
  0
LINE
  8
0
 62
7
 10
-5.81233231E+01
 20
3.23852027E+01
 11
-5.86233231E+01
 21
3.28852027E+01
  0
LINE
  8
0
 62
7
 10
-5.91233231E+01
 20
3.28852027E+01
 11
-5.86233231E+01
 21
3.28852027E+01
  0
LINE
  8
0
 62
7
 10
-5.89233231E+01
 20
3.60852027E+01
 11
-5.86233231E+01
 21
3.60852027E+01
  0
LINE
  8
0
 62
7
 10
-5.81233231E+01
 20
3.65852027E+01
 11
-5.86233231E+01
 21
3.60852027E+01
  0
LINE
  8
0
 62
7
 10
-5.81233231E+01
 20
3.65852027E+01
 11
-5.65233231E+01
 21
3.65852027E+01
  0
LINE
  8
0
 62
7
 10
-5.81233231E+01
 20
3.23852027E+01
 11
-5.65233231E+01
 21
3.23852027E+01
  0
LINE
  8
0
 62
7
 10
-4.51233231E+01
 20
4.52852027E+01
 11
-4.56233231E+01
 21
4.52852027E+01
  0
LINE
  8
0
 62
7
 10
-5.91233231E+01
 20
4.52852027E+01
 11
-5.91233231E+01
 21
5.00852027E+01
  0
LINE
  8
0
 62
7
 10
-4.51233231E+01
 20
2.73852027E+01
 11
-4.51233231E+01
 21
3.28852027E+01
  0
LINE
  8
0
 62
7
 10
-4.51233231E+01
 20
3.28852027E+01
 11
-4.56233231E+01
 21
3.28852027E+01
  0
LINE
  8
0
 62
7
 10
-4.61233231E+01
 20
3.23852027E+01
 11
-4.56233231E+01
 21
3.28852027E+01
  0
LINE
  8
0
 62
7
 10
-4.61233231E+01
 20
3.23852027E+01
 11
-4.77233231E+01
 21
3.23852027E+01
  0
LINE
  8
0
 62
7
 10
-4.61233231E+01
 20
3.65852027E+01
 11
-4.77233231E+01
 21
3.65852027E+01
  0
LINE
  8
0
 62
7
 10
-4.53233231E+01
 20
3.60852027E+01
 11
-4.56233231E+01
 21
3.60852027E+01
  0
LINE
  8
0
 62
7
 10
-4.61233231E+01
 20
3.65852027E+01
 11
-4.56233231E+01
 21
3.60852027E+01
  0
LINE
  8
0
 62
7
 10
-4.51233231E+01
 20
4.52852027E+01
 11
-4.51233231E+01
 21
5.65852027E+01
  0
LINE
  8
0
 62
7
 10
-5.55170785E+01
 20
5.43985541E+01
 11
-5.79919523E+01
 21
5.19236803E+01
  0
LINE
  8
0
 62
7
 10
-5.00723563E+01
 20
5.60248997E+01
 11
-5.36078902E+01
 21
5.24893658E+01
  0
LINE
  8
0
 62
7
 10
-5.62241853E+01
 20
5.51056608E+01
 11
-5.36078902E+01
 21
5.24893658E+01
  0
LINE
  8
0
 62
7
 10
-5.26886514E+01
 20
5.86411948E+01
 11
-5.00723563E+01
 21
5.60248997E+01
  0
LINE
  8
0
 62
7
 10
-4.95066709E+01
 20
6.04089617E+01
 11
-5.19815446E+01
 21
5.79340880E+01
  0
LINE
  8
0
 62
7
 10
-5.79919523E+01
 20
5.19236803E+01
 11
-5.76383989E+01
 21
5.15701269E+01
  0
LINE
  8
0
 62
7
 10
-4.95066709E+01
 20
6.04089617E+01
 11
-4.59829119E+01
 21
5.68852027E+01
  0
LINE
  8
0
 62
7
 10
-5.78871944E+01
 20
5.25941237E+01
 11
-5.86233231E+01
 21
5.25941237E+01
  0
LINE
  8
0
  6
CENTER
 62
2
 10
-4.39438777E+01
 20
3.44852027E+01
 11
-6.01638942E+01
 21
3.44852027E+01
  0
LINE
  8
0
  6
CENTER
 62
2
 10
-4.39438777E+01
 20
4.36852027E+01
 11
-6.01638942E+01
 21
4.36852027E+01
  0
ARC
  8
0
 62
7
 10
-4.59233231E+01
 20
6.57941237E+01
 40
3.00000000E-01
 50
0.00000000E+00
 51
9.00000002E+01
  0
ARC
  8
0
 62
7
 10
-5.83233231E+01
 20
6.57941237E+01
 40
3.00000000E-01
 50
9.00000002E+01
 51
1.80000000E+02
  0
LINE
  8
0
 62
7
 10
-4.56233231E+01
 20
4.52852027E+01
 11
-4.56233231E+01
 21
4.20852027E+01
  0
LINE
  8
0
 62
7
 10
-5.86233231E+01
 20
5.05852027E+01
 11
-5.86233231E+01
 21
6.57941237E+01
  0
LINE
  8
0
 62
7
 10
-5.86233231E+01
 20
4.20852027E+01
 11
-5.86233231E+01
 21
4.52852027E+01
  0
LINE
  8
0
 62
7
 10
-4.56233231E+01
 20
3.60852027E+01
 11
-4.56233231E+01
 21
3.28852027E+01
  0
LINE
  8
0
  6
PHANTOM
 10
-1.17500000E+02
 20
8.78530076E+01
 11
-1.17500000E+02
 21
1.31485137E+02
  0
LINE
  8
0
 62
7
 10
-1.01760000E+02
 20
1.16662328E+02
 11
-1.01760000E+02
 21
1.11662328E+02
  0
LINE
  8
0
 62
7
 10
-9.86600000E+01
 20
1.16262328E+02
 11
-9.86600000E+01
 21
1.12062328E+02
  0
LINE
  8
0
 62
7
 10
-1.01760000E+02
 20
1.16662328E+02
 11
-9.88900000E+01
 21
1.16662328E+02
  0
LINE
  8
0
 62
7
 10
-1.01760000E+02
 20
1.11662328E+02
 11
-9.88900000E+01
 21
1.11662328E+02
  0
LINE
  8
0
 62
7
 10
-9.88900000E+01
 20
1.11662328E+02
 11
-9.86600000E+01
 21
1.12062328E+02
  0
LINE
  8
0
 62
7
 10
-9.88900000E+01
 20
1.16662328E+02
 11
-9.86600000E+01
 21
1.16262328E+02
  0
LINE
  8
0
 62
7
 10
-1.01760000E+02
 20
1.14162328E+02
 11
-9.88900000E+01
 21
1.14162328E+02
  0
ARC
  8
0
 62
7
 10
-1.02153785E+02
 20
1.12912328E+02
 40
3.49496669E+00
 50
3.39043614E+02
 51
2.09563862E+01
  0
ARC
  8
0
 62
7
 10
-1.02153785E+02
 20
1.15412328E+02
 40
3.49496669E+00
 50
3.39043614E+02
 51
2.09563862E+01
  0
LINE
  8
0
 62
7
 10
-1.02260000E+02
 20
1.11662328E+02
 11
-1.01760000E+02
 21
1.11662328E+02
  0
LINE
  8
0
 62
7
 10
-1.02260000E+02
 20
1.16662328E+02
 11
-1.01760000E+02
 21
1.16662328E+02
  0
LINE
  8
0
 62
7
 10
-1.02750000E+02
 20
1.20670921E+02
 11
-1.02750000E+02
 21
1.07670921E+02
  0
LINE
  8
0
 62
7
 10
-1.02260000E+02
 20
1.20447609E+02
 11
-1.02750000E+02
 21
1.20447609E+02
  0
LINE
  8
0
 62
7
 10
-1.02260000E+02
 20
1.11962328E+02
 11
-1.02750000E+02
 21
1.11962328E+02
  0
LINE
  8
0
 62
7
 10
-1.02260000E+02
 20
1.08761094E+02
 11
-1.02750000E+02
 21
1.08761094E+02
  0
LINE
  8
0
 62
7
 10
-1.65250000E+02
 20
1.20670921E+02
 11
-1.65250000E+02
 21
1.21162328E+02
  0
LINE
  8
0
 62
7
 10
-1.02260000E+02
 20
1.07162328E+02
 11
-1.65250000E+02
 21
1.07162328E+02
  0
LINE
  8
0
 62
7
 10
-1.02260000E+02
 20
1.21162328E+02
 11
-1.65250000E+02
 21
1.21162328E+02
  0
LINE
  8
0
 62
7
 10
-1.02750000E+02
 20
1.07670921E+02
 11
-1.76250000E+02
 21
1.07670921E+02
  0
LINE
  8
0
 62
7
 10
-1.02750000E+02
 20
1.20670921E+02
 11
-1.76250000E+02
 21
1.20670921E+02
  0
LINE
  8
0
 62
7
 10
-1.65250000E+02
 20
1.07162328E+02
 11
-1.65250000E+02
 21
1.07670921E+02
  0
LINE
  8
0
 62
7
 10
-1.02260000E+02
 20
1.21162328E+02
 11
-1.02260000E+02
 21
1.07162328E+02
  0
LINE
  8
0
  6
CENTER
 62
2
 10
-1.78645844E+02
 20
1.14162328E+02
 11
-9.48693091E+01
 21
1.14162328E+02
  0
LINE
  8
0
  6
CENTER
 62
2
 10
-1.58645891E+02
 20
1.17162328E+02
 11
-1.28239514E+02
 21
1.17162328E+02
  0
LINE
  8
0
  6
CENTER
 62
2
 10
-1.56250000E+02
 20
1.19657726E+02
 11
-1.56250000E+02
 21
1.08797300E+02
  0
LINE
  8
0
  6
CENTER
 62
2
 10
-1.46250000E+02
 20
1.19657726E+02
 11
-1.46250000E+02
 21
1.08797300E+02
  0
CIRCLE
  8
0
 62
2
 10
-1.56250000E+02
 20
1.17162328E+02
 40
1.50000000E+00
  0
CIRCLE
  8
0
 62
2
 10
-1.46250000E+02
 20
1.17162328E+02
 40
1.50000000E+00
  0
CIRCLE
  8
0
 62
7
 10
-1.56250000E+02
 20
1.17162328E+02
 40
1.25000000E+00
  0
CIRCLE
  8
0
 62
7
 10
-1.46250000E+02
 20
1.17162328E+02
 40
1.25000000E+00
  0
LINE
  8
0
  6
CENTER
 62
2
 10
-1.31250000E+02
 20
1.19657726E+02
 11
-1.31250000E+02
 21
1.08797300E+02
  0
CIRCLE
  8
0
 62
2
 10
-1.31250000E+02
 20
1.17162328E+02
 40
1.50000000E+00
  0
CIRCLE
  8
0
 62
7
 10
-1.31250000E+02
 20
1.17162328E+02
 40
1.25000000E+00
  0
LINE
  8
0
  6
CENTER
 62
2
 10
-1.58645891E+02
 20
1.11162328E+02
 11
-1.28813335E+02
 21
1.11162328E+02
  0
CIRCLE
  8
0
 62
2
 10
-1.56250000E+02
 20
1.11162328E+02
 40
1.50000000E+00
  0
CIRCLE
  8
0
 62
2
 10
-1.46250000E+02
 20
1.11162328E+02
 40
1.50000000E+00
  0
CIRCLE
  8
0
 62
7
 10
-1.56250000E+02
 20
1.11162328E+02
 40
1.25000000E+00
  0
CIRCLE
  8
0
 62
7
 10
-1.46250000E+02
 20
1.11162328E+02
 40
1.25000000E+00
  0
CIRCLE
  8
0
 62
2
 10
-1.31250000E+02
 20
1.11162328E+02
 40
1.50000000E+00
  0
CIRCLE
  8
0
 62
7
 10
-1.31250000E+02
 20
1.11162328E+02
 40
1.25000000E+00
  0
LINE
  8
0
 62
7
 10
-1.71250000E+02
 20
1.07670921E+02
 11
-1.71250000E+02
 21
1.20670921E+02
  0
LINE
  8
0
 62
7
 10
-1.76250000E+02
 20
1.07670921E+02
 11
-1.76250000E+02
 21
1.20670921E+02
  0
LINE
  8
0
  6
PHANTOM
 10
-1.17500000E+02
 20
-3.46389882E+01
 11
-1.17500000E+02
 21
3.91400412E+00
  0
LINE
  8
0
 62
7
 10
-1.01760000E+02
 20
-1.96122032E+01
 11
-1.01760000E+02
 21
-2.46122032E+01
  0
LINE
  8
0
 62
7
 10
-9.86600000E+01
 20
-2.00122032E+01
 11
-9.86600000E+01
 21
-2.42122032E+01
  0
LINE
  8
0
 62
7
 10
-1.01760000E+02
 20
-1.96122032E+01
 11
-9.88900000E+01
 21
-1.96122032E+01
  0
LINE
  8
0
 62
7
 10
-1.01760000E+02
 20
-2.46122032E+01
 11
-9.88900000E+01
 21
-2.46122032E+01
  0
LINE
  8
0
 62
7
 10
-9.88900000E+01
 20
-2.46122032E+01
 11
-9.86600000E+01
 21
-2.42122032E+01
  0
LINE
  8
0
 62
7
 10
-9.88900000E+01
 20
-1.96122032E+01
 11
-9.86600000E+01
 21
-2.00122032E+01
  0
LINE
  8
0
 62
7
 10
-1.01760000E+02
 20
-2.21122032E+01
 11
-9.88900000E+01
 21
-2.21122032E+01
  0
ARC
  8
0
 62
7
 10
-1.02153788E+02
 20
-2.08622032E+01
 40
3.49496952E+00
 50
3.39043632E+02
 51
2.09563684E+01
  0
ARC
  8
0
 62
7
 10
-1.02153788E+02
 20
-2.33622032E+01
 40
3.49496952E+00
 50
3.39043632E+02
 51
2.09563684E+01
  0
LINE
  8
0
 62
7
 10
-1.02260000E+02
 20
-2.46122032E+01
 11
-1.01760000E+02
 21
-2.46122032E+01
  0
LINE
  8
0
 62
7
 10
-1.02260000E+02
 20
-1.96122032E+01
 11
-1.01760000E+02
 21
-1.96122032E+01
  0
LINE
  8
0
 62
7
 10
-1.65250000E+02
 20
-2.91122032E+01
 11
-1.02260000E+02
 21
-2.91122032E+01
  0
LINE
  8
0
 62
7
 10
-1.65250000E+02
 20
-1.51122032E+01
 11
-1.02260000E+02
 21
-1.51122032E+01
  0
ARC
  8
0
 62
7
 10
-1.10645304E+02
 20
-2.21122032E+01
 40
7.52158835E-01
 50
1.00316102E+02
 51
2.59683898E+02
  0
CIRCLE
  8
0
 62
7
 10
-1.12750000E+02
 20
-2.21122032E+01
 40
2.10000000E+00
  0
CIRCLE
  8
0
 62
2
 10
-1.12750000E+02
 20
-2.21122032E+01
 40
2.50000000E+00
  0
LINE
  8
0
  6
CENTER
 62
2
 10
-1.12750000E+02
 20
-2.56832611E+01
 11
-1.12750000E+02
 21
-1.85554210E+01
  0
CIRCLE
  8
0
 62
7
 10
-1.62750000E+02
 20
-2.61122032E+01
 40
1.25000000E+00
  0
CIRCLE
  8
0
 62
7
 10
-1.07250000E+02
 20
-1.81122032E+01
 40
1.25000000E+00
  0
CIRCLE
  8
0
 62
2
 10
-1.62750000E+02
 20
-2.61122032E+01
 40
1.50000000E+00
  0
CIRCLE
  8
0
 62
2
 10
-1.07250000E+02
 20
-1.81122032E+01
 40
1.50000000E+00
  0
LINE
  8
0
  6
CENTER
 62
2
 10
-1.07250000E+02
 20
-2.04787592E+01
 11
-1.07250000E+02
 21
-1.54254431E+01
  0
LINE
  8
0
  6
CENTER
 62
2
 10
-1.62750000E+02
 20
-2.86784795E+01
 11
-1.62750000E+02
 21
-2.35298179E+01
  0
LINE
  8
0
  6
CENTER
 62
2
 10
-1.65085460E+02
 20
-2.61122032E+01
 11
-1.60127489E+02
 21
-2.61122032E+01
  0
LINE
  8
0
  6
CENTER
 62
2
 10
-1.09785020E+02
 20
-1.81122032E+01
 11
-1.05017741E+02
 21
-1.81122032E+01
  0
CIRCLE
  8
0
 62
7
 10
-1.49750000E+02
 20
-2.21122032E+01
 40
2.10000000E+00
  0
CIRCLE
  8
0
 62
2
 10
-1.49750000E+02
 20
-2.21122032E+01
 40
2.50000000E+00
  0
CIRCLE
  8
0
 62
7
 10
-1.49750000E+02
 20
-2.21122032E+01
 40
4.00000000E-01
  0
LINE
  8
0
 62
7
 10
-1.65250000E+02
 20
-2.91122032E+01
 11
-1.65250000E+02
 21
-1.51122032E+01
  0
LINE
  8
0
  6
CENTER
 62
2
 10
-1.78346277E+02
 20
-2.21122032E+01
 11
-9.39460727E+01
 21
-2.21122032E+01
  0
LINE
  8
0
 62
7
 10
-1.02260000E+02
 20
-2.91122032E+01
 11
-1.02260000E+02
 21
-1.51122032E+01
  0
LINE
  8
0
  6
CENTER
 62
2
 10
-1.49750000E+02
 20
-2.56832611E+01
 11
-1.49750000E+02
 21
-1.85554210E+01
  0
LINE
  8
0
 62
7
 10
-1.76250000E+02
 20
-1.56122032E+01
 11
-1.65250000E+02
 21
-1.56122032E+01
  0
LINE
  8
0
 62
7
 10
-1.76250000E+02
 20
-2.86122032E+01
 11
-1.65250000E+02
 21
-2.86122032E+01
  0
ARC
  8
0
 62
7
 10
-1.66349137E+02
 20
-2.34872032E+01
 40
3.90120848E+00
 50
1.59362459E+02
 51
2.00637541E+02
  0
ARC
  8
0
 62
7
 10
-1.72361505E+02
 20
-2.34872032E+01
 40
3.91116944E+00
 50
3.39417406E+02
 51
2.05825935E+01
  0
ARC
  8
0
 62
7
 10
-1.72361505E+02
 20
-2.07372032E+01
 40
3.91116944E+00
 50
3.39417406E+02
 51
2.05825935E+01
  0
ARC
  8
0
 62
7
 10
-1.66349137E+02
 20
-2.07372032E+01
 40
3.90120848E+00
 50
1.59362459E+02
 51
2.00637541E+02
  0
LINE
  8
0
 62
7
 10
-1.71250000E+02
 20
-2.71122032E+01
 11
-1.70250000E+02
 21
-2.71122032E+01
  0
LINE
  8
0
 62
7
 10
-1.71250000E+02
 20
-1.71122032E+01
 11
-1.70250000E+02
 21
-1.71122032E+01
  0
LINE
  8
0
 62
7
 10
-1.71250000E+02
 20
-1.56122032E+01
 11
-1.71250000E+02
 21
-2.86122032E+01
  0
LINE
  8
0
 62
7
 10
-1.76250000E+02
 20
-1.56122032E+01
 11
-1.76250000E+02
 21
-2.86122032E+01
  0
LINE
  8
0
 62
7
 10
-1.68450000E+02
 20
-2.44322032E+01
 11
-1.68700000E+02
 21
-2.48622032E+01
  0
LINE
  8
0
 62
7
 10
-1.68700000E+02
 20
-2.48622032E+01
 11
-1.70000000E+02
 21
-2.48622032E+01
  0
LINE
  8
0
 62
7
 10
-1.70000000E+02
 20
-2.48622032E+01
 11
-1.70250000E+02
 21
-2.44322032E+01
  0
LINE
  8
0
 62
7
 10
-1.68700000E+02
 20
-2.21122032E+01
 11
-1.70000000E+02
 21
-2.21122032E+01
  0
LINE
  8
0
 62
7
 10
-1.68450000E+02
 20
-1.97922032E+01
 11
-1.68450000E+02
 21
-2.44322032E+01
  0
LINE
  8
0
 62
7
 10
-1.68450000E+02
 20
-1.97922032E+01
 11
-1.68700000E+02
 21
-1.93622032E+01
  0
LINE
  8
0
 62
7
 10
-1.68700000E+02
 20
-1.93622032E+01
 11
-1.70000000E+02
 21
-1.93622032E+01
  0
LINE
  8
0
 62
7
 10
-1.70000000E+02
 20
-1.93622032E+01
 11
-1.70250000E+02
 21
-1.97922032E+01
  0
LINE
  8
0
 62
7
 10
-1.68450000E+02
 20
-2.36122032E+01
 11
-1.65250000E+02
 21
-2.36122032E+01
  0
LINE
  8
0
 62
2
 10
-1.68450000E+02
 20
-2.33622032E+01
 11
-1.68250000E+02
 21
-2.33622032E+01
  0
LINE
  8
0
 62
2
 10
-1.68450000E+02
 20
-2.08622032E+01
 11
-1.68250000E+02
 21
-2.08622032E+01
  0
LINE
  8
0
 62
7
 10
-1.68450000E+02
 20
-2.06122032E+01
 11
-1.65250000E+02
 21
-2.06122032E+01
  0
LINE
  8
0
 62
7
 10
-1.70250000E+02
 20
-1.71122032E+01
 11
-1.70250000E+02
 21
-2.71122032E+01
  0
LINE
  8
0
 62
2
 10
-1.68250000E+02
 20
-2.33622032E+01
 11
-1.67820000E+02
 21
-2.36122032E+01
  0
LINE
  8
0
 62
2
 10
-1.68250000E+02
 20
-2.08622032E+01
 11
-1.67820000E+02
 21
-2.06122032E+01
  0
LINE
  8
0
 62
7
 10
-1.68250000E+02
 20
-2.06122032E+01
 11
-1.68250000E+02
 21
-2.36122032E+01
  0
LINE
  8
0
  6
PHANTOM
 10
1.66674927E+02
 20
-4.08018669E+00
 11
1.66674927E+02
 21
8.78530076E+01
  0
LINE
  8
0
 62
7
 10
1.16424927E+02
 20
5.15701269E+01
 11
1.50424927E+02
 21
5.15701269E+01
  0
LINE
  8
0
 62
7
 10
1.79424927E+02
 20
5.20822590E+01
 11
1.50424927E+02
 21
5.20822590E+01
  0
LINE
  8
0
 62
7
 10
1.43924927E+02
 20
5.19236803E+01
 11
1.24424927E+02
 21
5.19236803E+01
  0
LINE
  8
0
 62
4
 10
1.86424927E+02
 20
2.70852027E+01
 11
1.07424927E+02
 21
2.70852027E+01
  0
LINE
  8
0
 62
7
 10
1.79424927E+02
 20
5.00852027E+01
 11
1.16424927E+02
 21
5.00852027E+01
  0
LINE
  8
0
 62
7
 10
1.78924927E+02
 20
5.25941237E+01
 11
1.10424927E+02
 21
5.25941237E+01
  0
LINE
  8
0
 62
7
 10
1.78924927E+02
 20
6.60941237E+01
 11
1.10424927E+02
 21
6.60941237E+01
  0
LINE
  8
0
 62
7
 10
1.50424927E+02
 20
5.25941237E+01
 11
1.50424927E+02
 21
5.15701269E+01
  0
LINE
  8
0
 62
7
 10
1.78924927E+02
 20
6.61542640E+01
 11
1.78924927E+02
 21
5.27675995E+01
  0
LINE
  8
0
 62
7
 10
1.43924927E+02
 20
5.15701269E+01
 11
1.43924927E+02
 21
5.25941237E+01
  0
LINE
  8
0
 62
7
 10
1.24424927E+02
 20
5.25941237E+01
 11
1.24424927E+02
 21
5.15701269E+01
  0
LINE
  8
0
 62
7
 10
1.79424927E+02
 20
5.69155328E+01
 11
1.78924927E+02
 21
5.69155328E+01
  0
LINE
  8
0
 62
7
 10
1.16424927E+02
 20
5.25941237E+01
 11
1.16424927E+02
 21
2.70852027E+01
  0
CIRCLE
  8
0
 62
7
 10
1.23424927E+02
 20
4.45851951E+01
 40
1.75000000E+00
  0
CIRCLE
  8
0
 62
7
 10
1.23424927E+02
 20
3.35852027E+01
 40
1.75000000E+00
  0
LINE
  8
0
  6
CENTER
 62
2
 10
1.23424927E+02
 20
2.95470406E+01
 11
1.23424927E+02
 21
4.83939434E+01
  0
LINE
  8
0
  6
CENTER
 62
2
 10
1.19429383E+02
 20
4.45852027E+01
 11
1.27222260E+02
 21
4.45852027E+01
  0
LINE
  8
0
  6
CENTER
 62
2
 10
1.19344678E+02
 20
3.35852027E+01
 11
1.28069312E+02
 21
3.35852027E+01
  0
LINE
  8
0
 62
7
 10
1.79424927E+02
 20
5.69155328E+01
 11
1.79424927E+02
 21
2.70852027E+01
  0
CIRCLE
  8
0
 62
7
 10
1.23424927E+02
 20
4.45852027E+01
 40
3.00000000E+00
  0
CIRCLE
  8
0
 62
7
 10
1.23424927E+02
 20
3.35852027E+01
 40
3.00000000E+00
  0
LINE
  8
0
  6
CENTER
 62
2
 10
1.02304927E+02
 20
3.90852027E+01
 11
1.85737308E+02
 21
3.90852027E+01
  0
LINE
  8
0
 62
7
 10
1.13224927E+02
 20
4.05852027E+01
 11
1.16424927E+02
 21
4.05852027E+01
  0
LINE
  8
0
 62
7
 10
1.13224927E+02
 20
3.75852027E+01
 11
1.16424927E+02
 21
3.75852027E+01
  0
LINE
  8
0
 62
7
 10
1.10424927E+02
 20
6.60941237E+01
 11
1.10424927E+02
 21
2.95852027E+01
  0
LINE
  8
0
 62
7
 10
1.05424927E+02
 20
6.57852027E+01
 11
1.05424927E+02
 21
2.95852027E+01
  0
ARC
  8
0
 62
7
 10
1.11834197E+02
 20
4.14902027E+01
 40
1.39042813E+00
 50
3.25126510E+02
 51
3.48734900E+01
  0
ARC
  8
0
 62
7
 10
1.07895669E+02
 20
3.90802027E+01
 40
5.32983009E+00
 50
3.42361427E+02
 51
1.76385730E+01
  0
ARC
  8
0
 62
7
 10
1.11834196E+02
 20
3.66752027E+01
 40
1.38757549E+00
 50
3.25295897E+02
 51
3.47041029E+01
  0
ARC
  8
0
 62
7
 10
1.12805030E+02
 20
3.66752027E+01
 40
1.37885242E+00
 50
1.45044489E+02
 51
2.14955511E+02
  0
ARC
  8
0
 62
7
 10
1.16743566E+02
 20
3.90802027E+01
 40
5.31971110E+00
 50
1.62326771E+02
 51
1.97673230E+02
  0
ARC
  8
0
 62
7
 10
1.12805030E+02
 20
4.14902027E+01
 40
1.38172306E+00
 50
1.44874553E+02
 51
2.15125446E+02
  0
LINE
  8
0
 62
7
 10
1.10424927E+02
 20
4.40852027E+01
 11
1.11424927E+02
 21
4.40852027E+01
  0
LINE
  8
0
 62
7
 10
1.10424927E+02
 20
3.40852027E+01
 11
1.11424927E+02
 21
3.40852027E+01
  0
LINE
  8
0
 62
7
 10
1.05424927E+02
 20
2.95852027E+01
 11
1.10424927E+02
 21
2.95852027E+01
  0
LINE
  8
0
 62
7
 10
1.12974927E+02
 20
3.58852027E+01
 11
1.13224927E+02
 21
3.63152027E+01
  0
LINE
  8
0
 62
7
 10
1.12974927E+02
 20
4.22852027E+01
 11
1.13224927E+02
 21
4.18452027E+01
  0
LINE
  8
0
 62
7
 10
1.11674927E+02
 20
4.22852027E+01
 11
1.11424927E+02
 21
4.18452027E+01
  0
LINE
  8
0
 62
7
 10
1.11674927E+02
 20
3.58852027E+01
 11
1.11424927E+02
 21
3.63152027E+01
  0
LINE
  8
0
 62
7
 10
1.11674927E+02
 20
3.58852027E+01
 11
1.12974927E+02
 21
3.58852027E+01
  0
LINE
  8
0
 62
7
 10
1.11674927E+02
 20
4.22852027E+01
 11
1.12974927E+02
 21
4.22852027E+01
  0
LINE
  8
0
 62
7
 10
1.11424927E+02
 20
4.40852027E+01
 11
1.11424927E+02
 21
3.40852027E+01
  0
LINE
  8
0
 62
7
 10
1.13224927E+02
 20
4.18452027E+01
 11
1.13224927E+02
 21
3.63152027E+01
  0
LINE
  8
0
 62
7
 10
1.11674927E+02
 20
3.74652027E+01
 11
1.12974927E+02
 21
3.74652027E+01
  0
LINE
  8
0
 62
7
 10
1.11674927E+02
 20
4.06952027E+01
 11
1.12974927E+02
 21
4.06952027E+01
  0
LINE
  8
0
 62
2
 10
1.13224927E+02
 20
3.78352027E+01
 11
1.13424927E+02
 21
3.78352027E+01
  0
LINE
  8
0
 62
2
 10
1.13224927E+02
 20
4.03352027E+01
 11
1.13424927E+02
 21
4.03352027E+01
  0
LINE
  8
0
 62
2
 10
1.13424927E+02
 20
3.78352027E+01
 11
1.13854927E+02
 21
3.75852027E+01
  0
LINE
  8
0
 62
2
 10
1.13424927E+02
 20
4.03352027E+01
 11
1.13854927E+02
 21
4.05852027E+01
  0
LINE
  8
0
 62
7
 10
1.13424927E+02
 20
4.05852027E+01
 11
1.13424927E+02
 21
3.75852027E+01
  0
LINE
  8
0
 62
7
 10
1.05424927E+02
 20
6.57852027E+01
 11
1.10424927E+02
 21
6.57852027E+01
  0
LINE
  8
0
  6
CENTER
 62
2
 10
1.63905534E+02
 20
6.15941237E+01
 11
1.26946603E+02
 21
6.15941237E+01
  0
LINE
  8
0
  6
CENTER
 62
2
 10
1.30424927E+02
 20
6.44589279E+01
 11
1.30424927E+02
 21
5.89461462E+01
  0
LINE
  8
0
  6
CENTER
 62
2
 10
1.45424927E+02
 20
6.44589279E+01
 11
1.45424927E+02
 21
5.89461462E+01
  0
LINE
  8
0
  6
CENTER
 62
6
 10
1.60424927E+02
 20
6.44589279E+01
 11
1.60424927E+02
 21
5.89461462E+01
  0
CIRCLE
  8
0
 62
7
 10
1.30424927E+02
 20
6.15941237E+01
 40
1.25000000E+00
  0
CIRCLE
  8
0
 62
7
 10
1.45424927E+02
 20
6.15941237E+01
 40
1.25000000E+00
  0
CIRCLE
  8
0
 62
4
 10
1.60424927E+02
 20
6.15941237E+01
 40
1.25000000E+00
  0
CIRCLE
  8
0
 62
6
 10
1.60424927E+02
 20
6.15941237E+01
 40
1.50000000E+00
  0
CIRCLE
  8
0
 62
2
 10
1.45424927E+02
 20
6.15941237E+01
 40
1.50000000E+00
  0
CIRCLE
  8
0
 62
2
 10
1.30424927E+02
 20
6.15941237E+01
 40
1.50000000E+00
  0
LINE
  8
0
 62
7
 10
1.79424927E+02
 20
4.52852027E+01
 11
1.26342117E+02
 21
4.52852027E+01
  0
LINE
  8
0
 62
7
 10
1.79424927E+02
 20
4.20852027E+01
 11
1.25083239E+02
 21
4.20852027E+01
  0
LINE
  8
0
 62
7
 10
1.79424927E+02
 20
3.60852027E+01
 11
1.25083239E+02
 21
3.60852027E+01
  0
LINE
  8
0
 62
7
 10
1.79424927E+02
 20
3.28852027E+01
 11
1.26342117E+02
 21
3.28852027E+01
  0
LINE
  8
0
 62
7
 10
1.20507736E+02
 20
4.52852027E+01
 11
1.16424927E+02
 21
4.52852027E+01
  0
LINE
  8
0
 62
7
 10
1.21252614E+02
 20
4.20852027E+01
 11
1.16424927E+02
 21
4.20852027E+01
  0
LINE
  8
0
 62
7
 10
1.21766614E+02
 20
3.60852027E+01
 11
1.16424927E+02
 21
3.60852027E+01
  0
LINE
  8
0
 62
7
 10
1.20507736E+02
 20
3.28852027E+01
 11
1.16424927E+02
 21
3.28852027E+01
  0
LINE
  8
0
 62
4
 10
1.86424927E+02
 20
2.70852027E+01
 11
1.86424927E+02
 21
1.65852027E+01
  0
LINE
  8
0
 62
4
 10
1.86424927E+02
 20
1.65852027E+01
 11
1.07424927E+02
 21
1.65852027E+01
  0
LINE
  8
0
 62
4
 10
1.07424927E+02
 20
2.70852027E+01
 11
1.07424927E+02
 21
1.65852027E+01
  0
LINE
  8
0
  6
CENTER
 62
6
 10
1.12424927E+02
 20
1.43338607E+01
 11
1.12424927E+02
 21
2.88938607E+01
  0
LINE
  8
0
  6
DASHED
 62
6
 10
1.10724927E+02
 20
1.65852027E+01
 11
1.10724927E+02
 21
2.45852027E+01
  0
LINE
  8
0
  6
DASHED
 62
6
 10
1.14124927E+02
 20
1.65852027E+01
 11
1.14124927E+02
 21
2.45852027E+01
  0
LINE
  8
0
  6
DASHED
 62
6
 10
1.09424927E+02
 20
2.45852027E+01
 11
1.09424927E+02
 21
2.70852027E+01
  0
LINE
  8
0
  6
DASHED
 62
6
 10
1.15424927E+02
 20
2.45852027E+01
 11
1.15424927E+02
 21
2.70852027E+01
  0
LINE
  8
0
  6
DASHED
 62
6
 10
1.15424927E+02
 20
2.45852027E+01
 11
1.09424927E+02
 21
2.45852027E+01
  0
LINE
  8
0
  6
CENTER
 62
6
 10
1.83424927E+02
 20
1.41316096E+01
 11
1.83424927E+02
 21
2.88862417E+01
  0
LINE
  8
0
  6
DASHED
 62
6
 10
1.81724927E+02
 20
1.65852027E+01
 11
1.81724927E+02
 21
2.70852027E+01
  0
LINE
  8
0
  6
DASHED
 62
6
 10
1.85124927E+02
 20
1.65852027E+01
 11
1.85124927E+02
 21
2.70852027E+01
  0
LINE
  8
0
 62
4
 10
4.29249268E+01
 20
2.70852027E+01
 11
4.37249268E+01
 21
2.70852027E+01
  0
LINE
  8
0
 62
7
 10
5.71249268E+01
 20
2.70852027E+01
 11
4.37249268E+01
 21
2.70852027E+01
  0
CIRCLE
  8
0
 62
7
 10
5.39196118E+01
 20
5.97851905E+01
 40
2.50000000E+00
  0
CIRCLE
  8
0
 62
7
 10
5.39196118E+01
 20
5.97851905E+01
 40
2.25000000E+00
  0
LINE
  8
0
 62
7
 10
5.29249268E+01
 20
6.03552027E+01
 11
5.29249268E+01
 21
5.92052027E+01
  0
LINE
  8
0
 62
7
 10
5.49249268E+01
 20
5.92052027E+01
 11
5.39249268E+01
 21
5.86352027E+01
  0
LINE
  8
0
 62
7
 10
5.49249268E+01
 20
6.03552027E+01
 11
5.49249268E+01
 21
5.92052027E+01
  0
LINE
  8
0
 62
7
 10
5.39249268E+01
 20
6.09352027E+01
 11
5.49249268E+01
 21
6.03552027E+01
  0
LINE
  8
0
 62
7
 10
5.39249268E+01
 20
5.86352027E+01
 11
5.29249268E+01
 21
5.92052027E+01
  0
LINE
  8
0
 62
7
 10
5.39249268E+01
 20
6.09352027E+01
 11
5.29249268E+01
 21
6.03552027E+01
  0
LINE
  8
0
  6
CENTER
 62
2
 10
5.70146525E+01
 20
5.97852027E+01
 11
5.07959756E+01
 21
5.97852027E+01
  0
LINE
  8
0
  6
CENTER
 62
2
 10
5.39249268E+01
 20
6.33286537E+01
 11
5.39249268E+01
 21
5.62427109E+01
  0
CIRCLE
  8
0
 62
7
 10
4.69196118E+01
 20
6.27851905E+01
 40
2.50000000E+00
  0
CIRCLE
  8
0
 62
7
 10
4.69196118E+01
 20
6.27851905E+01
 40
2.25000000E+00
  0
LINE
  8
0
 62
7
 10
4.59249268E+01
 20
6.33552027E+01
 11
4.59249268E+01
 21
6.22052027E+01
  0
LINE
  8
0
 62
7
 10
4.79249268E+01
 20
6.22052027E+01
 11
4.69249268E+01
 21
6.16352027E+01
  0
LINE
  8
0
 62
7
 10
4.79249268E+01
 20
6.33552027E+01
 11
4.79249268E+01
 21
6.22052027E+01
  0
LINE
  8
0
 62
7
 10
4.69249268E+01
 20
6.39352027E+01
 11
4.79249268E+01
 21
6.33552027E+01
  0
LINE
  8
0
 62
7
 10
4.69249268E+01
 20
6.16352027E+01
 11
4.59249268E+01
 21
6.22052027E+01
  0
LINE
  8
0
 62
7
 10
4.69249268E+01
 20
6.39352027E+01
 11
4.59249268E+01
 21
6.33552027E+01
  0
LINE
  8
0
  6
CENTER
 62
2
 10
5.00146525E+01
 20
6.27852027E+01
 11
4.37959756E+01
 21
6.27852027E+01
  0
LINE
  8
0
  6
CENTER
 62
2
 10
4.69249268E+01
 20
6.63286537E+01
 11
4.69249268E+01
 21
5.92427109E+01
  0
LINE
  8
0
  6
CENTER
 62
2
 10
4.74249268E+01
 20
4.91369253E+01
 11
4.74249268E+01
 21
2.92475995E+01
  0
LINE
  8
0
  6
CENTER
 62
2
 10
4.48252788E+01
 20
4.61675995E+01
 11
5.62139598E+01
 21
4.61675995E+01
  0
LINE
  8
0
  6
CENTER
 62
2
 10
4.48252788E+01
 20
3.21675995E+01
 11
5.62139598E+01
 21
3.21675995E+01
  0
LINE
  8
0
 62
2
 10
5.34249268E+01
 20
4.91369253E+01
 11
5.34249268E+01
 21
2.92475995E+01
  0
CIRCLE
  8
0
 62
7
 10
5.04249268E+01
 20
3.90852027E+01
 40
5.00000000E+00
  0
CIRCLE
  8
0
 62
7
 10
5.04249268E+01
 20
3.90852027E+01
 40
4.00000000E+00
  0
LINE
  8
0
 62
7
 10
5.31749268E+01
 20
4.06952027E+01
 11
5.31749268E+01
 21
3.74652027E+01
  0
LINE
  8
0
 62
7
 10
5.04249268E+01
 20
4.22852027E+01
 11
5.31749268E+01
 21
4.06952027E+01
  0
LINE
  8
0
 62
7
 10
5.04249268E+01
 20
3.58852027E+01
 11
5.31749268E+01
 21
3.74652027E+01
  0
LINE
  8
0
 62
7
 10
4.76749268E+01
 20
4.06952027E+01
 11
4.76749268E+01
 21
3.74652027E+01
  0
CIRCLE
  8
0
 62
7
 10
5.04196118E+01
 20
3.90852027E+01
 40
2.75000000E+00
  0
LINE
  8
0
 62
7
 10
4.76749268E+01
 20
3.74652027E+01
 11
5.04249268E+01
 21
3.58852027E+01
  0
LINE
  8
0
 62
7
 10
4.76749268E+01
 20
4.06952027E+01
 11
5.04249268E+01
 21
4.22852027E+01
  0
CIRCLE
  8
0
 62
7
 10
5.04196118E+01
 20
3.90852027E+01
 40
1.50000000E+00
  0
CIRCLE
  8
0
 62
2
 10
5.04196118E+01
 20
3.90852027E+01
 40
1.25000000E+00
  0
CIRCLE
  8
0
 62
2
 10
4.74249268E+01
 20
3.21675995E+01
 40
1.50000000E+00
  0
CIRCLE
  8
0
 62
2
 10
4.74249268E+01
 20
4.61675995E+01
 40
1.50000000E+00
  0
CIRCLE
  8
0
 62
7
 10
4.74249268E+01
 20
4.61675995E+01
 40
1.25000000E+00
  0
CIRCLE
  8
0
 62
7
 10
4.74249268E+01
 20
3.21675995E+01
 40
1.25000000E+00
  0
CIRCLE
  8
0
 62
7
 10
5.34249268E+01
 20
3.21675995E+01
 40
1.25000000E+00
  0
CIRCLE
  8
0
 62
7
 10
5.34249268E+01
 20
4.61675995E+01
 40
1.25000000E+00
  0
CIRCLE
  8
0
 62
2
 10
5.34249268E+01
 20
4.61675995E+01
 40
1.50000000E+00
  0
CIRCLE
  8
0
 62
2
 10
5.34249268E+01
 20
3.21675995E+01
 40
1.50000000E+00
  0
LINE
  8
0
 62
7
 10
5.69249268E+01
 20
2.95852027E+01
 11
4.39249268E+01
 21
2.95852027E+01
  0
LINE
  8
0
 62
7
 10
5.69249268E+01
 20
6.57852027E+01
 11
4.39249268E+01
 21
6.57852027E+01
  0
LINE
  8
0
 62
7
 10
4.34249268E+01
 20
4.52852027E+01
 11
4.34249268E+01
 21
5.65852027E+01
  0
LINE
  8
0
 62
7
 10
4.36249268E+01
 20
3.60852027E+01
 11
4.39249268E+01
 21
3.60852027E+01
  0
LINE
  8
0
 62
7
 10
4.34249268E+01
 20
3.28852027E+01
 11
4.39249268E+01
 21
3.28852027E+01
  0
LINE
  8
0
 62
7
 10
4.34249268E+01
 20
2.73852027E+01
 11
4.34249268E+01
 21
3.28852027E+01
  0
LINE
  8
0
 62
7
 10
5.74249268E+01
 20
4.52852027E+01
 11
5.74249268E+01
 21
5.00852027E+01
  0
LINE
  8
0
 62
7
 10
4.34249268E+01
 20
4.52852027E+01
 11
4.39249268E+01
 21
4.52852027E+01
  0
LINE
  8
0
 62
7
 10
5.72249268E+01
 20
3.60852027E+01
 11
5.69249268E+01
 21
3.60852027E+01
  0
LINE
  8
0
 62
7
 10
5.74249268E+01
 20
3.28852027E+01
 11
5.69249268E+01
 21
3.28852027E+01
  0
LINE
  8
0
 62
7
 10
5.74249268E+01
 20
2.73852027E+01
 11
5.74249268E+01
 21
3.28852027E+01
  0
LINE
  8
0
 62
7
 10
5.74249268E+01
 20
4.52852027E+01
 11
5.69249268E+01
 21
4.52852027E+01
  0
LINE
  8
0
 62
7
 10
5.72249268E+01
 20
4.20852027E+01
 11
5.69249268E+01
 21
4.20852027E+01
  0
LINE
  8
0
 62
7
 10
4.36249268E+01
 20
4.20852027E+01
 11
4.39249268E+01
 21
4.20852027E+01
  0
LINE
  8
0
 62
4
 10
5.79249268E+01
 20
2.70852027E+01
 11
5.71249268E+01
 21
2.70852027E+01
  0
LINE
  8
0
 62
7
 10
5.69249268E+01
 20
5.05852027E+01
 11
5.74249268E+01
 21
5.00852027E+01
  0
ARC
  8
0
 62
7
 10
5.71249268E+01
 20
2.73852027E+01
 40
3.00000000E-01
 50
2.70000000E+02
 51
0.00000000E+00
  0
ARC
  8
0
 62
7
 10
4.37249268E+01
 20
2.73852027E+01
 40
3.00000000E-01
 50
1.80000000E+02
 51
2.70000000E+02
  0
LINE
  8
0
 62
7
 10
4.36249268E+01
 20
3.60852027E+01
 11
4.36249268E+01
 21
4.20852027E+01
  0
LINE
  8
0
 62
7
 10
5.72249268E+01
 20
3.60852027E+01
 11
5.72249268E+01
 21
4.20852027E+01
  0
LINE
  8
0
 62
7
 10
4.39249268E+01
 20
5.68852027E+01
 11
4.37249268E+01
 21
5.68852027E+01
  0
ARC
  8
0
 62
7
 10
4.37249268E+01
 20
5.65852027E+01
 40
3.00000000E-01
 50
9.00000002E+01
 51
1.80000000E+02
  0
LINE
  8
0
  6
CENTER
 62
2
 10
5.04249268E+01
 20
1.45310245E+01
 11
5.04249268E+01
 21
6.76948460E+01
  0
LINE
  8
0
  6
CENTER
 62
2
 10
4.22454813E+01
 20
3.90852027E+01
 11
5.84654978E+01
 21
3.90852027E+01
  0
LINE
  8
0
 62
7
 10
5.69249268E+01
 20
2.95852027E+01
 11
5.69249268E+01
 21
6.57941237E+01
  0
LINE
  8
0
 62
7
 10
4.42249268E+01
 20
6.60941237E+01
 11
5.66249268E+01
 21
6.60941237E+01
  0
LINE
  8
0
 62
7
 10
4.39249268E+01
 20
6.57941237E+01
 11
4.39249268E+01
 21
2.95852027E+01
  0
ARC
  8
0
 62
7
 10
5.66249268E+01
 20
6.57941237E+01
 40
3.00000000E-01
 50
0.00000000E+00
 51
9.00000002E+01
  0
ARC
  8
0
 62
7
 10
4.42249268E+01
 20
6.57941237E+01
 40
3.00000000E-01
 50
9.00000002E+01
 51
1.80000000E+02
  0
LINE
  8
0
 62
4
 10
4.29249268E+01
 20
1.65852027E+01
 11
4.29249268E+01
 21
2.70852027E+01
  0
LINE
  8
0
 62
4
 10
5.79249268E+01
 20
1.65852027E+01
 11
5.79249268E+01
 21
2.70852027E+01
  0
LINE
  8
0
 62
4
 10
5.79249268E+01
 20
1.65852027E+01
 11
4.29249268E+01
 21
1.65852027E+01
  0
LINE
  8
0
  6
CENTER
 62
6
 10
5.30714978E+01
 20
2.25852027E+01
 11
4.77478615E+01
 21
2.25852027E+01
  0
CIRCLE
  8
0
 62
4
 10
5.04249268E+01
 20
2.25852027E+01
 40
1.50000000E+00
  0
LINE
  8
0
 62
7
 10
2.35351604E+02
 20
2.70852027E+01
 11
2.48751604E+02
 21
2.70852027E+01
  0
LINE
  8
0
 62
4
 10
2.48751604E+02
 20
2.70852027E+01
 11
2.49551604E+02
 21
2.70852027E+01
  0
ARC
  8
0
 62
7
 10
2.42051604E+02
 20
3.90852027E+01
 40
5.50600581E+00
 50
2.44898435E+02
 51
2.95101565E+02
  0
ARC
  8
0
 62
7
 10
2.42054430E+02
 20
3.90752431E+01
 40
5.50283490E+00
 50
1.79896300E+02
 51
2.06904284E+02
  0
ARC
  8
0
 62
7
 10
2.42054430E+02
 20
3.90951623E+01
 40
5.50283490E+00
 50
1.53095716E+02
 51
1.80103699E+02
  0
ARC
  8
0
 62
7
 10
2.42051604E+02
 20
3.90852027E+01
 40
5.49656256E+00
 50
6.48727143E+01
 51
1.15127285E+02
  0
ARC
  8
0
 62
7
 10
2.42053020E+02
 20
3.90901594E+01
 40
5.49858600E+00
 50
3.32898784E+02
 51
3.59948350E+02
  0
ARC
  8
0
 62
7
 10
2.42053020E+02
 20
3.90802460E+01
 40
5.49858600E+00
 50
5.16496279E-02
 51
2.71012160E+01
  0
CIRCLE
  8
0
 62
7
 10
2.42051604E+02
 20
3.90852027E+01
 40
4.09999943E+00
  0
CIRCLE
  8
0
 62
7
 10
2.42051604E+02
 20
3.90852027E+01
 40
2.94999981E+00
  0
CIRCLE
  8
0
 62
7
 10
2.42051604E+02
 20
3.90852027E+01
 40
3.44999981E+00
  0
LINE
  8
0
 62
7
 10
2.41910539E+02
 20
5.82169307E+01
 11
2.44668256E+02
 21
6.09746471E+01
  0
LINE
  8
0
 62
7
 10
2.48551604E+02
 20
6.57941237E+01
 11
2.48551604E+02
 21
5.68852027E+01
  0
LINE
  8
0
 62
7
 10
2.48251604E+02
 20
6.60941237E+01
 11
2.35851604E+02
 21
6.60941237E+01
  0
LINE
  8
0
 62
7
 10
2.36287732E+02
 20
5.25941237E+01
 11
2.38021452E+02
 21
5.43278434E+01
  0
LINE
  8
0
 62
7
 10
2.35551604E+02
 20
3.28852027E+01
 11
2.35551604E+02
 21
3.60852027E+01
  0
LINE
  8
0
 62
7
 10
2.37597188E+02
 20
5.47521075E+01
 11
2.38021452E+02
 21
5.43278434E+01
  0
LINE
  8
0
 62
7
 10
2.48551604E+02
 20
5.75941237E+01
 11
2.48048779E+02
 21
5.75941237E+01
  0
LINE
  8
0
 62
7
 10
2.37597188E+02
 20
5.47521074E+01
 11
2.41486275E+02
 21
5.86411947E+01
  0
LINE
  8
0
 62
7
 10
2.44668256E+02
 20
6.09746471E+01
 11
2.48048779E+02
 21
5.75941237E+01
  0
LINE
  8
0
  6
CENTER
 62
2
 10
2.43715829E+02
 20
6.25941237E+01
 11
2.39174788E+02
 21
6.25941237E+01
  0
LINE
  8
0
  6
CENTER
 62
2
 10
2.41497813E+02
 20
6.49376176E+01
 11
2.41497813E+02
 21
6.02724140E+01
  0
CIRCLE
  8
0
 62
7
 10
2.41497813E+02
 20
6.25941237E+01
 40
1.50000000E+00
  0
CIRCLE
  8
0
 62
7
 10
2.42051604E+02
 20
2.95852027E+01
 40
1.25000000E+00
  0
CIRCLE
  8
0
 62
7
 10
2.42051604E+02
 20
4.85852027E+01
 40
1.25000000E+00
  0
CIRCLE
  8
0
 62
2
 10
2.42051604E+02
 20
2.95852027E+01
 40
1.50000000E+00
  0
CIRCLE
  8
0
 62
2
 10
2.42051604E+02
 20
4.85852027E+01
 40
1.50000000E+00
  0
LINE
  8
0
  6
CENTER
 62
2
 10
2.44643190E+02
 20
4.85852027E+01
 11
2.39326926E+02
 21
4.85852027E+01
  0
LINE
  8
0
  6
CENTER
 62
2
 10
2.44955911E+02
 20
2.95852027E+01
 11
2.39201838E+02
 21
2.95852027E+01
  0
LINE
  8
0
  6
CENTER
 62
2
 10
2.50231049E+02
 20
3.90852027E+01
 11
2.34011033E+02
 21
3.90852027E+01
  0
LINE
  8
0
  6
CENTER
 62
2
 10
2.42051604E+02
 20
1.51920425E+01
 11
2.42051604E+02
 21
6.76019127E+01
  0
ARC
  8
0
 62
7
 10
2.46218508E+02
 20
5.65852027E+01
 40
3.00000000E-01
 50
9.00000002E+01
 51
1.35000000E+02
  0
ARC
  8
0
 62
7
 10
2.39294244E+02
 20
5.05094668E+01
 40
3.00000000E-01
 50
2.25000000E+02
 51
3.15000000E+02
  0
LINE
  8
0
 62
7
 10
2.46006376E+02
 20
5.67973347E+01
 11
2.39506376E+02
 21
5.02973347E+01
  0
ARC
  8
0
 62
7
 10
2.37172924E+02
 20
5.17822590E+01
 40
3.00000000E-01
 50
4.50000000E+01
 51
1.35000000E+02
  0
ARC
  8
0
 62
7
 10
2.48751604E+02
 20
5.65852027E+01
 40
3.00000000E-01
 50
0.00000000E+00
 51
9.00000002E+01
  0
LINE
  8
0
 62
7
 10
2.46218508E+02
 20
5.68852027E+01
 11
2.48751604E+02
 21
5.68852027E+01
  0
LINE
  8
0
 62
7
 10
2.35251604E+02
 20
3.60852027E+01
 11
2.35251604E+02
 21
4.20852027E+01
  0
LINE
  8
0
 62
7
 10
2.48851604E+02
 20
3.60852027E+01
 11
2.48851604E+02
 21
4.20852027E+01
  0
ARC
  8
0
 62
7
 10
2.48751604E+02
 20
2.73852027E+01
 40
3.00000000E-01
 50
2.70000000E+02
 51
0.00000000E+00
  0
ARC
  8
0
 62
7
 10
2.35351604E+02
 20
2.73852027E+01
 40
3.00000000E-01
 50
1.80000000E+02
 51
2.70000000E+02
  0
LINE
  8
0
 62
7
 10
2.36960792E+02
 20
5.19943910E+01
 11
2.35051604E+02
 21
5.00852027E+01
  0
LINE
  8
0
 62
7
 10
2.37385056E+02
 20
5.19943910E+01
 11
2.39082112E+02
 21
5.02973347E+01
  0
ARC
  8
0
 62
7
 10
2.46451604E+02
 20
4.36852027E+01
 40
2.10000001E+00
 50
9.00000002E+01
 51
2.70000000E+02
  0
ARC
  8
0
 62
7
 10
2.37651604E+02
 20
4.36852027E+01
 40
2.10000001E+00
 50
2.70000000E+02
 51
9.00000002E+01
  0
ARC
  8
0
 62
7
 10
2.37651604E+02
 20
3.44852027E+01
 40
2.10000001E+00
 50
2.70000000E+02
 51
9.00000002E+01
  0
ARC
  8
0
 62
7
 10
2.46451604E+02
 20
3.44852027E+01
 40
2.10000001E+00
 50
9.00000002E+01
 51
2.70000000E+02
  0
LINE
  8
0
 62
4
 10
2.34551604E+02
 20
2.70852027E+01
 11
2.35351604E+02
 21
2.70852027E+01
  0
LINE
  8
0
 62
7
 10
2.48051604E+02
 20
4.57852027E+01
 11
2.48551604E+02
 21
4.52852027E+01
  0
LINE
  8
0
 62
7
 10
2.48051604E+02
 20
4.57852027E+01
 11
2.46451604E+02
 21
4.57852027E+01
  0
LINE
  8
0
 62
7
 10
2.36051604E+02
 20
4.57852027E+01
 11
2.35551604E+02
 21
4.52852027E+01
  0
LINE
  8
0
 62
7
 10
2.36051604E+02
 20
4.57852027E+01
 11
2.37651604E+02
 21
4.57852027E+01
  0
LINE
  8
0
 62
7
 10
2.48851604E+02
 20
4.20852027E+01
 11
2.48551604E+02
 21
4.20852027E+01
  0
LINE
  8
0
 62
7
 10
2.35251604E+02
 20
4.20852027E+01
 11
2.35551604E+02
 21
4.20852027E+01
  0
LINE
  8
0
 62
7
 10
2.48051604E+02
 20
4.15852027E+01
 11
2.48551604E+02
 21
4.20852027E+01
  0
LINE
  8
0
 62
7
 10
2.36051604E+02
 20
4.15852027E+01
 11
2.35551604E+02
 21
4.20852027E+01
  0
LINE
  8
0
 62
7
 10
2.36051604E+02
 20
4.15852027E+01
 11
2.37651604E+02
 21
4.15852027E+01
  0
LINE
  8
0
 62
7
 10
2.48051604E+02
 20
4.15852027E+01
 11
2.46451604E+02
 21
4.15852027E+01
  0
LINE
  8
0
 62
7
 10
2.35051604E+02
 20
4.52852027E+01
 11
2.35551604E+02
 21
4.52852027E+01
  0
LINE
  8
0
 62
7
 10
2.35051604E+02
 20
2.73852027E+01
 11
2.35051604E+02
 21
3.28852027E+01
  0
LINE
  8
0
 62
7
 10
2.36051604E+02
 20
3.23852027E+01
 11
2.35551604E+02
 21
3.28852027E+01
  0
LINE
  8
0
 62
7
 10
2.35051604E+02
 20
3.28852027E+01
 11
2.35551604E+02
 21
3.28852027E+01
  0
LINE
  8
0
 62
7
 10
2.35251604E+02
 20
3.60852027E+01
 11
2.35551604E+02
 21
3.60852027E+01
  0
LINE
  8
0
 62
7
 10
2.36051604E+02
 20
3.65852027E+01
 11
2.35551604E+02
 21
3.60852027E+01
  0
LINE
  8
0
 62
7
 10
2.36051604E+02
 20
3.65852027E+01
 11
2.37651604E+02
 21
3.65852027E+01
  0
LINE
  8
0
 62
7
 10
2.36051604E+02
 20
3.23852027E+01
 11
2.37651604E+02
 21
3.23852027E+01
  0
LINE
  8
0
 62
7
 10
2.49051604E+02
 20
4.52852027E+01
 11
2.48551604E+02
 21
4.52852027E+01
  0
LINE
  8
0
 62
7
 10
2.35051604E+02
 20
4.52852027E+01
 11
2.35051604E+02
 21
5.00852027E+01
  0
LINE
  8
0
 62
7
 10
2.49051604E+02
 20
2.73852027E+01
 11
2.49051604E+02
 21
3.28852027E+01
  0
LINE
  8
0
 62
7
 10
2.49051604E+02
 20
3.28852027E+01
 11
2.48551604E+02
 21
3.28852027E+01
  0
LINE
  8
0
 62
7
 10
2.48051604E+02
 20
3.23852027E+01
 11
2.48551604E+02
 21
3.28852027E+01
  0
LINE
  8
0
 62
7
 10
2.48051604E+02
 20
3.23852027E+01
 11
2.46451604E+02
 21
3.23852027E+01
  0
LINE
  8
0
 62
7
 10
2.48051604E+02
 20
3.65852027E+01
 11
2.46451604E+02
 21
3.65852027E+01
  0
LINE
  8
0
 62
7
 10
2.48851604E+02
 20
3.60852027E+01
 11
2.48551604E+02
 21
3.60852027E+01
  0
LINE
  8
0
 62
7
 10
2.48051604E+02
 20
3.65852027E+01
 11
2.48551604E+02
 21
3.60852027E+01
  0
LINE
  8
0
 62
7
 10
2.49051604E+02
 20
4.52852027E+01
 11
2.49051604E+02
 21
5.65852027E+01
  0
LINE
  8
0
 62
7
 10
2.38657848E+02
 20
5.43985541E+01
 11
2.36182974E+02
 21
5.19236803E+01
  0
LINE
  8
0
 62
7
 10
2.44102570E+02
 20
5.60248997E+01
 11
2.40567037E+02
 21
5.24893658E+01
  0
LINE
  8
0
 62
7
 10
2.37950741E+02
 20
5.51056608E+01
 11
2.40567037E+02
 21
5.24893658E+01
  0
LINE
  8
0
 62
7
 10
2.41486275E+02
 20
5.86411948E+01
 11
2.44102570E+02
 21
5.60248997E+01
  0
LINE
  8
0
 62
7
 10
2.44668256E+02
 20
6.04089617E+01
 11
2.42193382E+02
 21
5.79340880E+01
  0
LINE
  8
0
 62
7
 10
2.36182974E+02
 20
5.19236803E+01
 11
2.36536528E+02
 21
5.15701269E+01
  0
LINE
  8
0
 62
7
 10
2.44668256E+02
 20
6.04089617E+01
 11
2.48192015E+02
 21
5.68852027E+01
  0
LINE
  8
0
 62
7
 10
2.36287732E+02
 20
5.25941237E+01
 11
2.35551604E+02
 21
5.25941237E+01
  0
LINE
  8
0
  6
CENTER
 62
2
 10
2.50231049E+02
 20
3.44852027E+01
 11
2.34011033E+02
 21
3.44852027E+01
  0
LINE
  8
0
  6
CENTER
 62
2
 10
2.50231049E+02
 20
4.36852027E+01
 11
2.34011033E+02
 21
4.36852027E+01
  0
ARC
  8
0
 62
7
 10
2.48251604E+02
 20
6.57941237E+01
 40
3.00000000E-01
 50
0.00000000E+00
 51
9.00000002E+01
  0
ARC
  8
0
 62
7
 10
2.35851604E+02
 20
6.57941237E+01
 40
3.00000000E-01
 50
9.00000002E+01
 51
1.80000000E+02
  0
LINE
  8
0
 62
7
 10
2.48551604E+02
 20
4.52852027E+01
 11
2.48551604E+02
 21
4.20852027E+01
  0
LINE
  8
0
 62
7
 10
2.35551604E+02
 20
5.05852027E+01
 11
2.35551604E+02
 21
6.57941237E+01
  0
LINE
  8
0
 62
7
 10
2.35551604E+02
 20
4.20852027E+01
 11
2.35551604E+02
 21
4.52852027E+01
  0
LINE
  8
0
 62
7
 10
2.48551604E+02
 20
3.60852027E+01
 11
2.48551604E+02
 21
3.28852027E+01
  0
CIRCLE
  8
0
 62
7
 10
2.42051604E+02
 20
3.90852027E+01
 40
1.25000000E+00
  0
CIRCLE
  8
0
 62
2
 10
2.42051604E+02
 20
3.90852027E+01
 40
1.50000000E+00
  0
LINE
  8
0
 62
4
 10
2.34551604E+02
 20
1.65852027E+01
 11
2.34551604E+02
 21
2.70852027E+01
  0
LINE
  8
0
 62
4
 10
2.49551604E+02
 20
1.65852027E+01
 11
2.49551604E+02
 21
2.70852027E+01
  0
LINE
  8
0
 62
4
 10
2.34551604E+02
 20
1.65852027E+01
 11
2.49551604E+02
 21
1.65852027E+01
  0
LINE
  8
0
  6
CENTER
 62
6
 10
2.40006949E+02
 20
2.25852027E+01
 11
2.44117965E+02
 21
2.25852027E+01
  0
CIRCLE
  8
0
 62
6
 10
2.42051604E+02
 20
2.25852027E+01
 40
1.50000000E+00
  0
CIRCLE
  8
0
 62
4
 10
2.42051604E+02
 20
2.25852027E+01
 40
1.25000000E+00
  0
LINE
  8
0
  6
PHANTOM
 10
1.66674927E+02
 20
8.78530076E+01
 11
1.66674927E+02
 21
1.31485137E+02
  0
LINE
  8
0
 62
7
 10
1.78924927E+02
 20
1.20670921E+02
 11
1.78924927E+02
 21
1.07670921E+02
  0
LINE
  8
0
 62
7
 10
1.79414927E+02
 20
1.20447609E+02
 11
1.78924927E+02
 21
1.20447609E+02
  0
LINE
  8
0
 62
7
 10
1.79414927E+02
 20
1.11962328E+02
 11
1.78924927E+02
 21
1.11962328E+02
  0
LINE
  8
0
 62
7
 10
1.79414927E+02
 20
1.08761094E+02
 11
1.78924927E+02
 21
1.08761094E+02
  0
LINE
  8
0
 62
7
 10
1.16424927E+02
 20
1.20670921E+02
 11
1.16424927E+02
 21
1.21162328E+02
  0
LINE
  8
0
 62
7
 10
1.79414927E+02
 20
1.07162328E+02
 11
1.16424927E+02
 21
1.07162328E+02
  0
LINE
  8
0
 62
7
 10
1.79414927E+02
 20
1.21162328E+02
 11
1.16424927E+02
 21
1.21162328E+02
  0
LINE
  8
0
 62
7
 10
1.78924927E+02
 20
1.07670921E+02
 11
1.05424927E+02
 21
1.07670921E+02
  0
LINE
  8
0
 62
7
 10
1.78924927E+02
 20
1.20670921E+02
 11
1.05424927E+02
 21
1.20670921E+02
  0
LINE
  8
0
 62
7
 10
1.16424927E+02
 20
1.07162328E+02
 11
1.16424927E+02
 21
1.07670921E+02
  0
LINE
  8
0
 62
7
 10
1.79414927E+02
 20
1.21162328E+02
 11
1.79414927E+02
 21
1.07162328E+02
  0
LINE
  8
0
  6
CENTER
 62
2
 10
1.03029083E+02
 20
1.14162328E+02
 11
1.89658000E+02
 21
1.14162328E+02
  0
LINE
  8
0
  6
CENTER
 62
2
 10
1.23029036E+02
 20
1.17162328E+02
 11
1.53435413E+02
 21
1.17162328E+02
  0
LINE
  8
0
  6
CENTER
 62
2
 10
1.25424927E+02
 20
1.19657726E+02
 11
1.25424927E+02
 21
1.08797300E+02
  0
LINE
  8
0
  6
CENTER
 62
2
 10
1.35424927E+02
 20
1.19657726E+02
 11
1.35424927E+02
 21
1.08797300E+02
  0
CIRCLE
  8
0
 62
2
 10
1.25424927E+02
 20
1.17162328E+02
 40
1.50000000E+00
  0
CIRCLE
  8
0
 62
2
 10
1.35424927E+02
 20
1.17162328E+02
 40
1.50000000E+00
  0
CIRCLE
  8
0
 62
7
 10
1.25424927E+02
 20
1.17162328E+02
 40
1.25000000E+00
  0
CIRCLE
  8
0
 62
7
 10
1.35424927E+02
 20
1.17162328E+02
 40
1.25000000E+00
  0
LINE
  8
0
  6
CENTER
 62
2
 10
1.50424927E+02
 20
1.19657726E+02
 11
1.50424927E+02
 21
1.08797300E+02
  0
CIRCLE
  8
0
 62
2
 10
1.50424927E+02
 20
1.17162328E+02
 40
1.50000000E+00
  0
CIRCLE
  8
0
 62
7
 10
1.50424927E+02
 20
1.17162328E+02
 40
1.25000000E+00
  0
LINE
  8
0
  6
CENTER
 62
2
 10
1.23029036E+02
 20
1.11162328E+02
 11
1.52861592E+02
 21
1.11162328E+02
  0
CIRCLE
  8
0
 62
2
 10
1.25424927E+02
 20
1.11162328E+02
 40
1.50000000E+00
  0
CIRCLE
  8
0
 62
2
 10
1.35424927E+02
 20
1.11162328E+02
 40
1.50000000E+00
  0
CIRCLE
  8
0
 62
7
 10
1.25424927E+02
 20
1.11162328E+02
 40
1.25000000E+00
  0
CIRCLE
  8
0
 62
7
 10
1.35424927E+02
 20
1.11162328E+02
 40
1.25000000E+00
  0
CIRCLE
  8
0
 62
2
 10
1.50424927E+02
 20
1.11162328E+02
 40
1.50000000E+00
  0
CIRCLE
  8
0
 62
7
 10
1.50424927E+02
 20
1.11162328E+02
 40
1.25000000E+00
  0
LINE
  8
0
 62
7
 10
1.10424927E+02
 20
1.07670921E+02
 11
1.10424927E+02
 21
1.20670921E+02
  0
LINE
  8
0
 62
7
 10
1.05424927E+02
 20
1.07670921E+02
 11
1.05424927E+02
 21
1.20670921E+02
  0
LINE
  8
0
 62
4
 10
1.07424927E+02
 20
1.21662328E+02
 11
1.86424927E+02
 21
1.21662328E+02
  0
LINE
  8
0
 62
4
 10
1.07424927E+02
 20
1.06662328E+02
 11
1.86424927E+02
 21
1.06662328E+02
  0
LINE
  8
0
 62
4
 10
1.86424927E+02
 20
1.06662328E+02
 11
1.86424927E+02
 21
1.21662328E+02
  0
LINE
  8
0
 62
4
 10
1.07424927E+02
 20
1.06662328E+02
 11
1.07424927E+02
 21
1.07670921E+02
  0
LINE
  8
0
 62
4
 10
1.07424927E+02
 20
1.20670921E+02
 11
1.07424927E+02
 21
1.21662328E+02
  0
LINE
  8
0
  6
CENTER
 62
6
 10
1.83424927E+02
 20
1.15533514E+02
 11
1.83424927E+02
 21
1.21728493E+02
  0
LINE
  8
0
  6
CENTER
 62
6
 10
1.80509063E+02
 20
1.18662328E+02
 11
1.86468648E+02
 21
1.18662328E+02
  0
CIRCLE
  8
0
 62
4
 10
1.83424927E+02
 20
1.18662328E+02
 40
1.70000000E+00
  0
LINE
  8
0
  6
PHANTOM
 10
1.66674927E+02
 20
-4.65669760E+01
 11
1.66674927E+02
 21
-4.08018669E+00
  0
LINE
  8
0
  6
CENTER
 62
6
 10
1.74424927E+02
 20
-3.24548108E+01
 11
1.74424927E+02
 21
-2.42182605E+01
  0
LINE
  8
0
  6
CENTER
 62
6
 10
1.18924927E+02
 20
-4.09327329E+01
 11
1.18924927E+02
 21
-3.21245021E+01
  0
LINE
  8
0
  6
CENTER
 62
6
 10
1.15124795E+02
 20
-3.66122032E+01
 11
1.22880338E+02
 21
-3.66122032E+01
  0
LINE
  8
0
  6
CENTER
 62
6
 10
1.70066134E+02
 20
-2.86122032E+01
 11
1.79094571E+02
 21
-2.86122032E+01
  0
LINE
  8
0
  6
CENTER
 62
2
 10
1.03328650E+02
 20
-3.26122032E+01
 11
1.88783625E+02
 21
-3.26122032E+01
  0
LINE
  8
0
 62
7
 10
1.05424927E+02
 20
-2.61122032E+01
 11
1.07424927E+02
 21
-2.61122032E+01
  0
LINE
  8
0
 62
7
 10
1.05424927E+02
 20
-3.91122032E+01
 11
1.07424927E+02
 21
-3.91122032E+01
  0
LINE
  8
0
 62
7
 10
1.05424927E+02
 20
-2.61122032E+01
 11
1.05424927E+02
 21
-3.91122032E+01
  0
LINE
  8
0
 62
4
 10
1.07424927E+02
 20
-2.51122032E+01
 11
1.86424927E+02
 21
-2.51122032E+01
  0
LINE
  8
0
 62
4
 10
1.07424927E+02
 20
-4.01122032E+01
 11
1.86424927E+02
 21
-4.01122032E+01
  0
LINE
  8
0
 62
4
 10
1.86424927E+02
 20
-2.51122032E+01
 11
1.86424927E+02
 21
-4.01122032E+01
  0
LINE
  8
0
 62
4
 10
1.07424927E+02
 20
-2.51122032E+01
 11
1.07424927E+02
 21
-4.01122032E+01
  0
CIRCLE
  8
0
 62
4
 10
1.74424927E+02
 20
-2.86122032E+01
 40
3.00000000E+00
  0
CIRCLE
  8
0
 62
4
 10
1.18924927E+02
 20
-3.66122032E+01
 40
3.00000000E+00
  0
CIRCLE
  8
0
 62
4
 10
1.74424927E+02
 20
-2.86122032E+01
 40
2.75000000E+00
  0
CIRCLE
  8
0
 62
4
 10
1.18924927E+02
 20
-3.66122032E+01
 40
2.75000000E+00
  0
LINE
  8
0
 62
4
 10
1.74424927E+02
 20
-2.71110925E+01
 11
1.73124927E+02
 21
-2.78616479E+01
  0
LINE
  8
0
 62
4
 10
1.73124927E+02
 20
-2.78616479E+01
 11
1.73124927E+02
 21
-2.93627586E+01
  0
LINE
  8
0
 62
4
 10
1.73124927E+02
 20
-2.93627586E+01
 11
1.74424927E+02
 21
-3.01133139E+01
  0
LINE
  8
0
 62
4
 10
1.74424927E+02
 20
-3.01133139E+01
 11
1.75724927E+02
 21
-2.93627586E+01
  0
LINE
  8
0
 62
4
 10
1.75724927E+02
 20
-2.93627586E+01
 11
1.75724927E+02
 21
-2.78616479E+01
  0
LINE
  8
0
 62
4
 10
1.75724927E+02
 20
-2.78616479E+01
 11
1.74424927E+02
 21
-2.71110925E+01
  0
LINE
  8
0
 62
4
 10
1.18924927E+02
 20
-3.51110925E+01
 11
1.17624927E+02
 21
-3.58616479E+01
  0
LINE
  8
0
 62
4
 10
1.17624927E+02
 20
-3.58616479E+01
 11
1.17624927E+02
 21
-3.73627586E+01
  0
LINE
  8
0
 62
4
 10
1.17624927E+02
 20
-3.73627586E+01
 11
1.18924927E+02
 21
-3.81133139E+01
  0
LINE
  8
0
 62
4
 10
1.18924927E+02
 20
-3.81133139E+01
 11
1.20224927E+02
 21
-3.73627586E+01
  0
LINE
  8
0
 62
4
 10
1.20224927E+02
 20
-3.73627586E+01
 11
1.20224927E+02
 21
-3.58616479E+01
  0
LINE
  8
0
 62
4
 10
1.20224927E+02
 20
-3.58616479E+01
 11
1.18924927E+02
 21
-3.51110925E+01
  0
LINE
  8
0
  6
CENTER
 62
6
 10
1.08398619E+02
 20
-2.81122032E+01
 11
1.16857231E+02
 21
-2.81122032E+01
  0
LINE
  8
0
  6
CENTER
 62
6
 10
1.80806918E+02
 20
-3.71122032E+01
 11
1.86032199E+02
 21
-3.71122032E+01
  0
LINE
  8
0
  6
CENTER
 62
6
 10
1.12424927E+02
 20
-2.38333692E+01
 11
1.12424927E+02
 21
-3.24047628E+01
  0
LINE
  8
0
  6
CENTER
 62
6
 10
1.83424927E+02
 20
-3.38383471E+01
 11
1.83424927E+02
 21
-4.01122032E+01
  0
CIRCLE
  8
0
 62
4
 10
1.83424927E+02
 20
-3.71122032E+01
 40
1.70000000E+00
  0
CIRCLE
  8
0
 62
4
 10
1.12424927E+02
 20
-2.81122032E+01
 40
1.70000000E+00
  0
CIRCLE
  8
0
  6
DASHED
 62
6
 10
1.12424927E+02
 20
-2.81122032E+01
 40
3.00000000E+00
  0
LINE
  8
0
 62
4
 10
-4.06217772E+01
 20
-1.79247330E+02
 11
-3.73717772E+01
 21
-1.79247330E+02
  0
LINE
  8
0
 62
4
 10
-4.21217772E+01
 20
-1.76647330E+02
 11
-3.73717772E+01
 21
-1.76647330E+02
  0
LINE
  8
0
 62
4
 10
-4.58717772E+01
 20
-1.79247330E+02
 11
-4.21217772E+01
 21
-1.79247330E+02
  0
LINE
  8
0
 62
4
 10
-4.58717772E+01
 20
-1.76647330E+02
 11
-4.36217772E+01
 21
-1.76647330E+02
  0
LINE
  8
0
 62
4
 10
-6.78717772E+01
 20
-1.76097330E+02
 11
-4.58717772E+01
 21
-1.76097330E+02
  0
LINE
  8
0
 62
4
 10
-6.78717772E+01
 20
-1.76647330E+02
 11
-4.58717772E+01
 21
-1.76647330E+02
  0
LINE
  8
0
 62
4
 10
-6.71217772E+01
 20
-1.75147330E+02
 11
-6.46217772E+01
 21
-1.75147330E+02
  0
LINE
  8
0
 62
4
 10
-6.46217772E+01
 20
-1.75147330E+02
 11
-6.46217772E+01
 21
-1.75647330E+02
  0
LINE
  8
0
 62
6
 10
-6.48517772E+01
 20
-1.75147330E+02
 11
-6.48517772E+01
 21
-1.75647330E+02
  0
LINE
  8
0
 62
6
 10
-6.69017772E+01
 20
-1.75147330E+02
 11
-6.69017772E+01
 21
-1.75647330E+02
  0
LINE
  8
0
 62
4
 10
-6.71217772E+01
 20
-1.75147330E+02
 11
-6.71217772E+01
 21
-1.75647330E+02
  0
LINE
  8
0
 62
4
 10
-6.71217772E+01
 20
-1.79417330E+02
 11
-6.46217772E+01
 21
-1.79417330E+02
  0
LINE
  8
0
 62
4
 10
-6.46217772E+01
 20
-1.78237330E+02
 11
-6.46217772E+01
 21
-1.79417330E+02
  0
LINE
  8
0
 62
6
 10
-6.48517772E+01
 20
-1.78237330E+02
 11
-6.48517772E+01
 21
-1.79647330E+02
  0
LINE
  8
0
 62
6
 10
-6.69017772E+01
 20
-1.78237330E+02
 11
-6.69017772E+01
 21
-1.79647330E+02
  0
LINE
  8
0
 62
4
 10
-6.71217772E+01
 20
-1.78237330E+02
 11
-6.71217772E+01
 21
-1.79417330E+02
  0
LINE
  8
0
 62
4
 10
-6.69017772E+01
 20
-1.79647330E+02
 11
-6.71217772E+01
 21
-1.79417330E+02
  0
LINE
  8
0
 62
4
 10
-6.48517772E+01
 20
-1.79647330E+02
 11
-6.46217772E+01
 21
-1.79417330E+02
  0
LINE
  8
0
 62
4
 10
-6.69017772E+01
 20
-1.79647330E+02
 11
-6.48517772E+01
 21
-1.79647330E+02
  0
LINE
  8
0
 62
6
 10
-4.41217772E+01
 20
-1.75777330E+02
 11
-4.16217772E+01
 21
-1.80107330E+02
  0
LINE
  8
0
 62
6
 10
-4.26217772E+01
 20
-1.75777330E+02
 11
-4.01217772E+01
 21
-1.80107330E+02
  0
LINE
  8
0
 62
6
 10
-3.51417772E+01
 20
-1.75777330E+02
 11
-3.26417772E+01
 21
-1.80107330E+02
  0
LINE
  8
0
  6
CENTER
 62
6
 10
-4.71917772E+01
 20
-1.77947330E+02
 11
-3.73717772E+01
 21
-1.77947330E+02
  0
LINE
  8
0
 62
6
 10
-3.36417772E+01
 20
-1.75777330E+02
 11
-3.11417772E+01
 21
-1.80107330E+02
  0
LINE
  8
0
 62
4
 10
-3.03717772E+01
 20
-1.78647330E+02
 11
-2.73717772E+01
 21
-1.78647330E+02
  0
LINE
  8
0
 62
4
 10
-3.03717772E+01
 20
-1.78147330E+02
 11
-2.73717772E+01
 21
-1.78147330E+02
  0
LINE
  8
0
 62
4
 10
-3.03717772E+01
 20
-1.77747330E+02
 11
-2.73717772E+01
 21
-1.77747330E+02
  0
LINE
  8
0
 62
4
 10
-3.03717772E+01
 20
-1.77247330E+02
 11
-2.73717772E+01
 21
-1.77247330E+02
  0
LINE
  8
0
 62
4
 10
-3.29117772E+01
 20
-1.77047330E+02
 11
-3.03717772E+01
 21
-1.77047330E+02
  0
LINE
  8
0
 62
4
 10
-3.73717772E+01
 20
-1.77047330E+02
 11
-3.44117772E+01
 21
-1.77047330E+02
  0
LINE
  8
0
 62
4
 10
-3.18717772E+01
 20
-1.78847330E+02
 11
-3.03717772E+01
 21
-1.78847330E+02
  0
LINE
  8
0
 62
4
 10
-3.23917772E+01
 20
-1.77947330E+02
 11
-3.03717772E+01
 21
-1.77947330E+02
  0
LINE
  8
0
 62
4
 10
-3.73717772E+01
 20
-1.77947330E+02
 11
-3.38917772E+01
 21
-1.77947330E+02
  0
LINE
  8
0
 62
4
 10
-3.73717772E+01
 20
-1.78847330E+02
 11
-3.33717772E+01
 21
-1.78847330E+02
  0
LINE
  8
0
 62
4
 10
-3.03717772E+01
 20
-1.77047330E+02
 11
-3.03717772E+01
 21
-1.78847330E+02
  0
LINE
  8
0
 62
4
 10
-2.73717772E+01
 20
-1.78147330E+02
 11
-2.73717772E+01
 21
-1.78647330E+02
  0
LINE
  8
0
 62
4
 10
-2.73717772E+01
 20
-1.77247330E+02
 11
-2.73717772E+01
 21
-1.77747330E+02
  0
LINE
  8
0
  6
CENTER
 62
6
 10
-3.90517772E+01
 20
-1.78397330E+02
 11
-2.71217772E+01
 21
-1.78397330E+02
  0
LINE
  8
0
  6
CENTER
 62
6
 10
-3.91017772E+01
 20
-1.77497330E+02
 11
-2.71717772E+01
 21
-1.77497330E+02
  0
LINE
  8
0
 62
4
 10
-3.73717772E+01
 20
-1.76647330E+02
 11
-3.73717772E+01
 21
-1.79247330E+02
  0
LINE
  8
0
 62
4
 10
-6.36217772E+01
 20
-1.78687330E+02
 11
-6.31717772E+01
 21
-1.78687330E+02
  0
LINE
  8
0
 62
4
 10
-6.36717772E+01
 20
-1.79447330E+02
 11
-6.31717772E+01
 21
-1.79447330E+02
  0
LINE
  8
0
 62
4
 10
-6.36717772E+01
 20
-1.77447330E+02
 11
-6.36717772E+01
 21
-1.79447330E+02
  0
LINE
  8
0
 62
4
 10
-6.78717772E+01
 20
-1.78247330E+02
 11
-6.38717772E+01
 21
-1.78247330E+02
  0
LINE
  8
0
 62
4
 10
-6.78717772E+01
 20
-1.77447330E+02
 11
-6.78717772E+01
 21
-1.78247330E+02
  0
LINE
  8
0
 62
4
 10
-6.38717772E+01
 20
-1.77447330E+02
 11
-6.38717772E+01
 21
-1.78247330E+02
  0
LINE
  8
0
 62
4
 10
-6.36217772E+01
 20
-1.77447330E+02
 11
-6.36217772E+01
 21
-1.78687330E+02
  0
LINE
  8
0
  6
CENTER
 62
6
 10
-6.58717772E+01
 20
-1.74847330E+02
 11
-6.58717772E+01
 21
-1.81077330E+02
  0
LINE
  8
0
 62
4
 10
-6.78717772E+01
 20
-1.77447330E+02
 11
-6.36217772E+01
 21
-1.77447330E+02
  0
LINE
  8
0
 62
4
 10
-6.31717772E+01
 20
-1.78687330E+02
 11
-6.31717772E+01
 21
-1.80247330E+02
  0
LINE
  8
0
 62
4
 10
-6.78717772E+01
 20
-1.77447330E+02
 11
-6.78717772E+01
 21
-1.75647330E+02
  0
LINE
  8
0
 62
4
 10
-4.58717772E+01
 20
-1.75647330E+02
 11
-4.58717772E+01
 21
-1.80247330E+02
  0
LINE
  8
0
 62
4
 10
-6.31717772E+01
 20
-1.80247330E+02
 11
-4.58717772E+01
 21
-1.80247330E+02
  0
LINE
  8
0
 62
4
 10
-6.78717772E+01
 20
-1.75647330E+02
 11
-4.58717772E+01
 21
-1.75647330E+02
  0
ARC
  8
0
 62
4
 10
-1.12414504E+02
 20
-1.78197327E+02
 40
2.05000229E+00
 50
2.70000064E+02
 51
3.59999936E+02
  0
ARC
  8
0
 62
4
 10
-1.12414500E+02
 20
-1.78197327E+02
 40
2.05000229E+00
 50
1.80000064E+02
 51
2.69999936E+02
  0
LINE
  8
0
 62
4
 10
-1.13664502E+02
 20
-1.75147330E+02
 11
-1.11164502E+02
 21
-1.75147330E+02
  0
LINE
  8
0
 62
4
 10
-1.11164502E+02
 20
-1.75147330E+02
 11
-1.11164502E+02
 21
-1.75647330E+02
  0
LINE
  8
0
 62
6
 10
-1.11394502E+02
 20
-1.75147330E+02
 11
-1.11394502E+02
 21
-1.75647330E+02
  0
LINE
  8
0
 62
6
 10
-1.13434502E+02
 20
-1.75147330E+02
 11
-1.13434502E+02
 21
-1.75647330E+02
  0
LINE
  8
0
 62
4
 10
-1.13664502E+02
 20
-1.75147330E+02
 11
-1.13664502E+02
 21
-1.75647330E+02
  0
LINE
  8
0
 62
4
 10
-1.13664502E+02
 20
-1.79417330E+02
 11
-1.11164502E+02
 21
-1.79417330E+02
  0
LINE
  8
0
 62
4
 10
-1.11164502E+02
 20
-1.78237330E+02
 11
-1.11164502E+02
 21
-1.79417330E+02
  0
LINE
  8
0
 62
6
 10
-1.11394502E+02
 20
-1.78237330E+02
 11
-1.11394502E+02
 21
-1.79647330E+02
  0
LINE
  8
0
 62
6
 10
-1.13434502E+02
 20
-1.78237330E+02
 11
-1.13434502E+02
 21
-1.79647330E+02
  0
LINE
  8
0
 62
4
 10
-1.13664502E+02
 20
-1.78237330E+02
 11
-1.13664502E+02
 21
-1.79417330E+02
  0
LINE
  8
0
 62
4
 10
-1.13434502E+02
 20
-1.79647330E+02
 11
-1.13664502E+02
 21
-1.79417330E+02
  0
LINE
  8
0
 62
4
 10
-1.11394502E+02
 20
-1.79647330E+02
 11
-1.11164502E+02
 21
-1.79417330E+02
  0
LINE
  8
0
 62
4
 10
-1.13434502E+02
 20
-1.79647330E+02
 11
-1.11394502E+02
 21
-1.79647330E+02
  0
LINE
  8
0
 62
4
 10
-1.14464502E+02
 20
-1.78237330E+02
 11
-1.10364502E+02
 21
-1.78237330E+02
  0
LINE
  8
0
 62
4
 10
-1.14464502E+02
 20
-1.77447330E+02
 11
-1.10364502E+02
 21
-1.77447330E+02
  0
LINE
  8
0
 62
4
 10
-1.10364502E+02
 20
-1.76647330E+02
 11
-1.10364502E+02
 21
-1.78197330E+02
  0
LINE
  8
0
 62
4
 10
-1.10364502E+02
 20
-1.76647330E+02
 11
-1.10914502E+02
 21
-1.76097330E+02
  0
LINE
  8
0
 62
4
 10
-1.10914502E+02
 20
-1.75647330E+02
 11
-1.10914502E+02
 21
-1.76097330E+02
  0
LINE
  8
0
 62
4
 10
-1.13914502E+02
 20
-1.75647330E+02
 11
-1.10914502E+02
 21
-1.75647330E+02
  0
LINE
  8
0
 62
4
 10
-1.13914502E+02
 20
-1.75647330E+02
 11
-1.13914502E+02
 21
-1.76097330E+02
  0
LINE
  8
0
 62
4
 10
-1.14464502E+02
 20
-1.76647330E+02
 11
-1.13914502E+02
 21
-1.76097330E+02
  0
LINE
  8
0
 62
4
 10
-1.14464502E+02
 20
-1.76647330E+02
 11
-1.14464502E+02
 21
-1.78197330E+02
  0
LINE
  8
0
  6
CENTER
 62
6
 10
-1.12414502E+02
 20
-1.73597330E+02
 11
-1.12414502E+02
 21
-1.82307330E+02
  0
CIRCLE
  8
0
 62
4
 10
-6.58717619E+01
 20
-1.33097327E+02
 40
1.39999962E+00
  0
CIRCLE
  8
0
 62
4
 10
-6.58717619E+01
 20
-1.33097327E+02
 40
1.25000000E+00
  0
LINE
  8
0
 62
4
 10
-4.58717772E+01
 20
-1.34397327E+02
 11
-4.27817772E+01
 21
-1.34397327E+02
  0
LINE
  8
0
 62
4
 10
-4.58717772E+01
 20
-1.31797327E+02
 11
-4.42917772E+01
 21
-1.31797327E+02
  0
LINE
  8
0
 62
6
 10
-4.47917772E+01
 20
-1.30937327E+02
 11
-4.22917772E+01
 21
-1.35257327E+02
  0
LINE
  8
0
 62
4
 10
-6.65717772E+01
 20
-1.34157327E+02
 11
-6.49317772E+01
 21
-1.32537327E+02
  0
LINE
  8
0
 62
4
 10
-6.69217772E+01
 20
-1.33807327E+02
 11
-6.51917772E+01
 21
-1.32077327E+02
  0
LINE
  8
0
  6
CENTER
 62
6
 10
-6.58717772E+01
 20
-1.30267327E+02
 11
-6.58717772E+01
 21
-1.35847327E+02
  0
LINE
  8
0
 62
4
 10
-4.58717772E+01
 20
-1.31047327E+02
 11
-4.58717772E+01
 21
-1.35147327E+02
  0
LINE
  8
0
 62
4
 10
-6.78717772E+01
 20
-1.31047327E+02
 11
-6.78717772E+01
 21
-1.35147327E+02
  0
LINE
  8
0
 62
4
 10
-6.78717772E+01
 20
-1.31047327E+02
 11
-4.58717772E+01
 21
-1.31047327E+02
  0
LINE
  8
0
 62
4
 10
-6.78717772E+01
 20
-1.35147327E+02
 11
-4.58717772E+01
 21
-1.35147327E+02
  0
LINE
  8
0
 62
4
 10
-6.78717772E+01
 20
-1.31597327E+02
 11
-4.58717772E+01
 21
-1.31597327E+02
  0
LINE
  8
0
 62
4
 10
-6.78717772E+01
 20
-1.34597327E+02
 11
-4.58717772E+01
 21
-1.34597327E+02
  0
LINE
  8
0
  6
CENTER
 62
6
 10
-7.06717772E+01
 20
-1.33097327E+02
 11
-4.04717772E+01
 21
-1.33097327E+02
  0
LINE
  8
0
 62
4
 10
1.08220678E+02
 20
-1.67570293E+02
 11
1.08279760E+02
 21
-1.64320830E+02
  0
LINE
  8
0
 62
4
 10
1.05593840E+02
 20
-1.69022781E+02
 11
1.05680189E+02
 21
-1.64273565E+02
  0
LINE
  8
0
 62
4
 10
1.05525669E+02
 20
-1.72772161E+02
 11
1.05566572E+02
 21
-1.70522533E+02
  0
LINE
  8
0
 62
4
 10
1.08125240E+02
 20
-1.72819426E+02
 11
1.08193410E+02
 21
-1.69070045E+02
  0
LINE
  8
0
 62
4
 10
8.80621920E+01
 20
-1.78855701E+02
 11
9.05617788E+01
 21
-1.78901148E+02
  0
LINE
  8
0
 62
4
 10
9.05617788E+01
 20
-1.78901148E+02
 11
9.05526894E+01
 21
-1.79401065E+02
  0
LINE
  8
0
 62
6
 10
9.03318168E+01
 20
-1.78896967E+02
 11
9.03227274E+01
 21
-1.79396884E+02
  0
LINE
  8
0
 62
6
 10
8.82821556E+01
 20
-1.78859700E+02
 11
8.82730662E+01
 21
-1.79359618E+02
  0
LINE
  8
0
 62
4
 10
8.80621920E+01
 20
-1.78855701E+02
 11
8.80531025E+01
 21
-1.79355618E+02
  0
LINE
  8
0
 62
4
 10
8.79845684E+01
 20
-1.83124995E+02
 11
9.04841553E+01
 21
-1.83170442E+02
  0
LINE
  8
0
 62
4
 10
9.05054245E+01
 20
-1.82000636E+02
 11
9.04841553E+01
 21
-1.83170442E+02
  0
LINE
  8
0
 62
6
 10
9.02754625E+01
 20
-1.81996455E+02
 11
9.02500122E+01
 21
-1.83396223E+02
  0
LINE
  8
0
 62
6
 10
8.82258013E+01
 20
-1.81959188E+02
 11
8.82003509E+01
 21
-1.83358957E+02
  0
LINE
  8
0
 62
4
 10
8.80058376E+01
 20
-1.81955189E+02
 11
8.79845684E+01
 21
-1.83124995E+02
  0
LINE
  8
0
 62
4
 10
8.82003509E+01
 20
-1.83358957E+02
 11
8.79845684E+01
 21
-1.83124995E+02
  0
LINE
  8
0
 62
4
 10
9.02500122E+01
 20
-1.83396223E+02
 11
9.04841553E+01
 21
-1.83170442E+02
  0
LINE
  8
0
 62
4
 10
8.82003509E+01
 20
-1.83358957E+02
 11
9.02500122E+01
 21
-1.83396223E+02
  0
LINE
  8
0
 62
6
 10
1.04697624E+02
 20
-1.71006816E+02
 11
1.09072356E+02
 21
-1.68585944E+02
  0
LINE
  8
0
 62
6
 10
1.04724893E+02
 20
-1.69507064E+02
 11
1.09099624E+02
 21
-1.67086192E+02
  0
LINE
  8
0
 62
6
 10
1.04860870E+02
 20
-1.62028300E+02
 11
1.09235602E+02
 21
-1.59607428E+02
  0
LINE
  8
0
  6
CENTER
 62
6
 10
1.06801458E+02
 20
-1.74115575E+02
 11
1.06979974E+02
 21
-1.64297198E+02
  0
LINE
  8
0
 62
6
 10
1.04888138E+02
 20
-1.60528548E+02
 11
1.09262870E+02
 21
-1.58107675E+02
  0
LINE
  8
0
 62
4
 10
1.07807110E+02
 20
-1.57311080E+02
 11
1.07861647E+02
 21
-1.54311576E+02
  0
LINE
  8
0
 62
4
 10
1.07307193E+02
 20
-1.57301990E+02
 11
1.07361729E+02
 21
-1.54302486E+02
  0
LINE
  8
0
 62
4
 10
1.06907259E+02
 20
-1.57294719E+02
 11
1.06961796E+02
 21
-1.54295215E+02
  0
LINE
  8
0
 62
4
 10
1.06407342E+02
 20
-1.57285630E+02
 11
1.06461878E+02
 21
-1.54286125E+02
  0
LINE
  8
0
 62
4
 10
1.06161201E+02
 20
-1.59821574E+02
 11
1.06207375E+02
 21
-1.57281994E+02
  0
LINE
  8
0
 62
4
 10
1.06080123E+02
 20
-1.64280837E+02
 11
1.06133932E+02
 21
-1.61321326E+02
  0
LINE
  8
0
 62
4
 10
1.07979809E+02
 20
-1.58814468E+02
 11
1.08007077E+02
 21
-1.57314716E+02
  0
LINE
  8
0
 62
4
 10
1.07070505E+02
 20
-1.59318021E+02
 11
1.07107226E+02
 21
-1.57298355E+02
  0
LINE
  8
0
 62
4
 10
1.06979974E+02
 20
-1.64297198E+02
 11
1.07043237E+02
 21
-1.60817773E+02
  0
LINE
  8
0
 62
4
 10
1.07879826E+02
 20
-1.64313559E+02
 11
1.07952541E+02
 21
-1.60314220E+02
  0
LINE
  8
0
 62
4
 10
1.06207375E+02
 20
-1.57281994E+02
 11
1.08007077E+02
 21
-1.57314716E+02
  0
LINE
  8
0
 62
4
 10
1.07361729E+02
 20
-1.54302486E+02
 11
1.07861647E+02
 21
-1.54311576E+02
  0
LINE
  8
0
 62
4
 10
1.06461878E+02
 20
-1.54286125E+02
 11
1.06961796E+02
 21
-1.54295215E+02
  0
LINE
  8
0
  6
CENTER
 62
6
 10
1.07399360E+02
 20
-1.65985101E+02
 11
1.07616233E+02
 21
-1.54057072E+02
  0
LINE
  8
0
  6
CENTER
 62
6
 10
1.06498599E+02
 20
-1.66018732E+02
 11
1.06715473E+02
 21
-1.54090703E+02
  0
LINE
  8
0
 62
4
 10
1.05680189E+02
 20
-1.64273565E+02
 11
1.08279760E+02
 21
-1.64320830E+02
  0
LINE
  8
0
 62
4
 10
1.03498732E+02
 20
-1.74235555E+02
 11
1.09397757E+02
 21
-1.74342810E+02
  0
LINE
  8
0
 62
4
 10
1.03407838E+02
 20
-1.79234729E+02
 11
1.09306863E+02
 21
-1.79341984E+02
  0
LINE
  8
0
 62
4
 10
1.03421472E+02
 20
-1.78484853E+02
 11
1.09320497E+02
 21
-1.78592108E+02
  0
LINE
  8
0
 62
4
 10
8.72950460E+01
 20
-1.79791910E+02
 11
1.09291411E+02
 21
-1.80191844E+02
  0
LINE
  8
0
 62
4
 10
8.72850477E+01
 20
-1.80341819E+02
 11
1.09281412E+02
 21
-1.80741753E+02
  0
LINE
  8
0
 62
4
 10
9.15397990E+01
 20
-1.81219310E+02
 11
9.15183480E+01
 21
-1.82399115E+02
  0
LINE
  8
0
 62
4
 10
9.15183480E+01
 20
-1.82399115E+02
 11
9.19482770E+01
 21
-1.82406932E+02
  0
LINE
  8
0
 62
4
 10
9.14698106E+01
 20
-1.81218038E+02
 11
9.14334529E+01
 21
-1.83217707E+02
  0
LINE
  8
0
 62
4
 10
9.14334529E+01
 20
-1.83217707E+02
 11
9.19333703E+01
 21
-1.83226797E+02
  0
LINE
  8
0
 62
4
 10
1.03526000E+02
 20
-1.72735803E+02
 11
1.09425025E+02
 21
-1.72843058E+02
  0
LINE
  8
0
 62
4
 10
9.12698436E+01
 20
-1.81214402E+02
 11
9.12553006E+01
 21
-1.82014270E+02
  0
LINE
  8
0
 62
4
 10
8.72559616E+01
 20
-1.81941554E+02
 11
9.12553006E+01
 21
-1.82014270E+02
  0
LINE
  8
0
 62
4
 10
8.72705046E+01
 20
-1.81141687E+02
 11
9.15397990E+01
 21
-1.81219310E+02
  0
LINE
  8
0
 62
4
 10
1.03526000E+02
 20
-1.72735803E+02
 11
1.03400566E+02
 21
-1.79634663E+02
  0
LINE
  8
0
  6
CENTER
 62
6
 10
8.93161665E+01
 20
-1.78648462E+02
 11
8.92089115E+01
 21
-1.84547487E+02
  0
LINE
  8
0
 62
4
 10
9.19482770E+01
 20
-1.82406932E+02
 11
9.19188273E+01
 21
-1.84026664E+02
  0
LINE
  8
0
 62
4
 10
8.72559616E+01
 20
-1.81941554E+02
 11
8.73032265E+01
 21
-1.79341984E+02
  0
LINE
  8
0
 62
4
 10
1.09425025E+02
 20
-1.72843058E+02
 11
1.09215968E+02
 21
-1.84341158E+02
  0
LINE
  8
0
 62
4
 10
9.19188273E+01
 20
-1.84026664E+02
 11
1.09215968E+02
 21
-1.84341158E+02
  0
LINE
  8
0
 62
4
 10
8.73032265E+01
 20
-1.79341984E+02
 11
1.03400566E+02
 21
-1.79634663E+02
  0
ARC
  8
0
 62
4
 10
4.42652941E+01
 20
-1.81887073E+02
 40
2.04519835E+00
 50
2.70985958E+02
 51
3.59862852E+02
  0
ARC
  8
0
 62
4
 10
4.42604889E+01
 20
-1.81891967E+02
 40
2.05000229E+00
 50
1.80000064E+02
 51
2.69999936E+02
  0
LINE
  8
0
 62
4
 10
4.55604866E+01
 20
-1.68691969E+02
 11
4.55604866E+01
 21
-1.72441969E+02
  0
LINE
  8
0
 62
4
 10
4.29604866E+01
 20
-1.70191969E+02
 11
4.29604866E+01
 21
-1.72441969E+02
  0
LINE
  8
0
 62
4
 10
4.30104866E+01
 20
-1.78841969E+02
 11
4.55104866E+01
 21
-1.78841969E+02
  0
LINE
  8
0
 62
4
 10
4.55104866E+01
 20
-1.78841969E+02
 11
4.55104866E+01
 21
-1.79341969E+02
  0
LINE
  8
0
 62
6
 10
4.52804866E+01
 20
-1.78841969E+02
 11
4.52804866E+01
 21
-1.79341969E+02
  0
LINE
  8
0
 62
6
 10
4.32404866E+01
 20
-1.78841969E+02
 11
4.32404866E+01
 21
-1.79341969E+02
  0
LINE
  8
0
 62
4
 10
4.30104866E+01
 20
-1.78841969E+02
 11
4.30104866E+01
 21
-1.79341969E+02
  0
LINE
  8
0
 62
4
 10
4.30104866E+01
 20
-1.83111969E+02
 11
4.55104866E+01
 21
-1.83111969E+02
  0
LINE
  8
0
 62
4
 10
4.55104866E+01
 20
-1.81941969E+02
 11
4.55104866E+01
 21
-1.83111969E+02
  0
LINE
  8
0
 62
6
 10
4.52804866E+01
 20
-1.81941969E+02
 11
4.52804866E+01
 21
-1.83341969E+02
  0
LINE
  8
0
 62
6
 10
4.32404866E+01
 20
-1.81941969E+02
 11
4.32404866E+01
 21
-1.83341969E+02
  0
LINE
  8
0
 62
4
 10
4.30104866E+01
 20
-1.81941969E+02
 11
4.30104866E+01
 21
-1.83111969E+02
  0
LINE
  8
0
 62
4
 10
4.32404866E+01
 20
-1.83341969E+02
 11
4.30104866E+01
 21
-1.83111969E+02
  0
LINE
  8
0
 62
4
 10
4.52804866E+01
 20
-1.83341969E+02
 11
4.55104866E+01
 21
-1.83111969E+02
  0
LINE
  8
0
 62
4
 10
4.32404866E+01
 20
-1.83341969E+02
 11
4.52804866E+01
 21
-1.83341969E+02
  0
LINE
  8
0
 62
6
 10
4.21004866E+01
 20
-1.70691969E+02
 11
4.64204866E+01
 21
-1.68191969E+02
  0
LINE
  8
0
 62
4
 10
4.20104866E+01
 20
-1.72441969E+02
 11
4.65104866E+01
 21
-1.72441969E+02
  0
LINE
  8
0
 62
4
 10
4.22104866E+01
 20
-1.81941969E+02
 11
4.63104866E+01
 21
-1.81941969E+02
  0
LINE
  8
0
 62
4
 10
4.22104866E+01
 20
-1.81141969E+02
 11
4.63104866E+01
 21
-1.81141969E+02
  0
LINE
  8
0
 62
4
 10
4.27604866E+01
 20
-1.79341969E+02
 11
4.57604866E+01
 21
-1.79341969E+02
  0
LINE
  8
0
  6
CENTER
 62
6
 10
4.42604866E+01
 20
-1.66781969E+02
 11
4.42604866E+01
 21
-1.85401969E+02
  0
LINE
  8
0
 62
4
 10
4.65104866E+01
 20
-1.72441969E+02
 11
4.65104866E+01
 21
-1.78191969E+02
  0
LINE
  8
0
 62
4
 10
4.57604866E+01
 20
-1.78941969E+02
 11
4.65104866E+01
 21
-1.78191969E+02
  0
LINE
  8
0
 62
4
 10
4.57604866E+01
 20
-1.79791969E+02
 11
4.57604866E+01
 21
-1.78941969E+02
  0
LINE
  8
0
 62
4
 10
4.63104866E+01
 20
-1.80341969E+02
 11
4.57604866E+01
 21
-1.79791969E+02
  0
LINE
  8
0
 62
4
 10
4.63104866E+01
 20
-1.80341969E+02
 11
4.63104866E+01
 21
-1.81891969E+02
  0
LINE
  8
0
 62
4
 10
4.22104866E+01
 20
-1.80341969E+02
 11
4.22104866E+01
 21
-1.81891969E+02
  0
LINE
  8
0
 62
4
 10
4.22104866E+01
 20
-1.80341969E+02
 11
4.27604866E+01
 21
-1.79791969E+02
  0
LINE
  8
0
 62
4
 10
4.27604866E+01
 20
-1.79791969E+02
 11
4.27604866E+01
 21
-1.78941969E+02
  0
LINE
  8
0
 62
4
 10
4.27604866E+01
 20
-1.78941969E+02
 11
4.20104866E+01
 21
-1.78191969E+02
  0
LINE
  8
0
 62
4
 10
4.20104866E+01
 20
-1.72441969E+02
 11
4.20104866E+01
 21
-1.78191969E+02
  0
LINE
  8
0
 62
4
 10
4.20104866E+01
 20
-1.73941969E+02
 11
4.65104866E+01
 21
-1.73941969E+02
  0
CIRCLE
  8
0
 62
4
 10
1.06420475E+02
 20
-1.31423809E+02
 40
2.50000000E-01
  0
CIRCLE
  8
0
 62
4
 10
1.07032352E+02
 20
-1.32082966E+02
 40
2.50000000E-01
  0
CIRCLE
  8
0
 62
4
 10
1.06420475E+02
 20
-1.31423809E+02
 40
4.49999988E-01
  0
CIRCLE
  8
0
 62
4
 10
1.07032352E+02
 20
-1.32082966E+02
 40
4.49999988E-01
  0
CIRCLE
  8
0
 62
4
 10
1.06710545E+02
 20
-1.31741963E+02
 40
1.29999924E+00
  0
CIRCLE
  8
0
 62
4
 10
8.93031960E+01
 20
-1.31741963E+02
 40
1.39999962E+00
  0
CIRCLE
  8
0
 62
4
 10
8.93031960E+01
 20
-1.31741963E+02
 40
1.25000000E+00
  0
ARC
  8
0
 62
4
 10
1.06803196E+02
 20
-1.31741963E+02
 40
3.30437589E+00
 50
1.37084793E+02
 51
2.22915207E+02
  0
LINE
  8
0
 62
4
 10
8.82331960E+01
 20
-1.32381963E+02
 11
8.99431960E+01
 21
-1.30671963E+02
  0
LINE
  8
0
 62
4
 10
8.86531960E+01
 20
-1.32811963E+02
 11
9.03731960E+01
 21
-1.31101963E+02
  0
LINE
  8
0
 62
4
 10
1.09303196E+02
 20
-1.29491963E+02
 11
1.09303196E+02
 21
-1.33991963E+02
  0
LINE
  8
0
 62
4
 10
1.04383196E+02
 20
-1.33991963E+02
 11
1.09303196E+02
 21
-1.33991963E+02
  0
LINE
  8
0
 62
4
 10
1.04383196E+02
 20
-1.29491963E+02
 11
1.09303196E+02
 21
-1.29491963E+02
  0
LINE
  8
0
  6
CENTER
 62
6
 10
8.93031960E+01
 20
-1.28911963E+02
 11
8.93031960E+01
 21
-1.34491963E+02
  0
LINE
  8
0
 62
4
 10
8.73031960E+01
 20
-1.29691963E+02
 11
8.73031960E+01
 21
-1.33791963E+02
  0
LINE
  8
0
 62
4
 10
8.73031960E+01
 20
-1.29691963E+02
 11
1.04213196E+02
 21
-1.29691963E+02
  0
LINE
  8
0
 62
4
 10
8.73031960E+01
 20
-1.33791963E+02
 11
1.04213196E+02
 21
-1.33791963E+02
  0
LINE
  8
0
 62
4
 10
8.73031960E+01
 20
-1.30241963E+02
 11
1.03863196E+02
 21
-1.30241963E+02
  0
LINE
  8
0
 62
4
 10
8.73031960E+01
 20
-1.33241963E+02
 11
1.03863196E+02
 21
-1.33241963E+02
  0
LINE
  8
0
  6
CENTER
 62
6
 10
8.59831960E+01
 20
-1.31741963E+02
 11
1.10883196E+02
 21
-1.31741963E+02
  0
TEXT
  8
0
 10
1.50167114E+02
 20
1.37969451E+02
 40
4.50000000E+00
  1
STRETCH LINE
 41
1.05263158E+00
  7
MONOTXT
  0
TEXT
  8
0
 10
-1.34007812E+02
 20
1.37969451E+02
 40
4.50000000E+00
  1
STRETCH LINE
 41
1.05263158E+00
  7
MONOTXT
  0
TEXT
  8
0
 62
7
 10
-5.39760595E-01
 20
-1.07250000E+02
 40
4.50000000E+00
  1
MODEL:ZE235,255,202,201
 41
1.00000000E+00
  7
MONOTXT
  0
TEXT
  8
0
 62
7
 10
-1.57214688E+02
 20
-1.07250000E+02
 40
4.50000000E+00
  1
MODEL:ZE135,155,102,101
 41
1.00000000E+00
  7
MONOTXT
  0
TEXT
  8
0
 62
7
 10
1.40743646E+01
 20
1.57350000E+02
 40
6.30000019E+00
  1
MODEL:MS6*30-L
 41
1.00000015E+00
  7
MONOTXT
  0
LINE
  8
0
 62
7
 10
-2.81250000E+02
 20
-1.00000000E+02
 11
2.82099854E+02
 21
-1.00000000E+02
  0
TEXT
  8
0
 62
7
 10
-9.57578125E+01
 20
-9.32500000E+01
 40
4.50000000E+00
  1
30
 41
1.00000000E+00
  7
MONOTXT
  0
TEXT
  8
0
 62
7
 10
-1.22757812E+02
 20
-9.32500000E+01
 40
4.50000000E+00
  1
20
 41
1.00000000E+00
  7
MONOTXT
  0
TEXT
  8
0
 62
7
 10
-1.49757812E+02
 20
-9.32500000E+01
 40
4.50000000E+00
  1
10
 41
1.00000000E+00
  7
MONOTXT
  0
TEXT
  8
0
 62
7
 10
-1.74507812E+02
 20
-9.32500000E+01
 40
4.50000000E+00
  1
0
 41
1.00000000E+00
  7
MONOTXT
  0
TEXT
  8
0
 62
7
 10
-2.06007812E+02
 20
-9.32500000E+01
 40
4.50000000E+00
  1
-10
 41
1.00000000E+00
  7
MONOTXT
  0
TEXT
  8
0
 62
7
 10
-9.57578125E+01
 20
-8.52500000E+01
 40
4.50000000E+00
  1
60
 41
1.00000000E+00
  7
MONOTXT
  0
TEXT
  8
0
 62
7
 10
-2.73507812E+02
 20
-9.32500000E+01
 40
4.50000000E+00
  1
STRETCH
 41
1.00000000E+00
  7
MONOTXT
  0
TEXT
  8
0
 62
7
 10
-2.33007812E+02
 20
-9.32500000E+01
 40
4.50000000E+00
  1
-20
 41
1.00000000E+00
  7
MONOTXT
  0
TEXT
  8
0
 62
7
 10
-2.30757812E+02
 20
-8.52500000E+01
 40
4.50000000E+00
  1
10
 41
1.00000000E+00
  7
MONOTXT
  0
TEXT
  8
0
 62
7
 10
-2.71257812E+02
 20
-8.52500000E+01
 40
4.50000000E+00
  1
STROKE
 41
1.00000000E+00
  7
MONOTXT
  0
TEXT
  8
0
 62
7
 10
-1.22757812E+02
 20
-8.52500000E+01
 40
4.50000000E+00
  1
50
 41
1.00000000E+00
  7
MONOTXT
  0
TEXT
  8
0
 62
7
 10
-1.49757812E+02
 20
-8.52500000E+01
 40
4.50000000E+00
  1
40
 41
1.00000000E+00
  7
MONOTXT
  0
TEXT
  8
0
 62
7
 10
-2.73507812E+02
 20
-9.32500000E+01
 40
4.50000000E+00
  1
STRETCH
 41
1.00000000E+00
  7
MONOTXT
  0
TEXT
  8
0
 62
7
 10
-1.76757812E+02
 20
-8.52500000E+01
 40
4.50000000E+00
  1
30
 41
1.00000000E+00
  7
MONOTXT
  0
TEXT
  8
0
 62
7
 10
-2.03757812E+02
 20
-8.52500000E+01
 40
4.50000000E+00
  1
20
 41
1.00000000E+00
  7
MONOTXT
  0
TEXT
  8
0
 62
7
 10
-2.71257812E+02
 20
-8.52500000E+01
 40
4.50000000E+00
  1
STROKE
 41
1.00000000E+00
  7
MONOTXT
  0
LINE
  8
0
 62
7
 10
-7.82500000E+01
 20
-9.50000000E+01
 11
-7.82500000E+01
 21
-7.90000000E+01
  0
LINE
  8
0
 62
7
 10
-1.05250000E+02
 20
-9.50000000E+01
 11
-1.05250000E+02
 21
-7.90000000E+01
  0
LINE
  8
0
 62
7
 10
-1.32250000E+02
 20
-9.50000000E+01
 11
-1.32250000E+02
 21
-7.90000000E+01
  0
LINE
  8
0
 62
7
 10
-1.59250000E+02
 20
-9.50000000E+01
 11
-1.59250000E+02
 21
-7.90000000E+01
  0
LINE
  8
0
 62
7
 10
-1.86250000E+02
 20
-9.50000000E+01
 11
-1.86250000E+02
 21
-7.90000000E+01
  0
LINE
  8
0
 62
7
 10
-2.13250000E+02
 20
-9.50000000E+01
 11
-2.13250000E+02
 21
-7.90000000E+01
  0
LINE
  8
0
 62
7
 10
-2.40250000E+02
 20
-9.50000000E+01
 11
-2.40250000E+02
 21
-7.90000000E+01
  0
LINE
  8
0
 62
7
 10
-2.76250000E+02
 20
-9.50000000E+01
 11
-2.76250000E+02
 21
-7.90000000E+01
  0
LINE
  8
0
 62
7
 10
-2.76250000E+02
 20
-7.90000000E+01
 11
-7.82500000E+01
 21
-7.90000000E+01
  0
LINE
  8
0
 62
7
 10
-2.76250000E+02
 20
-8.70000000E+01
 11
-7.82500000E+01
 21
-8.70000000E+01
  0
LINE
  8
0
 62
7
 10
-2.76250000E+02
 20
-9.50000000E+01
 11
-7.82500000E+01
 21
-9.50000000E+01
  0
TEXT
  8
0
 62
7
 10
-2.03757812E+02
 20
-7.66553618E+01
 40
4.50000000E+00
  1
STRETCH LIST
 41
1.05263158E+00
  7
MONOTXT
  0
TEXT
  8
0
 62
7
 10
-9.67578125E+01
 20
-7.57169733E+01
 40
4.50000000E+00
  1
(mm)
 41
1.00000000E+00
  7
MONOTXT
  0
TEXT
  8
0
 62
7
 10
-2.67600562E+02
 20
1.57350000E+02
 40
6.30000019E+00
  1
MODEL:MS6*30
 41
1.00000015E+00
  7
MONOTXT
  0
LINE
  8
0
 62
7
 10
2.82099854E+02
 20
1.95500000E+02
 11
2.82099854E+02
 21
-1.95000000E+02
  0
LINE
  8
0
 62
7
 10
-2.81250000E+02
 20
1.95500000E+02
 11
2.82099854E+02
 21
1.95500000E+02
  0
LINE
  8
0
 62
7
 10
-2.81250000E+02
 20
1.95500000E+02
 11
-2.81250000E+02
 21
-1.95000000E+02
  0
LINE
  8
0
 62
7
 10
-2.81250000E+02
 20
-1.95000000E+02
 11
2.82099854E+02
 21
-1.95000000E+02
  0
LINE
  8
0
 62
7
 10
1.62099976E+02
 20
-1.75000000E+02
 11
1.62099976E+02
 21
-1.95000000E+02
  0
LINE
  8
0
 62
7
 10
1.62099976E+02
 20
-1.75000000E+02
 11
2.82099854E+02
 21
-1.75000000E+02
  0
LINE
  8
0
 62
7
 10
1.62099976E+02
 20
1.75500000E+02
 11
2.82099854E+02
 21
1.75500000E+02
  0
LINE
  8
0
 62
7
 10
-2.81250000E+02
 20
1.75500000E+02
 11
-1.61250000E+02
 21
1.75500000E+02
  0
LINE
  8
0
 62
7
 10
1.62099976E+02
 20
1.95500000E+02
 11
1.62099976E+02
 21
1.75500000E+02
  0
LINE
  8
0
 62
7
 10
-1.61250000E+02
 20
1.95500000E+02
 11
-1.61250000E+02
 21
1.75500000E+02
  0
TEXT
  8
0
 62
7
 10
1.97799690E+02
 20
1.82350000E+02
 40
6.30000019E+00
  1
Ver. 1.0
 41
1.08108124E+00
  7
MONOTXT
  0
TEXT
  8
0
 62
7
 10
1.69885276E+02
 20
-1.89500000E+02
 40
9.00000000E+00
  1
KOGANEI CORP.
 41
1.04838732E+00
  7
MONOTXT
  0
TEXT
  8
0
 62
7
 10
-2.58150288E+02
 20
1.82350000E+02
 40
6.30000019E+00
  1
MULTI SLIDER
 41
1.05263174E+00
  7
MONOTXT
  0
ENDSEC
  0
EOF
