  0
SECTION
  2
HEADER
  9
$ACADVER
  1
AC1003
  9
$EXTMIN
 10
-2.81250000E+02
 20
-1.95000000E+02
  9
$EXTMAX
 10
2.82099854E+02
 20
1.95500000E+02
  9
$LIMMIN
 10
-2.81251000E+02
 20
-1.95001000E+02
  9
$LIMMAX
 10
2.82100854E+02
 20
1.95501000E+02
  9
$SNAPUNIT
 10
1
 20
1
  9
$SNAPBASE
 10
0
 20
0
  9
$GRIDMODE
 70
0
  9
$GRIDUNIT
 10
0
 20
0
  9
$LTSCALE
 40
9.38916423E+00
  9
$TEXTSIZE
 40
3.2
  9
$DIMTAD
 70
0
  9
$LUNITS
 70
2
  9
$LUPREC
 70
4
  9
$FILLETRAD
 40
0
  9
$AUNITS
 70
0
  9
$AUPREC
 70
0
  0
ENDSEC
  0
SECTION
  2
TABLES
  0
TABLE
  2
LTYPE
 70
2
  0
LTYPE
  2
CONTINUOUS
 70
64
  3
Solid-Line
 72
65
 73
0
 40
0
  0
LTYPE
  2
DASHED
 70
64
  3
DASHED
 72
65
 73
2
 40
.75
 49
.5
 49
-.25
  0
LTYPE
  2
HIDDEN
 70
64
  3
HIDDEN
 72
65
 73
2
 40
.375
 49
.25
 49
-.125
  0
LTYPE
  2
CENTER
 70
64
  3
CENTER
 72
65
 73
4
 40
2
 49
1.25
 49
-.25
 49
.25
 49
-.25
  0
LTYPE
  2
PHANTOM
 70
64
  3
PHANTOM
 72
65
 73
6
 40
2.5
 49
1.25
 49
-.25
 49
.25
 49
-.25
 49
.25
 49
-.25
  0
ENDTAB
  0
TABLE
  2
LAYER
 70
1
  0
LAYER
  2
1
 70
0
 62
7
  6
CONTINUOUS
 0
ENDTAB
  0
TABLE
  2
STYLE
 70
2
  0
STYLE
  2
MONOTXT
 70
0
 40
0
 41
1
 50
0
 71
0
 42
.2
  3
monotxt
  0
STYLE
  2
BIGFONT
 70
0
 40
0
 41
1
 50
0
 71
0
 42
.2
  3
txt
  4
bigfont
  0
ENDTAB
  0
ENDSEC
  0
SECTION
  2
ENTITIES
  0
LINE
  8
0
 62
7
 10
-8.20766444E+01
 20
2.37619978E+01
 11
-8.20766444E+01
 21
2.17619978E+01
  0
LINE
  8
0
 62
7
 10
-8.23166444E+01
 20
2.41619978E+01
 11
-8.20766444E+01
 21
2.37619978E+01
  0
LINE
  8
0
 62
7
 10
-8.23166444E+01
 20
1.83619978E+01
 11
-8.20766444E+01
 21
1.87619978E+01
  0
LINE
  8
0
 62
7
 10
-8.25766444E+01
 20
2.17619978E+01
 11
-8.20766444E+01
 21
2.17619978E+01
  0
LINE
  8
0
 62
7
 10
-8.25766444E+01
 20
2.07619978E+01
 11
-8.20766444E+01
 21
2.07619978E+01
  0
LINE
  8
0
 62
7
 10
-8.25766444E+01
 20
2.17619978E+01
 11
-8.25766444E+01
 21
2.07619978E+01
  0
LINE
  8
0
 62
7
 10
-8.20766444E+01
 20
2.07619978E+01
 11
-8.20766444E+01
 21
1.87619978E+01
  0
ARC
  8
0
 62
7
 10
-8.33410438E+01
 20
1.90869978E+01
 40
1.25499765E+00
 50
3.24711744E+02
 51
3.52882559E+01
  0
ARC
  8
0
 62
7
 10
-8.33410411E+01
 20
2.34319978E+01
 40
1.25789055E+00
 50
3.24525775E+02
 51
3.54742251E+01
  0
ARC
  8
0
 62
7
 10
-8.66994070E+01
 20
2.12790295E+01
 40
4.62177344E+00
 50
3.41493183E+02
 51
3.53576951E+02
  0
ARC
  8
0
 62
7
 10
-8.66961255E+01
 20
2.12301456E+01
 40
4.62019516E+00
 50
6.61023803E+00
 51
1.85764219E+01
  0
LINE
  8
0
 62
7
 10
-8.36866444E+01
 20
2.27019978E+01
 11
-8.23166444E+01
 21
2.27019978E+01
  0
LINE
  8
0
 62
7
 10
-8.36866444E+01
 20
1.98119978E+01
 11
-8.23166444E+01
 21
1.98119978E+01
  0
LINE
  8
0
 62
7
 10
-8.36866444E+01
 20
2.41619978E+01
 11
-8.23166444E+01
 21
2.41619978E+01
  0
LINE
  8
0
 62
7
 10
-8.36866444E+01
 20
1.83619978E+01
 11
-8.23166444E+01
 21
1.83619978E+01
  0
LINE
  8
0
 62
7
 10
-8.36866444E+01
 20
5.53477842E+01
 11
-8.96766444E+01
 21
5.53477842E+01
  0
LINE
  8
0
 62
7
 10
-8.96766444E+01
 20
4.17677373E+01
 11
-1.74676644E+02
 21
4.17677373E+01
  0
LINE
  8
0
 62
7
 10
-8.96766444E+01
 20
6.72677373E+01
 11
-1.74676644E+02
 21
6.72677373E+01
  0
LINE
  8
0
 62
7
 10
-8.36866444E+01
 20
4.07619978E+01
 11
-1.63676644E+02
 21
4.07619978E+01
  0
LINE
  8
0
 62
7
 10
-1.10676644E+02
 20
5.34726301E+01
 11
-1.11976644E+02
 21
5.40033529E+01
  0
LINE
  8
0
 62
7
 10
-1.11976644E+02
 20
5.40033529E+01
 11
-1.11976644E+02
 21
5.50647985E+01
  0
LINE
  8
0
 62
7
 10
-1.10676644E+02
 20
5.55955213E+01
 11
-1.11976644E+02
 21
5.50647985E+01
  0
LINE
  8
0
 62
7
 10
-1.10676644E+02
 20
5.55955213E+01
 11
-1.09376644E+02
 21
5.50647985E+01
  0
LINE
  8
0
 62
7
 10
-1.09376644E+02
 20
5.40033529E+01
 11
-1.09376644E+02
 21
5.50647985E+01
  0
LINE
  8
0
 62
7
 10
-1.10676644E+02
 20
5.34726301E+01
 11
-1.09376644E+02
 21
5.40033529E+01
  0
LINE
  8
0
 62
7
 10
-1.00676644E+02
 20
5.34726301E+01
 11
-1.01976644E+02
 21
5.40033529E+01
  0
LINE
  8
0
 62
7
 10
-1.01976644E+02
 20
5.40033529E+01
 11
-1.01976644E+02
 21
5.50647985E+01
  0
LINE
  8
0
 62
7
 10
-1.00676644E+02
 20
5.55955213E+01
 11
-1.01976644E+02
 21
5.50647985E+01
  0
LINE
  8
0
 62
7
 10
-1.00676644E+02
 20
5.34726301E+01
 11
-9.93766444E+01
 21
5.40033529E+01
  0
LINE
  8
0
 62
7
 10
-1.00676644E+02
 20
5.55955213E+01
 11
-9.93766444E+01
 21
5.50647985E+01
  0
LINE
  8
0
 62
7
 10
-9.93766444E+01
 20
5.40033529E+01
 11
-9.93766444E+01
 21
5.50647985E+01
  0
POLYLINE
  8
0
 62
7
 66
1
  0
VERTEX
  8
0
 62
7
 10
-1.11938553E+02
 20
5.28063482E+01
  0
VERTEX
  8
0
 62
7
 10
-1.11700209E+02
 20
5.27292467E+01
  0
VERTEX
  8
0
 62
7
 10
-1.11452566E+02
 20
5.26685402E+01
  0
VERTEX
  8
0
 62
7
 10
-1.11197874E+02
 20
5.26247802E+01
  0
VERTEX
  8
0
 62
7
 10
-1.10938448E+02
 20
5.25983641E+01
  0
VERTEX
  8
0
 62
7
 10
-1.10676644E+02
 20
5.25895321E+01
  0
VERTEX
  8
0
 62
7
 10
-1.10414840E+02
 20
5.25983641E+01
  0
VERTEX
  8
0
 62
7
 10
-1.10155414E+02
 20
5.26247802E+01
  0
VERTEX
  8
0
 62
7
 10
-1.09900722E+02
 20
5.26685402E+01
  0
VERTEX
  8
0
 62
7
 10
-1.09653079E+02
 20
5.27292467E+01
  0
VERTEX
  8
0
 62
7
 10
-1.09414735E+02
 20
5.28063482E+01
  0
SEQEND
  8
0
  0
POLYLINE
  8
0
 62
7
 66
1
  0
VERTEX
  8
0
 62
7
 10
-1.01938553E+02
 20
5.28063482E+01
  0
VERTEX
  8
0
 62
7
 10
-1.01700209E+02
 20
5.27292467E+01
  0
VERTEX
  8
0
 62
7
 10
-1.01452566E+02
 20
5.26685402E+01
  0
VERTEX
  8
0
 62
7
 10
-1.01197874E+02
 20
5.26247802E+01
  0
VERTEX
  8
0
 62
7
 10
-1.00938448E+02
 20
5.25983641E+01
  0
VERTEX
  8
0
 62
7
 10
-1.00676644E+02
 20
5.25895321E+01
  0
VERTEX
  8
0
 62
7
 10
-1.00414840E+02
 20
5.25983641E+01
  0
VERTEX
  8
0
 62
7
 10
-1.00155414E+02
 20
5.26247802E+01
  0
VERTEX
  8
0
 62
7
 10
-9.99007223E+01
 20
5.26685402E+01
  0
VERTEX
  8
0
 62
7
 10
-9.96530794E+01
 20
5.27292467E+01
  0
VERTEX
  8
0
 62
7
 10
-9.94147346E+01
 20
5.28063482E+01
  0
SEQEND
  8
0
  0
POLYLINE
  8
0
 62
7
 66
1
  0
VERTEX
  8
0
 62
7
 10
-9.79626215E+01
 20
5.48475896E+01
  0
VERTEX
  8
0
 62
7
 10
-9.80121268E+01
 20
5.50151412E+01
  0
VERTEX
  8
0
 62
7
 10
-9.80822780E+01
 20
5.51789653E+01
  0
VERTEX
  8
0
 62
7
 10
-9.81725317E+01
 20
5.53377925E+01
  0
VERTEX
  8
0
 62
7
 10
-9.82821883E+01
 20
5.54903921E+01
  0
VERTEX
  8
0
 62
7
 10
-9.84103984E+01
 20
5.56355817E+01
  0
VERTEX
  8
0
 62
7
 10
-9.85561684E+01
 20
5.57722363E+01
  0
VERTEX
  8
0
 62
7
 10
-9.87183689E+01
 20
5.58992970E+01
  0
VERTEX
  8
0
 62
7
 10
-9.88957430E+01
 20
5.60157794E+01
  0
VERTEX
  8
0
 62
7
 10
-9.90869164E+01
 20
5.61207808E+01
  0
VERTEX
  8
0
 62
7
 10
-9.92904077E+01
 20
5.62134876E+01
  0
VERTEX
  8
0
 62
7
 10
-9.95046403E+01
 20
5.62931816E+01
  0
VERTEX
  8
0
 62
7
 10
-9.97279541E+01
 20
5.63592452E+01
  0
VERTEX
  8
0
 62
7
 10
-9.99586188E+01
 20
5.64111665E+01
  0
VERTEX
  8
0
 62
7
 10
-1.00194847E+02
 20
5.64485432E+01
  0
VERTEX
  8
0
 62
7
 10
-1.00434809E+02
 20
5.64710857E+01
  0
VERTEX
  8
0
 62
7
 10
-1.00676644E+02
 20
5.64786194E+01
  0
VERTEX
  8
0
 62
7
 10
-1.00918479E+02
 20
5.64710857E+01
  0
VERTEX
  8
0
 62
7
 10
-1.01158441E+02
 20
5.64485432E+01
  0
VERTEX
  8
0
 62
7
 10
-1.01394669E+02
 20
5.64111665E+01
  0
VERTEX
  8
0
 62
7
 10
-1.01625334E+02
 20
5.63592452E+01
  0
VERTEX
  8
0
 62
7
 10
-1.01848648E+02
 20
5.62931816E+01
  0
VERTEX
  8
0
 62
7
 10
-1.02062880E+02
 20
5.62134877E+01
  0
VERTEX
  8
0
 62
7
 10
-1.02266372E+02
 20
5.61207808E+01
  0
VERTEX
  8
0
 62
7
 10
-1.02457545E+02
 20
5.60157794E+01
  0
VERTEX
  8
0
 62
7
 10
-1.02634919E+02
 20
5.58992970E+01
  0
VERTEX
  8
0
 62
7
 10
-1.02797120E+02
 20
5.57722363E+01
  0
VERTEX
  8
0
 62
7
 10
-1.02942890E+02
 20
5.56355817E+01
  0
VERTEX
  8
0
 62
7
 10
-1.03071100E+02
 20
5.54903921E+01
  0
VERTEX
  8
0
 62
7
 10
-1.03180756E+02
 20
5.53377925E+01
  0
VERTEX
  8
0
 62
7
 10
-1.03271010E+02
 20
5.51789653E+01
  0
VERTEX
  8
0
 62
7
 10
-1.03341161E+02
 20
5.50151413E+01
  0
VERTEX
  8
0
 62
7
 10
-1.03390666E+02
 20
5.48475897E+01
  0
SEQEND
  8
0
  0
POLYLINE
  8
0
 62
7
 66
1
  0
VERTEX
  8
0
 62
7
 10
-1.07962622E+02
 20
5.48475896E+01
  0
VERTEX
  8
0
 62
7
 10
-1.08012127E+02
 20
5.50151412E+01
  0
VERTEX
  8
0
 62
7
 10
-1.08082278E+02
 20
5.51789653E+01
  0
VERTEX
  8
0
 62
7
 10
-1.08172532E+02
 20
5.53377925E+01
  0
VERTEX
  8
0
 62
7
 10
-1.08282188E+02
 20
5.54903921E+01
  0
VERTEX
  8
0
 62
7
 10
-1.08410398E+02
 20
5.56355817E+01
  0
VERTEX
  8
0
 62
7
 10
-1.08556168E+02
 20
5.57722363E+01
  0
VERTEX
  8
0
 62
7
 10
-1.08718369E+02
 20
5.58992970E+01
  0
VERTEX
  8
0
 62
7
 10
-1.08895743E+02
 20
5.60157794E+01
  0
VERTEX
  8
0
 62
7
 10
-1.09086916E+02
 20
5.61207808E+01
  0
VERTEX
  8
0
 62
7
 10
-1.09290408E+02
 20
5.62134876E+01
  0
VERTEX
  8
0
 62
7
 10
-1.09504640E+02
 20
5.62931816E+01
  0
VERTEX
  8
0
 62
7
 10
-1.09727954E+02
 20
5.63592452E+01
  0
VERTEX
  8
0
 62
7
 10
-1.09958619E+02
 20
5.64111665E+01
  0
VERTEX
  8
0
 62
7
 10
-1.10194847E+02
 20
5.64485432E+01
  0
VERTEX
  8
0
 62
7
 10
-1.10434809E+02
 20
5.64710857E+01
  0
VERTEX
  8
0
 62
7
 10
-1.10676644E+02
 20
5.64786194E+01
  0
VERTEX
  8
0
 62
7
 10
-1.10918479E+02
 20
5.64710857E+01
  0
VERTEX
  8
0
 62
7
 10
-1.11158441E+02
 20
5.64485432E+01
  0
VERTEX
  8
0
 62
7
 10
-1.11394669E+02
 20
5.64111665E+01
  0
VERTEX
  8
0
 62
7
 10
-1.11625334E+02
 20
5.63592452E+01
  0
VERTEX
  8
0
 62
7
 10
-1.11848648E+02
 20
5.62931816E+01
  0
VERTEX
  8
0
 62
7
 10
-1.12062880E+02
 20
5.62134877E+01
  0
VERTEX
  8
0
 62
7
 10
-1.12266372E+02
 20
5.61207808E+01
  0
VERTEX
  8
0
 62
7
 10
-1.12457545E+02
 20
5.60157794E+01
  0
VERTEX
  8
0
 62
7
 10
-1.12634919E+02
 20
5.58992970E+01
  0
VERTEX
  8
0
 62
7
 10
-1.12797120E+02
 20
5.57722363E+01
  0
VERTEX
  8
0
 62
7
 10
-1.12942890E+02
 20
5.56355817E+01
  0
VERTEX
  8
0
 62
7
 10
-1.13071100E+02
 20
5.54903921E+01
  0
VERTEX
  8
0
 62
7
 10
-1.13180756E+02
 20
5.53377925E+01
  0
VERTEX
  8
0
 62
7
 10
-1.13271010E+02
 20
5.51789653E+01
  0
VERTEX
  8
0
 62
7
 10
-1.13341161E+02
 20
5.50151413E+01
  0
VERTEX
  8
0
 62
7
 10
-1.13390666E+02
 20
5.48475897E+01
  0
SEQEND
  8
0
  0
LINE
  8
0
  6
CENTER
 62
2
 10
-9.66224577E+01
 20
5.45340757E+01
 11
-1.14941965E+02
 21
5.45340757E+01
  0
POLYLINE
  8
0
 62
7
 66
1
  0
VERTEX
  8
0
 62
7
 10
-1.10676644E+02
 20
6.08980367E+01
  0
VERTEX
  8
0
 62
7
 10
-1.10938111E+02
 20
6.08818922E+01
  0
VERTEX
  8
0
 62
7
 10
-1.11197589E+02
 20
6.08335814E+01
  0
VERTEX
  8
0
 62
7
 10
-1.11453101E+02
 20
6.07534722E+01
  0
VERTEX
  8
0
 62
7
 10
-1.11702704E+02
 20
6.06421741E+01
  0
VERTEX
  8
0
 62
7
 10
-1.11944499E+02
 20
6.05005343E+01
  0
VERTEX
  8
0
 62
7
 10
-1.12176644E+02
 20
6.03296306E+01
  0
VERTEX
  8
0
 62
7
 10
-1.12397373E+02
 20
6.01307638E+01
  0
VERTEX
  8
0
 62
7
 10
-1.12605007E+02
 20
5.99054473E+01
  0
VERTEX
  8
0
 62
7
 10
-1.12797964E+02
 20
5.96553960E+01
  0
VERTEX
  8
0
 62
7
 10
-1.12974777E+02
 20
5.93825129E+01
  0
VERTEX
  8
0
 62
7
 10
-1.13134100E+02
 20
5.90888747E+01
  0
VERTEX
  8
0
 62
7
 10
-1.13274720E+02
 20
5.87767163E+01
  0
VERTEX
  8
0
 62
7
 10
-1.13395567E+02
 20
5.84484134E+01
  0
VERTEX
  8
0
 62
7
 10
-1.13495722E+02
 20
5.81064646E+01
  0
VERTEX
  8
0
 62
7
 10
-1.13574421E+02
 20
5.77534722E+01
  0
VERTEX
  8
0
 62
7
 10
-1.13631067E+02
 20
5.73921228E+01
  0
VERTEX
  8
0
 62
7
 10
-1.13665228E+02
 20
5.70251665E+01
  0
VERTEX
  8
0
 62
7
 10
-1.13676644E+02
 20
5.66553960E+01
  0
VERTEX
  8
0
 62
7
 10
-1.13665228E+02
 20
5.62856255E+01
  0
VERTEX
  8
0
 62
7
 10
-1.13631067E+02
 20
5.59186692E+01
  0
VERTEX
  8
0
 62
7
 10
-1.13574421E+02
 20
5.55573198E+01
  0
VERTEX
  8
0
 62
7
 10
-1.13495722E+02
 20
5.52043274E+01
  0
VERTEX
  8
0
 62
7
 10
-1.13395567E+02
 20
5.48623786E+01
  0
VERTEX
  8
0
 62
7
 10
-1.13274720E+02
 20
5.45340756E+01
  0
VERTEX
  8
0
 62
7
 10
-1.13134100E+02
 20
5.42219173E+01
  0
VERTEX
  8
0
 62
7
 10
-1.12974777E+02
 20
5.39282791E+01
  0
VERTEX
  8
0
 62
7
 10
-1.12797964E+02
 20
5.36553960E+01
  0
VERTEX
  8
0
 62
7
 10
-1.12605007E+02
 20
5.34053447E+01
  0
VERTEX
  8
0
 62
7
 10
-1.12397373E+02
 20
5.31800282E+01
  0
VERTEX
  8
0
 62
7
 10
-1.12176644E+02
 20
5.29811614E+01
  0
VERTEX
  8
0
 62
7
 10
-1.11944499E+02
 20
5.28102577E+01
  0
VERTEX
  8
0
 62
7
 10
-1.11702704E+02
 20
5.26686178E+01
  0
VERTEX
  8
0
 62
7
 10
-1.11453101E+02
 20
5.25573198E+01
  0
VERTEX
  8
0
 62
7
 10
-1.11197589E+02
 20
5.24772106E+01
  0
VERTEX
  8
0
 62
7
 10
-1.10938111E+02
 20
5.24288998E+01
  0
VERTEX
  8
0
 62
7
 10
-1.10676644E+02
 20
5.24127553E+01
  0
VERTEX
  8
0
 62
7
 10
-1.10415177E+02
 20
5.24288998E+01
  0
VERTEX
  8
0
 62
7
 10
-1.10155699E+02
 20
5.24772106E+01
  0
VERTEX
  8
0
 62
7
 10
-1.09900187E+02
 20
5.25573198E+01
  0
VERTEX
  8
0
 62
7
 10
-1.09650584E+02
 20
5.26686179E+01
  0
VERTEX
  8
0
 62
7
 10
-1.09408789E+02
 20
5.28102577E+01
  0
VERTEX
  8
0
 62
7
 10
-1.09176644E+02
 20
5.29811614E+01
  0
VERTEX
  8
0
 62
7
 10
-1.08955915E+02
 20
5.31800282E+01
  0
VERTEX
  8
0
 62
7
 10
-1.08748281E+02
 20
5.34053447E+01
  0
VERTEX
  8
0
 62
7
 10
-1.08555324E+02
 20
5.36553960E+01
  0
VERTEX
  8
0
 62
7
 10
-1.08378511E+02
 20
5.39282791E+01
  0
VERTEX
  8
0
 62
7
 10
-1.08219188E+02
 20
5.42219173E+01
  0
VERTEX
  8
0
 62
7
 10
-1.08078568E+02
 20
5.45340757E+01
  0
VERTEX
  8
0
 62
7
 10
-1.07957721E+02
 20
5.48623786E+01
  0
VERTEX
  8
0
 62
7
 10
-1.07857566E+02
 20
5.52043274E+01
  0
VERTEX
  8
0
 62
7
 10
-1.07778867E+02
 20
5.55573198E+01
  0
VERTEX
  8
0
 62
7
 10
-1.07722221E+02
 20
5.59186692E+01
  0
VERTEX
  8
0
 62
7
 10
-1.07688060E+02
 20
5.62856255E+01
  0
VERTEX
  8
0
 62
7
 10
-1.07676644E+02
 20
5.66553960E+01
  0
VERTEX
  8
0
 62
7
 10
-1.07688060E+02
 20
5.70251665E+01
  0
VERTEX
  8
0
 62
7
 10
-1.07722221E+02
 20
5.73921228E+01
  0
VERTEX
  8
0
 62
7
 10
-1.07778867E+02
 20
5.77534722E+01
  0
VERTEX
  8
0
 62
7
 10
-1.07857566E+02
 20
5.81064646E+01
  0
VERTEX
  8
0
 62
7
 10
-1.07957721E+02
 20
5.84484135E+01
  0
VERTEX
  8
0
 62
7
 10
-1.08078568E+02
 20
5.87767164E+01
  0
VERTEX
  8
0
 62
7
 10
-1.08219188E+02
 20
5.90888747E+01
  0
VERTEX
  8
0
 62
7
 10
-1.08378511E+02
 20
5.93825129E+01
  0
VERTEX
  8
0
 62
7
 10
-1.08555324E+02
 20
5.96553960E+01
  0
VERTEX
  8
0
 62
7
 10
-1.08748281E+02
 20
5.99054473E+01
  0
VERTEX
  8
0
 62
7
 10
-1.08955915E+02
 20
6.01307638E+01
  0
VERTEX
  8
0
 62
7
 10
-1.09176644E+02
 20
6.03296306E+01
  0
VERTEX
  8
0
 62
7
 10
-1.09408789E+02
 20
6.05005343E+01
  0
VERTEX
  8
0
 62
7
 10
-1.09650584E+02
 20
6.06421742E+01
  0
VERTEX
  8
0
 62
7
 10
-1.09900187E+02
 20
6.07534722E+01
  0
VERTEX
  8
0
 62
7
 10
-1.10155699E+02
 20
6.08335814E+01
  0
VERTEX
  8
0
 62
7
 10
-1.10415177E+02
 20
6.08818922E+01
  0
VERTEX
  8
0
 62
7
 10
-1.10676644E+02
 20
6.08980367E+01
  0
SEQEND
  8
0
  0
POLYLINE
  8
0
 62
7
 66
1
  0
VERTEX
  8
0
 62
7
 10
-1.00676644E+02
 20
6.08980367E+01
  0
VERTEX
  8
0
 62
7
 10
-1.00938111E+02
 20
6.08818922E+01
  0
VERTEX
  8
0
 62
7
 10
-1.01197589E+02
 20
6.08335814E+01
  0
VERTEX
  8
0
 62
7
 10
-1.01453101E+02
 20
6.07534722E+01
  0
VERTEX
  8
0
 62
7
 10
-1.01702704E+02
 20
6.06421741E+01
  0
VERTEX
  8
0
 62
7
 10
-1.01944499E+02
 20
6.05005343E+01
  0
VERTEX
  8
0
 62
7
 10
-1.02176644E+02
 20
6.03296306E+01
  0
VERTEX
  8
0
 62
7
 10
-1.02397373E+02
 20
6.01307638E+01
  0
VERTEX
  8
0
 62
7
 10
-1.02605007E+02
 20
5.99054473E+01
  0
VERTEX
  8
0
 62
7
 10
-1.02797964E+02
 20
5.96553960E+01
  0
VERTEX
  8
0
 62
7
 10
-1.02974777E+02
 20
5.93825129E+01
  0
VERTEX
  8
0
 62
7
 10
-1.03134100E+02
 20
5.90888747E+01
  0
VERTEX
  8
0
 62
7
 10
-1.03274720E+02
 20
5.87767163E+01
  0
VERTEX
  8
0
 62
7
 10
-1.03395567E+02
 20
5.84484134E+01
  0
VERTEX
  8
0
 62
7
 10
-1.03495722E+02
 20
5.81064646E+01
  0
VERTEX
  8
0
 62
7
 10
-1.03574421E+02
 20
5.77534722E+01
  0
VERTEX
  8
0
 62
7
 10
-1.03631067E+02
 20
5.73921228E+01
  0
VERTEX
  8
0
 62
7
 10
-1.03665228E+02
 20
5.70251665E+01
  0
VERTEX
  8
0
 62
7
 10
-1.03676644E+02
 20
5.66553960E+01
  0
VERTEX
  8
0
 62
7
 10
-1.03665228E+02
 20
5.62856255E+01
  0
VERTEX
  8
0
 62
7
 10
-1.03631067E+02
 20
5.59186692E+01
  0
VERTEX
  8
0
 62
7
 10
-1.03574421E+02
 20
5.55573198E+01
  0
VERTEX
  8
0
 62
7
 10
-1.03495722E+02
 20
5.52043274E+01
  0
VERTEX
  8
0
 62
7
 10
-1.03395567E+02
 20
5.48623786E+01
  0
VERTEX
  8
0
 62
7
 10
-1.03274720E+02
 20
5.45340756E+01
  0
VERTEX
  8
0
 62
7
 10
-1.03134100E+02
 20
5.42219173E+01
  0
VERTEX
  8
0
 62
7
 10
-1.02974777E+02
 20
5.39282791E+01
  0
VERTEX
  8
0
 62
7
 10
-1.02797964E+02
 20
5.36553960E+01
  0
VERTEX
  8
0
 62
7
 10
-1.02605007E+02
 20
5.34053447E+01
  0
VERTEX
  8
0
 62
7
 10
-1.02397373E+02
 20
5.31800282E+01
  0
VERTEX
  8
0
 62
7
 10
-1.02176644E+02
 20
5.29811614E+01
  0
VERTEX
  8
0
 62
7
 10
-1.01944499E+02
 20
5.28102577E+01
  0
VERTEX
  8
0
 62
7
 10
-1.01702704E+02
 20
5.26686178E+01
  0
VERTEX
  8
0
 62
7
 10
-1.01453101E+02
 20
5.25573198E+01
  0
VERTEX
  8
0
 62
7
 10
-1.01197589E+02
 20
5.24772106E+01
  0
VERTEX
  8
0
 62
7
 10
-1.00938111E+02
 20
5.24288998E+01
  0
VERTEX
  8
0
 62
7
 10
-1.00676644E+02
 20
5.24127553E+01
  0
VERTEX
  8
0
 62
7
 10
-1.00415177E+02
 20
5.24288998E+01
  0
VERTEX
  8
0
 62
7
 10
-1.00155699E+02
 20
5.24772106E+01
  0
VERTEX
  8
0
 62
7
 10
-9.99001868E+01
 20
5.25573198E+01
  0
VERTEX
  8
0
 62
7
 10
-9.96505836E+01
 20
5.26686179E+01
  0
VERTEX
  8
0
 62
7
 10
-9.94087892E+01
 20
5.28102577E+01
  0
VERTEX
  8
0
 62
7
 10
-9.91766440E+01
 20
5.29811614E+01
  0
VERTEX
  8
0
 62
7
 10
-9.89559147E+01
 20
5.31800282E+01
  0
VERTEX
  8
0
 62
7
 10
-9.87482812E+01
 20
5.34053447E+01
  0
VERTEX
  8
0
 62
7
 10
-9.85553236E+01
 20
5.36553960E+01
  0
VERTEX
  8
0
 62
7
 10
-9.83785107E+01
 20
5.39282791E+01
  0
VERTEX
  8
0
 62
7
 10
-9.82191879E+01
 20
5.42219173E+01
  0
VERTEX
  8
0
 62
7
 10
-9.80785678E+01
 20
5.45340757E+01
  0
VERTEX
  8
0
 62
7
 10
-9.79577206E+01
 20
5.48623786E+01
  0
VERTEX
  8
0
 62
7
 10
-9.78575661E+01
 20
5.52043274E+01
  0
VERTEX
  8
0
 62
7
 10
-9.77788665E+01
 20
5.55573198E+01
  0
VERTEX
  8
0
 62
7
 10
-9.77222207E+01
 20
5.59186692E+01
  0
VERTEX
  8
0
 62
7
 10
-9.76880599E+01
 20
5.62856255E+01
  0
VERTEX
  8
0
 62
7
 10
-9.76766440E+01
 20
5.66553960E+01
  0
VERTEX
  8
0
 62
7
 10
-9.76880599E+01
 20
5.70251665E+01
  0
VERTEX
  8
0
 62
7
 10
-9.77222207E+01
 20
5.73921228E+01
  0
VERTEX
  8
0
 62
7
 10
-9.77788665E+01
 20
5.77534722E+01
  0
VERTEX
  8
0
 62
7
 10
-9.78575661E+01
 20
5.81064646E+01
  0
VERTEX
  8
0
 62
7
 10
-9.79577206E+01
 20
5.84484135E+01
  0
VERTEX
  8
0
 62
7
 10
-9.80785678E+01
 20
5.87767164E+01
  0
VERTEX
  8
0
 62
7
 10
-9.82191879E+01
 20
5.90888747E+01
  0
VERTEX
  8
0
 62
7
 10
-9.83785107E+01
 20
5.93825129E+01
  0
VERTEX
  8
0
 62
7
 10
-9.85553237E+01
 20
5.96553960E+01
  0
VERTEX
  8
0
 62
7
 10
-9.87482812E+01
 20
5.99054473E+01
  0
VERTEX
  8
0
 62
7
 10
-9.89559147E+01
 20
6.01307638E+01
  0
VERTEX
  8
0
 62
7
 10
-9.91766440E+01
 20
6.03296306E+01
  0
VERTEX
  8
0
 62
7
 10
-9.94087892E+01
 20
6.05005343E+01
  0
VERTEX
  8
0
 62
7
 10
-9.96505836E+01
 20
6.06421742E+01
  0
VERTEX
  8
0
 62
7
 10
-9.99001869E+01
 20
6.07534722E+01
  0
VERTEX
  8
0
 62
7
 10
-1.00155699E+02
 20
6.08335814E+01
  0
VERTEX
  8
0
 62
7
 10
-1.00415177E+02
 20
6.08818922E+01
  0
VERTEX
  8
0
 62
7
 10
-1.00676644E+02
 20
6.08980367E+01
  0
SEQEND
  8
0
  0
LINE
  8
0
  6
CENTER
 62
2
 10
-1.00676644E+02
 20
5.07364362E+01
 11
-1.00676644E+02
 21
6.21970266E+01
  0
LINE
  8
0
  6
CENTER
 62
2
 10
-1.10676644E+02
 20
5.07364362E+01
 11
-1.10676644E+02
 21
6.21970266E+01
  0
LINE
  8
0
 62
7
 10
-8.36866444E+01
 20
2.61997757E-01
 11
-1.63676644E+02
 21
2.61997757E-01
  0
LINE
  8
0
 62
7
 10
-8.86866444E+01
 20
5.51259588E+01
 11
-8.96766444E+01
 21
5.51259588E+01
  0
LINE
  8
0
 62
7
 10
-8.36866444E+01
 20
4.55800172E+01
 11
-8.96766444E+01
 21
4.55800172E+01
  0
LINE
  8
0
 62
7
 10
-8.96766444E+01
 20
4.87619978E+01
 11
-8.86866444E+01
 21
4.87619978E+01
  0
CIRCLE
  8
0
 62
7
 10
-1.54677139E+02
 20
1.12620307E+01
 40
4.75000000E+00
  0
CIRCLE
  8
0
 62
7
 10
-1.54677139E+02
 20
3.12620307E+01
 40
4.75000000E+00
  0
CIRCLE
  8
0
 62
7
 10
-1.54677139E+02
 20
1.12620307E+01
 40
2.75000000E+00
  0
CIRCLE
  8
0
 62
7
 10
-1.54677139E+02
 20
3.12620307E+01
 40
2.75000000E+00
  0
LINE
  8
0
  6
CENTER
 62
2
 10
-1.61555886E+02
 20
3.12619978E+01
 11
-1.47968285E+02
 21
3.12619978E+01
  0
LINE
  8
0
  6
CENTER
 62
2
 10
-1.87969978E+02
 20
2.12619978E+01
 11
-8.13262210E+01
 21
2.12619978E+01
  0
LINE
  8
0
  6
CENTER
 62
2
 10
-1.54676644E+02
 20
3.98000614E+00
 11
-1.54676644E+02
 21
3.80219978E+01
  0
LINE
  8
0
 62
7
 10
-8.36866444E+01
 20
2.61997757E-01
 11
-8.36866444E+01
 21
5.53477842E+01
  0
LINE
  8
0
 62
7
 10
-1.63676644E+02
 20
2.61997757E-01
 11
-1.63676644E+02
 21
4.18833181E+01
  0
LINE
  8
0
 62
7
 10
-8.96766444E+01
 20
4.17677373E+01
 11
-8.96766444E+01
 21
6.72677373E+01
  0
LINE
  8
0
 62
7
 10
-8.86866444E+01
 20
4.55800172E+01
 11
-8.86866444E+01
 21
5.51259588E+01
  0
LINE
  8
0
  6
CENTER
 62
2
 10
-1.61555886E+02
 20
1.12620307E+01
 11
-1.47968285E+02
 21
1.12620307E+01
  0
LINE
  8
0
  6
CENTER
 62
2
 10
-1.54676644E+02
 20
4.46361111E+01
 11
-1.54676644E+02
 21
6.44510395E+01
  0
LINE
  8
0
  6
CENTER
 62
6
 10
-1.39676644E+02
 20
4.46361111E+01
 11
-1.39676644E+02
 21
6.44510395E+01
  0
LINE
  8
0
 62
6
 10
-1.24676644E+02
 20
4.46361111E+01
 11
-1.24676644E+02
 21
6.44510395E+01
  0
CIRCLE
  8
0
 62
4
 10
-1.24676644E+02
 20
6.07677373E+01
 40
2.10000000E+00
  0
CIRCLE
  8
0
 62
4
 10
-1.39676644E+02
 20
6.07677373E+01
 40
2.10000000E+00
  0
CIRCLE
  8
0
 62
7
 10
-1.54676644E+02
 20
6.07677373E+01
 40
2.10000000E+00
  0
CIRCLE
  8
0
 62
6
 10
-1.24676644E+02
 20
6.07677373E+01
 40
2.50000000E+00
  0
CIRCLE
  8
0
 62
6
 10
-1.39676644E+02
 20
6.07677373E+01
 40
2.50000000E+00
  0
CIRCLE
  8
0
 62
2
 10
-1.54676644E+02
 20
6.07677373E+01
 40
2.50000000E+00
  0
LINE
  8
0
 62
7
 10
-1.72506691E+02
 20
4.17677373E+01
 11
-1.72676644E+02
 21
4.15977842E+01
  0
ARC
  8
0
 62
7
 10
-1.73677161E+02
 20
2.12619978E+01
 40
5.00041310E+00
 50
3.23133652E+02
 51
3.68663477E+01
  0
LINE
  8
0
 62
7
 10
-1.74676644E+02
 20
1.22619978E+01
 11
-1.72676644E+02
 21
1.22619978E+01
  0
LINE
  8
0
 62
7
 10
-1.74676644E+02
 20
3.02619978E+01
 11
-1.72676644E+02
 21
3.02619978E+01
  0
LINE
  8
0
 62
7
 10
-1.84676644E+02
 20
5.26199776E+00
 11
-1.74676644E+02
 21
5.26199776E+00
  0
LINE
  8
0
 62
7
 10
-1.74676644E+02
 20
5.26199776E+00
 11
-1.74676644E+02
 21
6.72677373E+01
  0
LINE
  8
0
 62
7
 10
-1.84676644E+02
 20
5.26199776E+00
 11
-1.84676644E+02
 21
6.67619978E+01
  0
LINE
  8
0
 62
2
 10
-1.69676644E+02
 20
2.42619978E+01
 11
-1.72676644E+02
 21
1.82619978E+01
  0
LINE
  8
0
 62
2
 10
-1.72676644E+02
 20
2.42619978E+01
 11
-1.69676644E+02
 21
1.82619978E+01
  0
LINE
  8
0
 62
7
 10
-1.71666644E+02
 20
1.62619978E+01
 11
-1.63676644E+02
 21
1.62619978E+01
  0
LINE
  8
0
 62
7
 10
-1.69676644E+02
 20
2.42619978E+01
 11
-1.69676644E+02
 21
1.82619978E+01
  0
LINE
  8
0
 62
7
 10
-1.71666644E+02
 20
1.82619978E+01
 11
-1.71666644E+02
 21
1.62519978E+01
  0
LINE
  8
0
 62
7
 10
-1.72676644E+02
 20
1.82619978E+01
 11
-1.69676644E+02
 21
1.82619978E+01
  0
LINE
  8
0
 62
7
 10
-1.72676644E+02
 20
2.42619978E+01
 11
-1.69676644E+02
 21
2.42619978E+01
  0
LINE
  8
0
 62
7
 10
-1.71676644E+02
 20
2.62519978E+01
 11
-1.71676644E+02
 21
2.42619978E+01
  0
LINE
  8
0
 62
7
 10
-1.72676644E+02
 20
1.72619978E+01
 11
-1.71666644E+02
 21
1.62519978E+01
  0
LINE
  8
0
 62
7
 10
-1.72676644E+02
 20
2.52619978E+01
 11
-1.71676644E+02
 21
2.62519978E+01
  0
LINE
  8
0
 62
7
 10
-1.72676644E+02
 20
3.02619978E+01
 11
-1.72676644E+02
 21
1.22619978E+01
  0
LINE
  8
0
 62
7
 10
-1.71676644E+02
 20
2.62519978E+01
 11
-1.63676644E+02
 21
2.62519978E+01
  0
LINE
  8
0
  6
CENTER
 62
2
 10
-1.20198273E+02
 20
4.87677373E+01
 11
-1.58606153E+02
 21
4.87677373E+01
  0
LINE
  8
0
  6
CENTER
 62
2
 10
-1.20198273E+02
 20
6.07677373E+01
 11
-1.58606153E+02
 21
6.07677373E+01
  0
CIRCLE
  8
0
 62
7
 10
-1.54676644E+02
 20
4.87677373E+01
 40
2.10000000E+00
  0
CIRCLE
  8
0
 62
2
 10
-1.54676644E+02
 20
4.87677373E+01
 40
2.50000000E+00
  0
CIRCLE
  8
0
 62
4
 10
-1.39676644E+02
 20
4.87677373E+01
 40
2.10000000E+00
  0
CIRCLE
  8
0
 62
6
 10
-1.39676644E+02
 20
4.87677373E+01
 40
2.50000000E+00
  0
CIRCLE
  8
0
 62
4
 10
-1.24676644E+02
 20
4.87677373E+01
 40
2.10000000E+00
  0
CIRCLE
  8
0
 62
6
 10
-1.24676644E+02
 20
4.87677373E+01
 40
2.50000000E+00
  0
LINE
  8
0
 62
7
 10
-1.84676644E+02
 20
6.67619978E+01
 11
-1.74676644E+02
 21
6.67619978E+01
  0
LINE
  8
0
 62
7
 10
-8.36866444E+01
 20
3.23619978E+01
 11
-1.50056254E+02
 21
3.23619978E+01
  0
LINE
  8
0
 62
7
 10
-8.36866444E+01
 20
2.91619978E+01
 11
-1.50416580E+02
 21
2.91619978E+01
  0
LINE
  8
0
 62
7
 10
-8.36866444E+01
 20
1.33619978E+01
 11
-1.50416548E+02
 21
1.33619978E+01
  0
LINE
  8
0
 62
7
 10
-8.36866444E+01
 20
1.01619978E+01
 11
-1.50056270E+02
 21
1.01619978E+01
  0
LINE
  8
0
 62
7
 10
-1.59298023E+02
 20
3.23619978E+01
 11
-1.63676644E+02
 21
3.23619978E+01
  0
LINE
  8
0
 62
7
 10
-1.58937698E+02
 20
2.91619978E+01
 11
-1.63676644E+02
 21
2.91619978E+01
  0
LINE
  8
0
 62
7
 10
-1.58937730E+02
 20
1.33619978E+01
 11
-1.63676644E+02
 21
1.33619978E+01
  0
LINE
  8
0
 62
7
 10
-1.59298008E+02
 20
1.01619978E+01
 11
-1.63676644E+02
 21
1.01619978E+01
  0
LINE
  8
0
 62
7
 10
-8.36866444E+01
 20
3.97619978E+01
 11
-1.63676644E+02
 21
3.97619978E+01
  0
LINE
  8
0
  6
PHANTOM
 10
-1.17926644E+02
 20
-1.94980022E+01
 11
-1.17926644E+02
 21
7.71001012E+01
  0
LINE
  8
0
 62
7
 10
-2.34124784E+02
 20
4.96733181E+01
 11
-2.32134784E+02
 21
4.85233181E+01
  0
LINE
  8
0
 62
7
 10
-2.32134784E+02
 20
4.85233181E+01
 11
-2.32134784E+02
 21
4.62333181E+01
  0
LINE
  8
0
 62
7
 10
-2.34124784E+02
 20
4.50933181E+01
 11
-2.36104784E+02
 21
4.62333181E+01
  0
LINE
  8
0
 62
7
 10
-2.32134784E+02
 20
4.62333181E+01
 11
-2.34124784E+02
 21
4.50933181E+01
  0
LINE
  8
0
 62
7
 10
-2.36104784E+02
 20
4.85233181E+01
 11
-2.36104784E+02
 21
4.62333181E+01
  0
LINE
  8
0
 62
7
 10
-2.34124784E+02
 20
4.96733181E+01
 11
-2.36104784E+02
 21
4.85233181E+01
  0
CIRCLE
  8
0
 62
7
 10
-2.34125270E+02
 20
4.73833511E+01
 40
4.75000000E+00
  0
LINE
  8
0
  6
CENTER
 62
2
 10
-2.34124784E+02
 20
4.10633181E+01
 11
-2.34124784E+02
 21
5.38833181E+01
  0
LINE
  8
0
  6
CENTER
 62
2
 10
-2.39624784E+02
 20
4.73833181E+01
 11
-2.28699826E+02
 21
4.73833181E+01
  0
CIRCLE
  8
0
 62
7
 10
-2.34125270E+02
 20
4.73833511E+01
 40
4.25000000E+00
  0
LINE
  8
0
 62
7
 10
-2.47124784E+02
 20
6.36733181E+01
 11
-2.45134784E+02
 21
6.25233181E+01
  0
LINE
  8
0
 62
7
 10
-2.45134784E+02
 20
6.25233181E+01
 11
-2.45134784E+02
 21
6.02333181E+01
  0
LINE
  8
0
 62
7
 10
-2.47124784E+02
 20
5.90933181E+01
 11
-2.49104784E+02
 21
6.02333181E+01
  0
LINE
  8
0
 62
7
 10
-2.45134784E+02
 20
6.02333181E+01
 11
-2.47124784E+02
 21
5.90933181E+01
  0
LINE
  8
0
 62
7
 10
-2.49104784E+02
 20
6.25233181E+01
 11
-2.49104784E+02
 21
6.02333181E+01
  0
LINE
  8
0
 62
7
 10
-2.47124784E+02
 20
6.36733181E+01
 11
-2.49104784E+02
 21
6.25233181E+01
  0
CIRCLE
  8
0
 62
7
 10
-2.47125270E+02
 20
6.13833511E+01
 40
4.75000000E+00
  0
LINE
  8
0
  6
CENTER
 62
2
 10
-2.47124784E+02
 20
5.50633181E+01
 11
-2.47124784E+02
 21
6.78833181E+01
  0
LINE
  8
0
  6
CENTER
 62
2
 10
-2.52624784E+02
 20
6.13833181E+01
 11
-2.41699826E+02
 21
6.13833181E+01
  0
CIRCLE
  8
0
 62
7
 10
-2.47125270E+02
 20
6.13833511E+01
 40
4.25000000E+00
  0
CIRCLE
  8
0
 62
2
 10
-2.33125270E+02
 20
1.12620307E+01
 40
2.50000000E+00
  0
CIRCLE
  8
0
 62
2
 10
-2.33125270E+02
 20
3.12620307E+01
 40
2.50000000E+00
  0
CIRCLE
  8
0
 62
2
 10
-2.48125270E+02
 20
3.12620307E+01
 40
2.50000000E+00
  0
CIRCLE
  8
0
 62
7
 10
-2.48125270E+02
 20
3.12620307E+01
 40
2.09999943E+00
  0
CIRCLE
  8
0
 62
7
 10
-2.33125270E+02
 20
3.12620307E+01
 40
2.09999943E+00
  0
CIRCLE
  8
0
 62
7
 10
-2.33125270E+02
 20
1.12620307E+01
 40
2.09999943E+00
  0
CIRCLE
  8
0
 62
7
 10
-2.48125270E+02
 20
1.12620307E+01
 40
2.09999943E+00
  0
CIRCLE
  8
0
 62
2
 10
-2.48125270E+02
 20
1.12620307E+01
 40
2.50000000E+00
  0
CIRCLE
  8
0
 62
7
 10
-2.40625270E+02
 20
2.12620307E+01
 40
4.25000000E+00
  0
CIRCLE
  8
0
 62
7
 10
-2.40625270E+02
 20
2.12620307E+01
 40
7.50000000E+00
  0
CIRCLE
  8
0
 62
7
 10
-2.40625270E+02
 20
2.12620307E+01
 40
8.00000000E+00
  0
LINE
  8
0
 62
7
 10
-2.40624784E+02
 20
2.35519978E+01
 11
-2.38634784E+02
 21
2.24019978E+01
  0
LINE
  8
0
 62
7
 10
-2.38634784E+02
 20
2.24019978E+01
 11
-2.38634784E+02
 21
2.01119978E+01
  0
LINE
  8
0
 62
7
 10
-2.38634784E+02
 20
2.01119978E+01
 11
-2.40624784E+02
 21
1.89719978E+01
  0
LINE
  8
0
 62
7
 10
-2.40624784E+02
 20
1.89719978E+01
 11
-2.42604784E+02
 21
2.01119978E+01
  0
LINE
  8
0
 62
7
 10
-2.42604784E+02
 20
2.24019978E+01
 11
-2.42604784E+02
 21
2.01119978E+01
  0
LINE
  8
0
 62
7
 10
-2.40624784E+02
 20
2.35519978E+01
 11
-2.42604784E+02
 21
2.24019978E+01
  0
LINE
  8
0
  6
CENTER
 62
2
 10
-2.33124784E+02
 20
7.24115888E+00
 11
-2.33124784E+02
 21
3.62019978E+01
  0
LINE
  8
0
  6
CENTER
 62
2
 10
-2.52114784E+02
 20
1.12619978E+01
 11
-2.29626488E+02
 21
1.12619978E+01
  0
LINE
  8
0
  6
CENTER
 62
2
 10
-2.52114784E+02
 20
3.12619978E+01
 11
-2.29626488E+02
 21
3.12619978E+01
  0
LINE
  8
0
  6
CENTER
 62
2
 10
-2.48124784E+02
 20
7.24115888E+00
 11
-2.48124784E+02
 21
3.62019978E+01
  0
LINE
  8
0
 62
7
 10
-2.27578128E+02
 20
5.26199776E+00
 11
-2.53578128E+02
 21
5.26199776E+00
  0
LINE
  8
0
  6
CENTER
 62
2
 10
-2.40624784E+02
 20
-1.41698007E+00
 11
-2.40624784E+02
 21
6.97189976E+01
  0
LINE
  8
0
  6
CENTER
 62
2
 10
-2.25418512E+02
 20
2.12619978E+01
 11
-2.55782355E+02
 21
2.12619978E+01
  0
LINE
  8
0
 62
7
 10
-2.53324784E+02
 20
6.72677373E+01
 11
-2.27924784E+02
 21
6.72677373E+01
  0
LINE
  8
0
 62
7
 10
-2.27624784E+02
 20
6.67619978E+01
 11
-2.53624784E+02
 21
6.67619978E+01
  0
LINE
  8
0
 62
7
 10
-2.27424784E+02
 20
2.91619978E+01
 11
-2.27624784E+02
 21
2.91619978E+01
  0
LINE
  8
0
 62
7
 10
-2.27424784E+02
 20
1.33619978E+01
 11
-2.27624784E+02
 21
1.33619978E+01
  0
LINE
  8
0
 62
7
 10
-2.54124784E+02
 20
3.23619978E+01
 11
-2.54124784E+02
 21
5.43477842E+01
  0
ARC
  8
0
 62
7
 10
-2.53124784E+02
 20
5.43477842E+01
 40
1.00000000E+00
 50
1.20000000E+02
 51
1.80000000E+02
  0
LINE
  8
0
 62
7
 10
-2.53824784E+02
 20
1.33619978E+01
 11
-2.53824784E+02
 21
2.91619978E+01
  0
LINE
  8
0
 62
7
 10
-2.54124784E+02
 20
3.23619978E+01
 11
-2.53624784E+02
 21
3.23619978E+01
  0
LINE
  8
0
 62
7
 10
-2.53824784E+02
 20
2.91619978E+01
 11
-2.53624784E+02
 21
2.91619978E+01
  0
LINE
  8
0
 62
7
 10
-2.54124784E+02
 20
2.61997757E-01
 11
-2.54124784E+02
 21
1.01619978E+01
  0
LINE
  8
0
 62
7
 10
-2.53824784E+02
 20
1.33619978E+01
 11
-2.53624784E+02
 21
1.33619978E+01
  0
LINE
  8
0
 62
7
 10
-2.54124784E+02
 20
1.01619978E+01
 11
-2.53624784E+02
 21
1.01619978E+01
  0
LINE
  8
0
 62
7
 10
-2.27124784E+02
 20
2.61997757E-01
 11
-2.54124784E+02
 21
2.61997757E-01
  0
LINE
  8
0
 62
7
 10
-2.27124784E+02
 20
2.61997757E-01
 11
-2.27124784E+02
 21
1.01619978E+01
  0
LINE
  8
0
 62
7
 10
-2.27424784E+02
 20
1.33619978E+01
 11
-2.27424784E+02
 21
2.91619978E+01
  0
LINE
  8
0
 62
7
 10
-2.27424784E+02
 20
1.33619978E+01
 11
-2.27624784E+02
 21
1.33619978E+01
  0
LINE
  8
0
 62
7
 10
-2.27124784E+02
 20
1.01619978E+01
 11
-2.27624784E+02
 21
1.01619978E+01
  0
LINE
  8
0
 62
7
 10
-2.27124784E+02
 20
3.97619978E+01
 11
-2.27124784E+02
 21
3.23619978E+01
  0
LINE
  8
0
 62
7
 10
-2.27124784E+02
 20
3.23619978E+01
 11
-2.27624784E+02
 21
3.23619978E+01
  0
LINE
  8
0
 62
7
 10
-2.27424784E+02
 20
2.91619978E+01
 11
-2.27624784E+02
 21
2.91619978E+01
  0
LINE
  8
0
 62
7
 10
-2.27624784E+02
 20
4.02619978E+01
 11
-2.27124784E+02
 21
3.97619978E+01
  0
LINE
  8
0
 62
7
 10
-2.53624784E+02
 20
5.26199776E+00
 11
-2.53624784E+02
 21
6.69677373E+01
  0
LINE
  8
0
 62
7
 10
-2.27624784E+02
 20
5.26199776E+00
 11
-2.27624784E+02
 21
6.69677373E+01
  0
ARC
  8
0
 62
7
 10
-2.27924784E+02
 20
6.69677373E+01
 40
3.00000000E-01
 50
0.00000000E+00
 51
9.00000002E+01
  0
ARC
  8
0
 62
7
 10
-2.53324784E+02
 20
6.69677373E+01
 40
3.00000000E-01
 50
9.00000002E+01
 51
1.80000000E+02
  0
LINE
  8
0
 62
7
 10
-3.41766444E+01
 20
2.17619978E+01
 11
-2.91766444E+01
 21
2.17619978E+01
  0
LINE
  8
0
 62
7
 10
-3.41766444E+01
 20
2.07619978E+01
 11
-2.91766444E+01
 21
2.07619978E+01
  0
LINE
  8
0
 62
7
 10
-3.16766444E+01
 20
2.41419978E+01
 11
-3.41766444E+01
 21
2.27019978E+01
  0
LINE
  8
0
 62
7
 10
-3.41766444E+01
 20
2.27019978E+01
 11
-3.41766444E+01
 21
1.98119978E+01
  0
LINE
  8
0
 62
7
 10
-3.16766444E+01
 20
1.83719978E+01
 11
-3.41766444E+01
 21
1.98119978E+01
  0
LINE
  8
0
 62
7
 10
-2.91766444E+01
 20
1.98119978E+01
 11
-3.16766444E+01
 21
1.83719978E+01
  0
LINE
  8
0
 62
7
 10
-2.91766444E+01
 20
2.27019978E+01
 11
-2.91766444E+01
 21
1.98119978E+01
  0
LINE
  8
0
 62
7
 10
-3.16766444E+01
 20
2.41419978E+01
 11
-2.91766444E+01
 21
2.27019978E+01
  0
ARC
  8
0
 62
7
 10
-3.16816444E+01
 20
2.12620301E+01
 40
1.34997756E+01
 50
4.87191827E+01
 51
1.31236872E+02
  0
ARC
  8
0
 62
7
 10
-3.16816444E+01
 20
2.12620313E+01
 40
1.35076658E+01
 50
2.28777456E+02
 51
3.11266324E+02
  0
CIRCLE
  8
0
 62
7
 10
-3.16771303E+01
 20
2.12620307E+01
 40
1.20000000E+01
  0
CIRCLE
  8
0
 62
7
 10
-3.16771303E+01
 20
2.12620307E+01
 40
1.01000004E+01
  0
CIRCLE
  8
0
 62
7
 10
-3.16771303E+01
 20
2.12620307E+01
 40
1.06999998E+01
  0
ARC
  8
0
 62
7
 10
-3.16766444E+01
 20
2.12620307E+01
 40
2.50049336E+00
 50
1.15338809E+01
 51
1.68466119E+02
  0
ARC
  8
0
 62
7
 10
-3.16766444E+01
 20
2.12620307E+01
 40
2.50050654E+00
 50
1.91535361E+02
 51
3.48464639E+02
  0
LINE
  8
0
 62
7
 10
-2.06350139E+01
 20
5.73682423E+01
 11
-1.86766444E+01
 21
5.93266118E+01
  0
LINE
  8
0
 62
7
 10
-3.62355189E+01
 20
4.17677373E+01
 11
-4.43766444E+01
 21
4.17677373E+01
  0
LINE
  8
0
 62
7
 10
-3.62355189E+01
 20
4.17677373E+01
 11
-3.47771495E+01
 21
4.32261067E+01
  0
LINE
  8
0
 62
7
 10
-2.04228818E+01
 20
5.75803744E+01
 11
-2.53726293E+01
 21
6.25301218E+01
  0
LINE
  8
0
 62
7
 10
-3.49892815E+01
 20
4.30139747E+01
 11
-3.99390290E+01
 21
4.79637222E+01
  0
LINE
  8
0
 62
7
 10
-1.86766444E+01
 20
9.66199776E+00
 11
-1.86766444E+01
 21
1.33619978E+01
  0
LINE
  8
0
 62
7
 10
-1.89766444E+01
 20
6.72677373E+01
 11
-4.43766444E+01
 21
6.72677373E+01
  0
LINE
  8
0
 62
7
 10
-4.46766444E+01
 20
1.01619978E+01
 11
-4.46766444E+01
 21
1.33619978E+01
  0
LINE
  8
0
 62
7
 10
-3.99390290E+01
 20
4.79637222E+01
 11
-2.53726293E+01
 21
6.25301218E+01
  0
ARC
  8
0
 62
7
 10
-4.43766444E+01
 20
4.20677373E+01
 40
3.00000000E-01
 50
1.80000000E+02
 51
2.70000000E+02
  0
LINE
  8
0
 62
7
 10
-3.03223768E+01
 20
4.65495086E+01
 11
-3.42114641E+01
 21
4.26604213E+01
  0
LINE
  8
0
 62
7
 10
-2.00693284E+01
 20
5.68025569E+01
 11
-2.39584157E+01
 21
5.29134696E+01
  0
LINE
  8
0
 62
7
 10
-1.85785896E+01
 20
5.51820259E+01
 11
-2.87667418E+01
 21
4.49938737E+01
  0
LINE
  8
0
 62
7
 10
-2.55847613E+01
 20
6.23179898E+01
 11
-3.97268969E+01
 21
4.81758542E+01
  0
LINE
  8
0
 62
7
 10
-3.41299886E+01
 20
4.07619978E+01
 11
-4.41766444E+01
 21
4.07619978E+01
  0
CIRCLE
  8
0
 62
7
 10
-3.16766444E+01
 20
4.76199776E+00
 40
2.10000000E+00
  0
CIRCLE
  8
0
 62
7
 10
-3.16766444E+01
 20
3.77619978E+01
 40
2.10000000E+00
  0
CIRCLE
  8
0
 62
2
 10
-3.16766444E+01
 20
3.77619978E+01
 40
2.50000000E+00
  0
CIRCLE
  8
0
 62
2
 10
-3.16766444E+01
 20
4.76199776E+00
 40
2.50000000E+00
  0
LINE
  8
0
  6
CENTER
 62
2
 10
-3.53900598E+01
 20
4.76199776E+00
 11
-2.80119298E+01
 21
4.76199776E+00
  0
LINE
  8
0
  6
CENTER
 62
2
 10
-3.53900598E+01
 20
3.77619978E+01
 11
-2.80119298E+01
 21
3.77619978E+01
  0
LINE
  8
0
 62
7
 10
-4.51766444E+01
 20
2.61997757E-01
 11
-1.81766444E+01
 21
2.61997757E-01
  0
LINE
  8
0
 62
7
 10
-4.51766444E+01
 20
2.61997757E-01
 11
-4.51766444E+01
 21
1.01619978E+01
  0
LINE
  8
0
 62
7
 10
-4.51766444E+01
 20
1.01619978E+01
 11
-4.46766444E+01
 21
1.01619978E+01
  0
LINE
  8
0
 62
7
 10
-4.48766444E+01
 20
1.33619978E+01
 11
-4.46766444E+01
 21
1.33619978E+01
  0
LINE
  8
0
 62
7
 10
-4.41766444E+01
 20
1.38619978E+01
 11
-4.25766444E+01
 21
1.38619978E+01
  0
LINE
  8
0
 62
7
 10
-4.41766444E+01
 20
9.66199776E+00
 11
-4.25766444E+01
 21
9.66199776E+00
  0
LINE
  8
0
 62
7
 10
-4.46766444E+01
 20
1.33619978E+01
 11
-4.41766444E+01
 21
1.38619978E+01
  0
LINE
  8
0
 62
7
 10
-4.46766444E+01
 20
1.01619978E+01
 11
-4.41766444E+01
 21
9.66199776E+00
  0
LINE
  8
0
 62
7
 10
-4.48766444E+01
 20
1.33619978E+01
 11
-4.48766444E+01
 21
2.91619978E+01
  0
LINE
  8
0
 62
7
 10
-4.46766444E+01
 20
2.91619978E+01
 11
-4.41766444E+01
 21
2.86619978E+01
  0
LINE
  8
0
 62
7
 10
-4.48766444E+01
 20
2.91619978E+01
 11
-4.46766444E+01
 21
2.91619978E+01
  0
LINE
  8
0
 62
7
 10
-4.41766444E+01
 20
2.86619978E+01
 11
-4.25766444E+01
 21
2.86619978E+01
  0
LINE
  8
0
 62
7
 10
-4.41766444E+01
 20
3.28619978E+01
 11
-4.25766444E+01
 21
3.28619978E+01
  0
LINE
  8
0
 62
7
 10
-4.46766444E+01
 20
3.23619978E+01
 11
-4.41766444E+01
 21
3.28619978E+01
  0
LINE
  8
0
 62
7
 10
-4.51766444E+01
 20
3.23619978E+01
 11
-4.46766444E+01
 21
3.23619978E+01
  0
LINE
  8
0
 62
7
 10
-1.81766444E+01
 20
2.61997757E-01
 11
-1.81766444E+01
 21
1.01619978E+01
  0
LINE
  8
0
 62
7
 10
-1.81766444E+01
 20
3.23619978E+01
 11
-1.81766444E+01
 21
5.43477842E+01
  0
LINE
  8
0
 62
7
 10
-1.81766444E+01
 20
1.01619978E+01
 11
-1.86766444E+01
 21
1.01619978E+01
  0
LINE
  8
0
 62
7
 10
-1.84766444E+01
 20
1.33619978E+01
 11
-1.86766444E+01
 21
1.33619978E+01
  0
LINE
  8
0
 62
7
 10
-1.91766444E+01
 20
1.38619978E+01
 11
-2.07766444E+01
 21
1.38619978E+01
  0
LINE
  8
0
 62
7
 10
-1.91766444E+01
 20
9.66199776E+00
 11
-2.07766444E+01
 21
9.66199776E+00
  0
LINE
  8
0
 62
7
 10
-1.86766444E+01
 20
1.33619978E+01
 11
-1.91766444E+01
 21
1.38619978E+01
  0
LINE
  8
0
 62
7
 10
-1.86766444E+01
 20
1.01619978E+01
 11
-1.91766444E+01
 21
9.66199776E+00
  0
LINE
  8
0
 62
7
 10
-1.84766444E+01
 20
1.33619978E+01
 11
-1.84766444E+01
 21
2.91619978E+01
  0
LINE
  8
0
 62
7
 10
-1.86766444E+01
 20
2.91619978E+01
 11
-1.91766444E+01
 21
2.86619978E+01
  0
LINE
  8
0
 62
7
 10
-1.84766444E+01
 20
2.91619978E+01
 11
-1.86766444E+01
 21
2.91619978E+01
  0
LINE
  8
0
 62
7
 10
-1.91766444E+01
 20
2.86619978E+01
 11
-2.07766444E+01
 21
2.86619978E+01
  0
LINE
  8
0
 62
7
 10
-1.91766444E+01
 20
3.28619978E+01
 11
-2.07766444E+01
 21
3.28619978E+01
  0
LINE
  8
0
 62
7
 10
-1.86766444E+01
 20
3.23619978E+01
 11
-1.91766444E+01
 21
3.28619978E+01
  0
LINE
  8
0
 62
7
 10
-1.81766444E+01
 20
3.23619978E+01
 11
-1.86766444E+01
 21
3.23619978E+01
  0
ARC
  8
0
 62
7
 10
-4.25766444E+01
 20
1.17619978E+01
 40
2.10000006E+00
 50
2.70000000E+02
 51
9.00000002E+01
  0
ARC
  8
0
 62
7
 10
-4.25766444E+01
 20
3.07619978E+01
 40
2.10000006E+00
 50
2.70000000E+02
 51
9.00000002E+01
  0
ARC
  8
0
 62
7
 10
-2.07766444E+01
 20
1.17619978E+01
 40
2.10000005E+00
 50
9.00000002E+01
 51
2.70000000E+02
  0
ARC
  8
0
 62
7
 10
-2.07766444E+01
 20
3.07619978E+01
 40
2.10000005E+00
 50
9.00000002E+01
 51
2.70000000E+02
  0
LINE
  8
0
 62
7
 10
-3.41299886E+01
 20
4.07619978E+01
 11
-2.93324273E+01
 21
4.55595591E+01
  0
LINE
  8
0
 62
7
 10
-4.51766444E+01
 20
3.97619978E+01
 11
-4.51766444E+01
 21
3.23619978E+01
  0
LINE
  8
0
 62
7
 10
-2.87667418E+01
 20
4.49938737E+01
 11
-2.93324273E+01
 21
4.55595591E+01
  0
ARC
  8
0
 62
7
 10
-1.91766444E+01
 20
5.43477842E+01
 40
1.00000000E+00
 50
7.63333124E-14
 51
5.65369590E+01
  0
LINE
  8
0
  6
CENTER
 62
2
 10
-4.68829162E+01
 20
2.12619978E+01
 11
-1.65190734E+01
 21
2.12619978E+01
  0
LINE
  8
0
  6
CENTER
 62
2
 10
-3.16766444E+01
 20
-1.41698007E+00
 11
-3.16766444E+01
 21
6.97189976E+01
  0
LINE
  8
0
 62
7
 10
-2.00693284E+01
 20
5.68025569E+01
 11
-2.55847613E+01
 21
6.23179898E+01
  0
LINE
  8
0
 62
7
 10
-3.26558291E+01
 20
4.88829610E+01
 11
-2.62918681E+01
 21
5.52469220E+01
  0
LINE
  8
0
 62
7
 10
-3.42114641E+01
 20
4.26604213E+01
 11
-3.97268969E+01
 21
4.81758542E+01
  0
LINE
  8
0
 62
7
 10
-2.24027808E+01
 20
5.13578347E+01
 11
-2.62918681E+01
 21
5.52469220E+01
  0
LINE
  8
0
 62
7
 10
-2.87667418E+01
 20
4.49938737E+01
 11
-3.26558291E+01
 21
4.88829610E+01
  0
ARC
  8
0
 62
7
 10
-1.89766444E+01
 20
6.69677373E+01
 40
3.00000000E-01
 50
0.00000000E+00
 51
9.00000002E+01
  0
ARC
  8
0
 62
7
 10
-4.43766444E+01
 20
6.69677373E+01
 40
3.00000000E-01
 50
9.00000002E+01
 51
1.80000000E+02
  0
LINE
  8
0
 62
7
 10
-4.41766444E+01
 20
4.07619978E+01
 11
-4.51766444E+01
 21
3.97619978E+01
  0
LINE
  8
0
  6
CENTER
 62
2
 10
-4.68829162E+01
 20
3.07619978E+01
 11
-1.65190734E+01
 21
3.07619978E+01
  0
LINE
  8
0
  6
CENTER
 62
2
 10
-4.68829162E+01
 20
1.17619978E+01
 11
-1.65190734E+01
 21
1.17619978E+01
  0
LINE
  8
0
 62
7
 10
-1.86766444E+01
 20
5.50839711E+01
 11
-1.86766444E+01
 21
6.69677373E+01
  0
LINE
  8
0
 62
7
 10
-4.46766444E+01
 20
4.02619978E+01
 11
-4.46766444E+01
 21
6.69677373E+01
  0
LINE
  8
0
 62
7
 10
-4.46766444E+01
 20
2.91619978E+01
 11
-4.46766444E+01
 21
3.23619978E+01
  0
LINE
  8
0
 62
7
 10
-1.86766444E+01
 20
2.91619978E+01
 11
-1.86766444E+01
 21
3.23619978E+01
  0
LINE
  8
0
  6
CENTER
 62
2
 10
-3.28740470E+01
 20
5.82677373E+01
 11
-3.86090270E+01
 21
5.82677373E+01
  0
LINE
  8
0
  6
CENTER
 62
2
 10
-3.56766444E+01
 20
5.55258939E+01
 11
-3.56766444E+01
 21
6.12206005E+01
  0
CIRCLE
  8
0
 62
7
 10
-3.56766444E+01
 20
5.82677373E+01
 40
1.75000000E+00
  0
LINE
  8
0
 62
7
 10
-8.20766444E+01
 20
1.22391998E+02
 11
-8.20766444E+01
 21
1.18191998E+02
  0
LINE
  8
0
 62
7
 10
-8.23166444E+01
 20
1.17791998E+02
 11
-8.20766444E+01
 21
1.18191998E+02
  0
LINE
  8
0
 62
7
 10
-8.23166444E+01
 20
1.22791998E+02
 11
-8.20766444E+01
 21
1.22391998E+02
  0
ARC
  8
0
 62
7
 10
-8.55756135E+01
 20
1.21541998E+02
 40
3.49046985E+00
 50
3.39015341E+02
 51
2.09846594E+01
  0
ARC
  8
0
 62
7
 10
-8.55756135E+01
 20
1.19041998E+02
 40
3.49046985E+00
 50
3.39015341E+02
 51
2.09846594E+01
  0
LINE
  8
0
 62
7
 10
-8.36866444E+01
 20
1.20291998E+02
 11
-8.23166444E+01
 21
1.20291998E+02
  0
LINE
  8
0
 62
7
 10
-8.36866444E+01
 20
1.17791998E+02
 11
-8.23166444E+01
 21
1.17791998E+02
  0
LINE
  8
0
 62
7
 10
-8.36866444E+01
 20
1.22791998E+02
 11
-8.23166444E+01
 21
1.22791998E+02
  0
LINE
  8
0
 62
7
 10
-8.86866444E+01
 20
1.19428037E+02
 11
-8.86866444E+01
 21
1.29681085E+02
  0
POLYLINE
  8
0
 62
7
 66
1
  0
VERTEX
  8
0
 62
7
 10
-1.13390666E+02
 20
1.19468076E+02
  0
VERTEX
  8
0
 62
7
 10
-1.13341161E+02
 20
1.19300524E+02
  0
VERTEX
  8
0
 62
7
 10
-1.13271010E+02
 20
1.19136700E+02
  0
VERTEX
  8
0
 62
7
 10
-1.13180756E+02
 20
1.18977873E+02
  0
VERTEX
  8
0
 62
7
 10
-1.13071100E+02
 20
1.18825274E+02
  0
VERTEX
  8
0
 62
7
 10
-1.12942890E+02
 20
1.18680084E+02
  0
VERTEX
  8
0
 62
7
 10
-1.12797120E+02
 20
1.18543429E+02
  0
VERTEX
  8
0
 62
7
 10
-1.12634919E+02
 20
1.18416369E+02
  0
VERTEX
  8
0
 62
7
 10
-1.12457545E+02
 20
1.18299886E+02
  0
VERTEX
  8
0
 62
7
 10
-1.12266372E+02
 20
1.18194885E+02
  0
VERTEX
  8
0
 62
7
 10
-1.12062880E+02
 20
1.18102178E+02
  0
VERTEX
  8
0
 62
7
 10
-1.11848648E+02
 20
1.18022484E+02
  0
VERTEX
  8
0
 62
7
 10
-1.11625334E+02
 20
1.17956420E+02
  0
VERTEX
  8
0
 62
7
 10
-1.11394669E+02
 20
1.17904499E+02
  0
VERTEX
  8
0
 62
7
 10
-1.11158441E+02
 20
1.17867122E+02
  0
VERTEX
  8
0
 62
7
 10
-1.10918479E+02
 20
1.17844580E+02
  0
VERTEX
  8
0
 62
7
 10
-1.10676644E+02
 20
1.17837046E+02
  0
VERTEX
  8
0
 62
7
 10
-1.10434809E+02
 20
1.17844580E+02
  0
VERTEX
  8
0
 62
7
 10
-1.10194847E+02
 20
1.17867122E+02
  0
VERTEX
  8
0
 62
7
 10
-1.09958619E+02
 20
1.17904499E+02
  0
VERTEX
  8
0
 62
7
 10
-1.09727954E+02
 20
1.17956420E+02
  0
VERTEX
  8
0
 62
7
 10
-1.09504640E+02
 20
1.18022484E+02
  0
VERTEX
  8
0
 62
7
 10
-1.09290408E+02
 20
1.18102178E+02
  0
VERTEX
  8
0
 62
7
 10
-1.09086916E+02
 20
1.18194885E+02
  0
VERTEX
  8
0
 62
7
 10
-1.08895743E+02
 20
1.18299886E+02
  0
VERTEX
  8
0
 62
7
 10
-1.08718369E+02
 20
1.18416369E+02
  0
VERTEX
  8
0
 62
7
 10
-1.08556168E+02
 20
1.18543429E+02
  0
VERTEX
  8
0
 62
7
 10
-1.08410398E+02
 20
1.18680084E+02
  0
VERTEX
  8
0
 62
7
 10
-1.08282188E+02
 20
1.18825274E+02
  0
VERTEX
  8
0
 62
7
 10
-1.08172532E+02
 20
1.18977873E+02
  0
VERTEX
  8
0
 62
7
 10
-1.08082278E+02
 20
1.19136700E+02
  0
VERTEX
  8
0
 62
7
 10
-1.08012127E+02
 20
1.19300524E+02
  0
VERTEX
  8
0
 62
7
 10
-1.07962622E+02
 20
1.19468076E+02
  0
SEQEND
  8
0
  0
POLYLINE
  8
0
 62
7
 66
1
  0
VERTEX
  8
0
 62
7
 10
-1.03390666E+02
 20
1.19468076E+02
  0
VERTEX
  8
0
 62
7
 10
-1.03341161E+02
 20
1.19300524E+02
  0
VERTEX
  8
0
 62
7
 10
-1.03271010E+02
 20
1.19136700E+02
  0
VERTEX
  8
0
 62
7
 10
-1.03180756E+02
 20
1.18977873E+02
  0
VERTEX
  8
0
 62
7
 10
-1.03071100E+02
 20
1.18825274E+02
  0
VERTEX
  8
0
 62
7
 10
-1.02942890E+02
 20
1.18680084E+02
  0
VERTEX
  8
0
 62
7
 10
-1.02797120E+02
 20
1.18543429E+02
  0
VERTEX
  8
0
 62
7
 10
-1.02634919E+02
 20
1.18416369E+02
  0
VERTEX
  8
0
 62
7
 10
-1.02457545E+02
 20
1.18299886E+02
  0
VERTEX
  8
0
 62
7
 10
-1.02266372E+02
 20
1.18194885E+02
  0
VERTEX
  8
0
 62
7
 10
-1.02062880E+02
 20
1.18102178E+02
  0
VERTEX
  8
0
 62
7
 10
-1.01848648E+02
 20
1.18022484E+02
  0
VERTEX
  8
0
 62
7
 10
-1.01625334E+02
 20
1.17956420E+02
  0
VERTEX
  8
0
 62
7
 10
-1.01394669E+02
 20
1.17904499E+02
  0
VERTEX
  8
0
 62
7
 10
-1.01158441E+02
 20
1.17867122E+02
  0
VERTEX
  8
0
 62
7
 10
-1.00918479E+02
 20
1.17844580E+02
  0
VERTEX
  8
0
 62
7
 10
-1.00676644E+02
 20
1.17837046E+02
  0
VERTEX
  8
0
 62
7
 10
-1.00434809E+02
 20
1.17844580E+02
  0
VERTEX
  8
0
 62
7
 10
-1.00194847E+02
 20
1.17867122E+02
  0
VERTEX
  8
0
 62
7
 10
-9.99586188E+01
 20
1.17904499E+02
  0
VERTEX
  8
0
 62
7
 10
-9.97279541E+01
 20
1.17956420E+02
  0
VERTEX
  8
0
 62
7
 10
-9.95046403E+01
 20
1.18022484E+02
  0
VERTEX
  8
0
 62
7
 10
-9.92904077E+01
 20
1.18102178E+02
  0
VERTEX
  8
0
 62
7
 10
-9.90869164E+01
 20
1.18194885E+02
  0
VERTEX
  8
0
 62
7
 10
-9.88957430E+01
 20
1.18299886E+02
  0
VERTEX
  8
0
 62
7
 10
-9.87183689E+01
 20
1.18416369E+02
  0
VERTEX
  8
0
 62
7
 10
-9.85561684E+01
 20
1.18543429E+02
  0
VERTEX
  8
0
 62
7
 10
-9.84103984E+01
 20
1.18680084E+02
  0
VERTEX
  8
0
 62
7
 10
-9.82821883E+01
 20
1.18825274E+02
  0
VERTEX
  8
0
 62
7
 10
-9.81725317E+01
 20
1.18977873E+02
  0
VERTEX
  8
0
 62
7
 10
-9.80822780E+01
 20
1.19136700E+02
  0
VERTEX
  8
0
 62
7
 10
-9.80121268E+01
 20
1.19300524E+02
  0
VERTEX
  8
0
 62
7
 10
-9.79626215E+01
 20
1.19468076E+02
  0
SEQEND
  8
0
  0
POLYLINE
  8
0
 62
7
 66
1
  0
VERTEX
  8
0
 62
7
 10
-9.94147346E+01
 20
1.21509318E+02
  0
VERTEX
  8
0
 62
7
 10
-9.96530794E+01
 20
1.21586419E+02
  0
VERTEX
  8
0
 62
7
 10
-9.99007222E+01
 20
1.21647126E+02
  0
VERTEX
  8
0
 62
7
 10
-1.00155414E+02
 20
1.21690886E+02
  0
VERTEX
  8
0
 62
7
 10
-1.00414840E+02
 20
1.21717302E+02
  0
VERTEX
  8
0
 62
7
 10
-1.00676644E+02
 20
1.21726134E+02
  0
VERTEX
  8
0
 62
7
 10
-1.00938448E+02
 20
1.21717302E+02
  0
VERTEX
  8
0
 62
7
 10
-1.01197874E+02
 20
1.21690886E+02
  0
VERTEX
  8
0
 62
7
 10
-1.01452566E+02
 20
1.21647126E+02
  0
VERTEX
  8
0
 62
7
 10
-1.01700209E+02
 20
1.21586419E+02
  0
VERTEX
  8
0
 62
7
 10
-1.01938553E+02
 20
1.21509318E+02
  0
SEQEND
  8
0
  0
POLYLINE
  8
0
 62
7
 66
1
  0
VERTEX
  8
0
 62
7
 10
-1.09414735E+02
 20
1.21509318E+02
  0
VERTEX
  8
0
 62
7
 10
-1.09653079E+02
 20
1.21586419E+02
  0
VERTEX
  8
0
 62
7
 10
-1.09900722E+02
 20
1.21647126E+02
  0
VERTEX
  8
0
 62
7
 10
-1.10155414E+02
 20
1.21690886E+02
  0
VERTEX
  8
0
 62
7
 10
-1.10414840E+02
 20
1.21717302E+02
  0
VERTEX
  8
0
 62
7
 10
-1.10676644E+02
 20
1.21726134E+02
  0
VERTEX
  8
0
 62
7
 10
-1.10938448E+02
 20
1.21717302E+02
  0
VERTEX
  8
0
 62
7
 10
-1.11197874E+02
 20
1.21690886E+02
  0
VERTEX
  8
0
 62
7
 10
-1.11452566E+02
 20
1.21647126E+02
  0
VERTEX
  8
0
 62
7
 10
-1.11700209E+02
 20
1.21586419E+02
  0
VERTEX
  8
0
 62
7
 10
-1.11938553E+02
 20
1.21509318E+02
  0
SEQEND
  8
0
  0
LINE
  8
0
 62
7
 10
-9.93766444E+01
 20
1.20312313E+02
 11
-9.93766444E+01
 21
1.19250867E+02
  0
LINE
  8
0
 62
7
 10
-1.00676644E+02
 20
1.18720145E+02
 11
-9.93766444E+01
 21
1.19250867E+02
  0
LINE
  8
0
 62
7
 10
-1.00676644E+02
 20
1.20843036E+02
 11
-9.93766444E+01
 21
1.20312313E+02
  0
LINE
  8
0
 62
7
 10
-1.00676644E+02
 20
1.18720145E+02
 11
-1.01976644E+02
 21
1.19250867E+02
  0
LINE
  8
0
 62
7
 10
-1.01976644E+02
 20
1.20312313E+02
 11
-1.01976644E+02
 21
1.19250867E+02
  0
LINE
  8
0
 62
7
 10
-1.00676644E+02
 20
1.20843036E+02
 11
-1.01976644E+02
 21
1.20312313E+02
  0
LINE
  8
0
 62
7
 10
-1.10676644E+02
 20
1.20843036E+02
 11
-1.09376644E+02
 21
1.20312313E+02
  0
LINE
  8
0
 62
7
 10
-1.09376644E+02
 20
1.20312313E+02
 11
-1.09376644E+02
 21
1.19250867E+02
  0
LINE
  8
0
 62
7
 10
-1.10676644E+02
 20
1.18720145E+02
 11
-1.09376644E+02
 21
1.19250867E+02
  0
LINE
  8
0
 62
7
 10
-1.10676644E+02
 20
1.18720145E+02
 11
-1.11976644E+02
 21
1.19250867E+02
  0
LINE
  8
0
 62
7
 10
-1.11976644E+02
 20
1.20312313E+02
 11
-1.11976644E+02
 21
1.19250867E+02
  0
LINE
  8
0
 62
7
 10
-1.10676644E+02
 20
1.20843036E+02
 11
-1.11976644E+02
 21
1.20312313E+02
  0
LINE
  8
0
  6
CENTER
 62
2
 10
-9.63868495E+01
 20
1.19781590E+02
 11
-1.15447775E+02
 21
1.19781590E+02
  0
POLYLINE
  8
0
 62
7
 66
1
  0
VERTEX
  8
0
 62
7
 10
-1.10676644E+02
 20
1.13417629E+02
  0
VERTEX
  8
0
 62
7
 10
-1.10415177E+02
 20
1.13433774E+02
  0
VERTEX
  8
0
 62
7
 10
-1.10155699E+02
 20
1.13482085E+02
  0
VERTEX
  8
0
 62
7
 10
-1.09900187E+02
 20
1.13562194E+02
  0
VERTEX
  8
0
 62
7
 10
-1.09650584E+02
 20
1.13673492E+02
  0
VERTEX
  8
0
 62
7
 10
-1.09408789E+02
 20
1.13815132E+02
  0
VERTEX
  8
0
 62
7
 10
-1.09176644E+02
 20
1.13986035E+02
  0
VERTEX
  8
0
 62
7
 10
-1.08955915E+02
 20
1.14184902E+02
  0
VERTEX
  8
0
 62
7
 10
-1.08748281E+02
 20
1.14410219E+02
  0
VERTEX
  8
0
 62
7
 10
-1.08555324E+02
 20
1.14660270E+02
  0
VERTEX
  8
0
 62
7
 10
-1.08378511E+02
 20
1.14933153E+02
  0
VERTEX
  8
0
 62
7
 10
-1.08219188E+02
 20
1.15226791E+02
  0
VERTEX
  8
0
 62
7
 10
-1.08078568E+02
 20
1.15538950E+02
  0
VERTEX
  8
0
 62
7
 10
-1.07957721E+02
 20
1.15867253E+02
  0
VERTEX
  8
0
 62
7
 10
-1.07857566E+02
 20
1.16209201E+02
  0
VERTEX
  8
0
 62
7
 10
-1.07778867E+02
 20
1.16562194E+02
  0
VERTEX
  8
0
 62
7
 10
-1.07722221E+02
 20
1.16923543E+02
  0
VERTEX
  8
0
 62
7
 10
-1.07688060E+02
 20
1.17290500E+02
  0
VERTEX
  8
0
 62
7
 10
-1.07676644E+02
 20
1.17660270E+02
  0
VERTEX
  8
0
 62
7
 10
-1.07688060E+02
 20
1.18030041E+02
  0
VERTEX
  8
0
 62
7
 10
-1.07722221E+02
 20
1.18396997E+02
  0
VERTEX
  8
0
 62
7
 10
-1.07778867E+02
 20
1.18758346E+02
  0
VERTEX
  8
0
 62
7
 10
-1.07857566E+02
 20
1.19111339E+02
  0
VERTEX
  8
0
 62
7
 10
-1.07957721E+02
 20
1.19453287E+02
  0
VERTEX
  8
0
 62
7
 10
-1.08078568E+02
 20
1.19781590E+02
  0
VERTEX
  8
0
 62
7
 10
-1.08219188E+02
 20
1.20093749E+02
  0
VERTEX
  8
0
 62
7
 10
-1.08378511E+02
 20
1.20387387E+02
  0
VERTEX
  8
0
 62
7
 10
-1.08555324E+02
 20
1.20660270E+02
  0
VERTEX
  8
0
 62
7
 10
-1.08748281E+02
 20
1.20910321E+02
  0
VERTEX
  8
0
 62
7
 10
-1.08955915E+02
 20
1.21135638E+02
  0
VERTEX
  8
0
 62
7
 10
-1.09176644E+02
 20
1.21334505E+02
  0
VERTEX
  8
0
 62
7
 10
-1.09408789E+02
 20
1.21505408E+02
  0
VERTEX
  8
0
 62
7
 10
-1.09650584E+02
 20
1.21647048E+02
  0
VERTEX
  8
0
 62
7
 10
-1.09900187E+02
 20
1.21758346E+02
  0
VERTEX
  8
0
 62
7
 10
-1.10155699E+02
 20
1.21838455E+02
  0
VERTEX
  8
0
 62
7
 10
-1.10415177E+02
 20
1.21886766E+02
  0
VERTEX
  8
0
 62
7
 10
-1.10676644E+02
 20
1.21902911E+02
  0
VERTEX
  8
0
 62
7
 10
-1.10938111E+02
 20
1.21886766E+02
  0
VERTEX
  8
0
 62
7
 10
-1.11197589E+02
 20
1.21838455E+02
  0
VERTEX
  8
0
 62
7
 10
-1.11453101E+02
 20
1.21758346E+02
  0
VERTEX
  8
0
 62
7
 10
-1.11702704E+02
 20
1.21647048E+02
  0
VERTEX
  8
0
 62
7
 10
-1.11944499E+02
 20
1.21505408E+02
  0
VERTEX
  8
0
 62
7
 10
-1.12176644E+02
 20
1.21334505E+02
  0
VERTEX
  8
0
 62
7
 10
-1.12397373E+02
 20
1.21135638E+02
  0
VERTEX
  8
0
 62
7
 10
-1.12605007E+02
 20
1.20910321E+02
  0
VERTEX
  8
0
 62
7
 10
-1.12797964E+02
 20
1.20660270E+02
  0
VERTEX
  8
0
 62
7
 10
-1.12974777E+02
 20
1.20387387E+02
  0
VERTEX
  8
0
 62
7
 10
-1.13134100E+02
 20
1.20093749E+02
  0
VERTEX
  8
0
 62
7
 10
-1.13274720E+02
 20
1.19781590E+02
  0
VERTEX
  8
0
 62
7
 10
-1.13395567E+02
 20
1.19453287E+02
  0
VERTEX
  8
0
 62
7
 10
-1.13495722E+02
 20
1.19111339E+02
  0
VERTEX
  8
0
 62
7
 10
-1.13574421E+02
 20
1.18758346E+02
  0
VERTEX
  8
0
 62
7
 10
-1.13631067E+02
 20
1.18396997E+02
  0
VERTEX
  8
0
 62
7
 10
-1.13665228E+02
 20
1.18030040E+02
  0
VERTEX
  8
0
 62
7
 10
-1.13676644E+02
 20
1.17660270E+02
  0
VERTEX
  8
0
 62
7
 10
-1.13665228E+02
 20
1.17290499E+02
  0
VERTEX
  8
0
 62
7
 10
-1.13631067E+02
 20
1.16923543E+02
  0
VERTEX
  8
0
 62
7
 10
-1.13574421E+02
 20
1.16562194E+02
  0
VERTEX
  8
0
 62
7
 10
-1.13495722E+02
 20
1.16209201E+02
  0
VERTEX
  8
0
 62
7
 10
-1.13395567E+02
 20
1.15867253E+02
  0
VERTEX
  8
0
 62
7
 10
-1.13274720E+02
 20
1.15538950E+02
  0
VERTEX
  8
0
 62
7
 10
-1.13134100E+02
 20
1.15226791E+02
  0
VERTEX
  8
0
 62
7
 10
-1.12974777E+02
 20
1.14933153E+02
  0
VERTEX
  8
0
 62
7
 10
-1.12797964E+02
 20
1.14660270E+02
  0
VERTEX
  8
0
 62
7
 10
-1.12605007E+02
 20
1.14410219E+02
  0
VERTEX
  8
0
 62
7
 10
-1.12397373E+02
 20
1.14184902E+02
  0
VERTEX
  8
0
 62
7
 10
-1.12176644E+02
 20
1.13986035E+02
  0
VERTEX
  8
0
 62
7
 10
-1.11944499E+02
 20
1.13815132E+02
  0
VERTEX
  8
0
 62
7
 10
-1.11702704E+02
 20
1.13673492E+02
  0
VERTEX
  8
0
 62
7
 10
-1.11453101E+02
 20
1.13562194E+02
  0
VERTEX
  8
0
 62
7
 10
-1.11197589E+02
 20
1.13482085E+02
  0
VERTEX
  8
0
 62
7
 10
-1.10938111E+02
 20
1.13433774E+02
  0
VERTEX
  8
0
 62
7
 10
-1.10676644E+02
 20
1.13417629E+02
  0
SEQEND
  8
0
  0
POLYLINE
  8
0
 62
7
 66
1
  0
VERTEX
  8
0
 62
7
 10
-1.00676644E+02
 20
1.13417629E+02
  0
VERTEX
  8
0
 62
7
 10
-1.00415177E+02
 20
1.13433774E+02
  0
VERTEX
  8
0
 62
7
 10
-1.00155699E+02
 20
1.13482085E+02
  0
VERTEX
  8
0
 62
7
 10
-9.99001869E+01
 20
1.13562194E+02
  0
VERTEX
  8
0
 62
7
 10
-9.96505836E+01
 20
1.13673492E+02
  0
VERTEX
  8
0
 62
7
 10
-9.94087892E+01
 20
1.13815132E+02
  0
VERTEX
  8
0
 62
7
 10
-9.91766440E+01
 20
1.13986035E+02
  0
VERTEX
  8
0
 62
7
 10
-9.89559147E+01
 20
1.14184902E+02
  0
VERTEX
  8
0
 62
7
 10
-9.87482812E+01
 20
1.14410219E+02
  0
VERTEX
  8
0
 62
7
 10
-9.85553237E+01
 20
1.14660270E+02
  0
VERTEX
  8
0
 62
7
 10
-9.83785107E+01
 20
1.14933153E+02
  0
VERTEX
  8
0
 62
7
 10
-9.82191879E+01
 20
1.15226791E+02
  0
VERTEX
  8
0
 62
7
 10
-9.80785678E+01
 20
1.15538950E+02
  0
VERTEX
  8
0
 62
7
 10
-9.79577206E+01
 20
1.15867253E+02
  0
VERTEX
  8
0
 62
7
 10
-9.78575661E+01
 20
1.16209201E+02
  0
VERTEX
  8
0
 62
7
 10
-9.77788665E+01
 20
1.16562194E+02
  0
VERTEX
  8
0
 62
7
 10
-9.77222207E+01
 20
1.16923543E+02
  0
VERTEX
  8
0
 62
7
 10
-9.76880599E+01
 20
1.17290500E+02
  0
VERTEX
  8
0
 62
7
 10
-9.76766440E+01
 20
1.17660270E+02
  0
VERTEX
  8
0
 62
7
 10
-9.76880599E+01
 20
1.18030041E+02
  0
VERTEX
  8
0
 62
7
 10
-9.77222207E+01
 20
1.18396997E+02
  0
VERTEX
  8
0
 62
7
 10
-9.77788665E+01
 20
1.18758346E+02
  0
VERTEX
  8
0
 62
7
 10
-9.78575661E+01
 20
1.19111339E+02
  0
VERTEX
  8
0
 62
7
 10
-9.79577206E+01
 20
1.19453287E+02
  0
VERTEX
  8
0
 62
7
 10
-9.80785678E+01
 20
1.19781590E+02
  0
VERTEX
  8
0
 62
7
 10
-9.82191879E+01
 20
1.20093749E+02
  0
VERTEX
  8
0
 62
7
 10
-9.83785107E+01
 20
1.20387387E+02
  0
VERTEX
  8
0
 62
7
 10
-9.85553237E+01
 20
1.20660270E+02
  0
VERTEX
  8
0
 62
7
 10
-9.87482812E+01
 20
1.20910321E+02
  0
VERTEX
  8
0
 62
7
 10
-9.89559147E+01
 20
1.21135638E+02
  0
VERTEX
  8
0
 62
7
 10
-9.91766440E+01
 20
1.21334505E+02
  0
VERTEX
  8
0
 62
7
 10
-9.94087892E+01
 20
1.21505408E+02
  0
VERTEX
  8
0
 62
7
 10
-9.96505836E+01
 20
1.21647048E+02
  0
VERTEX
  8
0
 62
7
 10
-9.99001869E+01
 20
1.21758346E+02
  0
VERTEX
  8
0
 62
7
 10
-1.00155699E+02
 20
1.21838455E+02
  0
VERTEX
  8
0
 62
7
 10
-1.00415177E+02
 20
1.21886766E+02
  0
VERTEX
  8
0
 62
7
 10
-1.00676644E+02
 20
1.21902911E+02
  0
VERTEX
  8
0
 62
7
 10
-1.00938111E+02
 20
1.21886766E+02
  0
VERTEX
  8
0
 62
7
 10
-1.01197589E+02
 20
1.21838455E+02
  0
VERTEX
  8
0
 62
7
 10
-1.01453101E+02
 20
1.21758346E+02
  0
VERTEX
  8
0
 62
7
 10
-1.01702704E+02
 20
1.21647048E+02
  0
VERTEX
  8
0
 62
7
 10
-1.01944499E+02
 20
1.21505408E+02
  0
VERTEX
  8
0
 62
7
 10
-1.02176644E+02
 20
1.21334505E+02
  0
VERTEX
  8
0
 62
7
 10
-1.02397373E+02
 20
1.21135638E+02
  0
VERTEX
  8
0
 62
7
 10
-1.02605007E+02
 20
1.20910321E+02
  0
VERTEX
  8
0
 62
7
 10
-1.02797964E+02
 20
1.20660270E+02
  0
VERTEX
  8
0
 62
7
 10
-1.02974777E+02
 20
1.20387387E+02
  0
VERTEX
  8
0
 62
7
 10
-1.03134100E+02
 20
1.20093749E+02
  0
VERTEX
  8
0
 62
7
 10
-1.03274720E+02
 20
1.19781590E+02
  0
VERTEX
  8
0
 62
7
 10
-1.03395567E+02
 20
1.19453287E+02
  0
VERTEX
  8
0
 62
7
 10
-1.03495722E+02
 20
1.19111339E+02
  0
VERTEX
  8
0
 62
7
 10
-1.03574421E+02
 20
1.18758346E+02
  0
VERTEX
  8
0
 62
7
 10
-1.03631067E+02
 20
1.18396997E+02
  0
VERTEX
  8
0
 62
7
 10
-1.03665228E+02
 20
1.18030040E+02
  0
VERTEX
  8
0
 62
7
 10
-1.03676644E+02
 20
1.17660270E+02
  0
VERTEX
  8
0
 62
7
 10
-1.03665228E+02
 20
1.17290499E+02
  0
VERTEX
  8
0
 62
7
 10
-1.03631067E+02
 20
1.16923543E+02
  0
VERTEX
  8
0
 62
7
 10
-1.03574421E+02
 20
1.16562194E+02
  0
VERTEX
  8
0
 62
7
 10
-1.03495722E+02
 20
1.16209201E+02
  0
VERTEX
  8
0
 62
7
 10
-1.03395567E+02
 20
1.15867253E+02
  0
VERTEX
  8
0
 62
7
 10
-1.03274720E+02
 20
1.15538950E+02
  0
VERTEX
  8
0
 62
7
 10
-1.03134100E+02
 20
1.15226791E+02
  0
VERTEX
  8
0
 62
7
 10
-1.02974777E+02
 20
1.14933153E+02
  0
VERTEX
  8
0
 62
7
 10
-1.02797964E+02
 20
1.14660270E+02
  0
VERTEX
  8
0
 62
7
 10
-1.02605007E+02
 20
1.14410219E+02
  0
VERTEX
  8
0
 62
7
 10
-1.02397373E+02
 20
1.14184902E+02
  0
VERTEX
  8
0
 62
7
 10
-1.02176644E+02
 20
1.13986035E+02
  0
VERTEX
  8
0
 62
7
 10
-1.01944499E+02
 20
1.13815132E+02
  0
VERTEX
  8
0
 62
7
 10
-1.01702704E+02
 20
1.13673492E+02
  0
VERTEX
  8
0
 62
7
 10
-1.01453101E+02
 20
1.13562194E+02
  0
VERTEX
  8
0
 62
7
 10
-1.01197589E+02
 20
1.13482085E+02
  0
VERTEX
  8
0
 62
7
 10
-1.00938111E+02
 20
1.13433774E+02
  0
VERTEX
  8
0
 62
7
 10
-1.00676644E+02
 20
1.13417629E+02
  0
SEQEND
  8
0
  0
LINE
  8
0
  6
CENTER
 62
2
 10
-1.00676644E+02
 20
1.23579230E+02
 11
-1.00676644E+02
 21
1.12118639E+02
  0
LINE
  8
0
  6
CENTER
 62
2
 10
-1.10676644E+02
 20
1.23579230E+02
 11
-1.10676644E+02
 21
1.12118639E+02
  0
LINE
  8
0
 62
7
 10
-8.96766444E+01
 20
1.33291998E+02
 11
-1.84676644E+02
 21
1.33291998E+02
  0
LINE
  8
0
 62
7
 10
-1.63676644E+02
 20
1.06791998E+02
 11
-8.36866444E+01
 21
1.06791998E+02
  0
LINE
  8
0
 62
7
 10
-1.63676644E+02
 20
1.33791998E+02
 11
-8.36866444E+01
 21
1.33791998E+02
  0
LINE
  8
0
 62
7
 10
-8.36866444E+01
 20
1.22610017E+02
 11
-8.86866444E+01
 21
1.22610017E+02
  0
LINE
  8
0
 62
7
 10
-8.86866444E+01
 20
1.29681085E+02
 11
-8.96766444E+01
 21
1.29681085E+02
  0
LINE
  8
0
 62
7
 10
-8.86866444E+01
 20
1.25791998E+02
 11
-8.96766444E+01
 21
1.25791998E+02
  0
LINE
  8
0
 62
7
 10
-8.86866444E+01
 20
1.19428037E+02
 11
-8.96766444E+01
 21
1.19428037E+02
  0
LINE
  8
0
 62
7
 10
-8.96766444E+01
 20
1.07291998E+02
 11
-1.84676644E+02
 21
1.07291998E+02
  0
LINE
  8
0
 62
7
 10
-1.63676644E+02
 20
1.07291998E+02
 11
-1.63676644E+02
 21
1.06791998E+02
  0
LINE
  8
0
 62
7
 10
-8.36866444E+01
 20
1.33791998E+02
 11
-8.36866444E+01
 21
1.06791998E+02
  0
LINE
  8
0
 62
7
 10
-1.63676644E+02
 20
1.33791998E+02
 11
-1.63676644E+02
 21
1.33291998E+02
  0
LINE
  8
0
  6
CENTER
 62
2
 10
-1.87969978E+02
 20
1.20291998E+02
 11
-7.93066444E+01
 21
1.20291998E+02
  0
LINE
  8
0
 62
7
 10
-8.96766444E+01
 20
1.07291998E+02
 11
-8.96766444E+01
 21
1.33291998E+02
  0
LINE
  8
0
  6
CENTER
 62
2
 10
-1.59676644E+02
 20
1.31074840E+02
 11
-1.59676644E+02
 21
1.09018188E+02
  0
LINE
  8
0
  6
CENTER
 62
2
 10
-1.44676644E+02
 20
1.31074840E+02
 11
-1.44676644E+02
 21
1.09018188E+02
  0
LINE
  8
0
  6
CENTER
 62
6
 10
-1.29676644E+02
 20
1.31074840E+02
 11
-1.29676644E+02
 21
1.09018188E+02
  0
CIRCLE
  8
0
 62
2
 10
-1.59676644E+02
 20
1.26291998E+02
 40
2.50000000E+00
  0
CIRCLE
  8
0
 62
2
 10
-1.44676644E+02
 20
1.26291998E+02
 40
2.50000000E+00
  0
CIRCLE
  8
0
 62
6
 10
-1.29676644E+02
 20
1.26291998E+02
 40
2.50000000E+00
  0
CIRCLE
  8
0
 62
4
 10
-1.29676644E+02
 20
1.26291998E+02
 40
2.10000000E+00
  0
CIRCLE
  8
0
 62
7
 10
-1.44676644E+02
 20
1.26291998E+02
 40
2.10000000E+00
  0
CIRCLE
  8
0
 62
7
 10
-1.59676644E+02
 20
1.26291998E+02
 40
2.10000000E+00
  0
LINE
  8
0
 62
7
 10
-1.84676644E+02
 20
1.07291998E+02
 11
-1.84676644E+02
 21
1.33291998E+02
  0
LINE
  8
0
  6
CENTER
 62
2
 10
-1.65208766E+02
 20
1.26291998E+02
 11
-1.25577943E+02
 21
1.26291998E+02
  0
LINE
  8
0
  6
CENTER
 62
2
 10
-1.65208766E+02
 20
1.14291998E+02
 11
-1.25577943E+02
 21
1.14291998E+02
  0
CIRCLE
  8
0
 62
2
 10
-1.59676644E+02
 20
1.14291998E+02
 40
2.50000000E+00
  0
CIRCLE
  8
0
 62
7
 10
-1.59676644E+02
 20
1.14291998E+02
 40
2.10000000E+00
  0
CIRCLE
  8
0
 62
2
 10
-1.44676644E+02
 20
1.14291998E+02
 40
2.50000000E+00
  0
CIRCLE
  8
0
 62
7
 10
-1.44676644E+02
 20
1.14291998E+02
 40
2.10000000E+00
  0
CIRCLE
  8
0
 62
6
 10
-1.29676644E+02
 20
1.14291998E+02
 40
2.50000000E+00
  0
CIRCLE
  8
0
 62
4
 10
-1.29676644E+02
 20
1.14291998E+02
 40
2.10000000E+00
  0
LINE
  8
0
 62
7
 10
-1.74676644E+02
 20
1.07291998E+02
 11
-1.74676644E+02
 21
1.33291998E+02
  0
LINE
  8
0
 62
7
 10
-8.36866444E+01
 20
1.31074840E+02
 11
-8.96766444E+01
 21
1.31074840E+02
  0
LINE
  8
0
 62
7
 10
-8.36866444E+01
 20
1.23155245E+02
 11
-8.86866444E+01
 21
1.23155245E+02
  0
LINE
  8
0
 62
7
 10
-8.36866444E+01
 20
1.17791998E+02
 11
-8.96766444E+01
 21
1.17791998E+02
  0
LINE
  8
0
  6
PHANTOM
 10
-1.17926644E+02
 20
1.50679935E+02
 11
-1.17926644E+02
 21
8.70319978E+01
  0
LINE
  8
0
 62
7
 10
-8.20766444E+01
 20
-4.36080022E+01
 11
-8.20766444E+01
 21
-4.78080022E+01
  0
LINE
  8
0
 62
7
 10
-8.23166444E+01
 20
-4.82080022E+01
 11
-8.20766444E+01
 21
-4.78080022E+01
  0
LINE
  8
0
 62
7
 10
-8.23166444E+01
 20
-4.32080022E+01
 11
-8.20766444E+01
 21
-4.36080022E+01
  0
ARC
  8
0
 62
7
 10
-8.55756135E+01
 20
-4.44580022E+01
 40
3.49046985E+00
 50
3.39015341E+02
 51
2.09846594E+01
  0
ARC
  8
0
 62
7
 10
-8.55756135E+01
 20
-4.69580022E+01
 40
3.49046985E+00
 50
3.39015341E+02
 51
2.09846594E+01
  0
LINE
  8
0
 62
7
 10
-8.36866444E+01
 20
-4.57080022E+01
 11
-8.23166444E+01
 21
-4.57080022E+01
  0
LINE
  8
0
 62
7
 10
-8.36866444E+01
 20
-4.82080022E+01
 11
-8.23166444E+01
 21
-4.82080022E+01
  0
LINE
  8
0
 62
7
 10
-8.36866444E+01
 20
-4.32080022E+01
 11
-8.23166444E+01
 21
-4.32080022E+01
  0
LINE
  8
0
 62
7
 10
-1.84676644E+02
 20
-5.87080022E+01
 11
-1.63676644E+02
 21
-5.87080022E+01
  0
LINE
  8
0
 62
7
 10
-1.84676644E+02
 20
-3.27080022E+01
 11
-1.63676644E+02
 21
-3.27080022E+01
  0
LINE
  8
0
 62
7
 10
-1.63676644E+02
 20
-5.92080022E+01
 11
-8.36866444E+01
 21
-5.92080022E+01
  0
LINE
  8
0
 62
7
 10
-1.63676644E+02
 20
-3.22080022E+01
 11
-8.36866444E+01
 21
-3.22080022E+01
  0
LINE
  8
0
  6
CENTER
 62
2
 10
-1.45041944E+02
 20
-3.97076653E+01
 11
-1.36750375E+02
 21
-3.97076653E+01
  0
LINE
  8
0
  6
CENTER
 62
2
 10
-9.46547161E+01
 20
-3.82076806E+01
 11
-1.02414774E+02
 21
-3.82076806E+01
  0
CIRCLE
  8
0
 62
7
 10
-9.86771455E+01
 20
-3.82076806E+01
 40
2.09999943E+00
  0
CIRCLE
  8
0
 62
7
 10
-1.47677146E+02
 20
-5.32076806E+01
 40
2.09999943E+00
  0
CIRCLE
  8
0
 62
2
 10
-1.47677146E+02
 20
-5.32076806E+01
 40
2.50000000E+00
  0
CIRCLE
  8
0
 62
2
 10
-9.86771455E+01
 20
-3.82076806E+01
 40
2.50000000E+00
  0
CIRCLE
  8
0
 62
7
 10
-9.21771455E+01
 20
-5.17076806E+01
 40
6.00000024E-01
  0
CIRCLE
  8
0
 62
7
 10
-1.40677154E+02
 20
-3.97076653E+01
 40
6.00000024E-01
  0
CIRCLE
  8
0
 62
2
 10
-1.40677154E+02
 20
-3.97076653E+01
 40
2.50000000E+00
  0
CIRCLE
  8
0
 62
7
 10
-1.40677154E+02
 20
-3.97076653E+01
 40
2.09999943E+00
  0
CIRCLE
  8
0
 62
7
 10
-9.21771455E+01
 20
-5.17076806E+01
 40
2.09999943E+00
  0
CIRCLE
  8
0
 62
2
 10
-9.21771455E+01
 20
-5.17076806E+01
 40
2.50000000E+00
  0
LINE
  8
0
  6
CENTER
 62
2
 10
-1.51207470E+02
 20
-5.32080022E+01
 11
-1.43341109E+02
 21
-5.32080022E+01
  0
LINE
  8
0
  6
CENTER
 62
2
 10
-9.86866444E+01
 20
-3.42280022E+01
 11
-9.86866444E+01
 21
-4.21254942E+01
  0
LINE
  8
0
  6
CENTER
 62
2
 10
-1.47686644E+02
 20
-4.94880022E+01
 11
-1.47686644E+02
 21
-5.73267043E+01
  0
LINE
  8
0
  6
CENTER
 62
2
 10
-9.21866444E+01
 20
-4.82781253E+01
 11
-9.21866444E+01
 21
-5.55880022E+01
  0
LINE
  8
0
  6
CENTER
 62
2
 10
-1.40686644E+02
 20
-3.55347598E+01
 11
-1.40686644E+02
 21
-4.35280022E+01
  0
LINE
  8
0
  6
CENTER
 62
2
 10
-9.56766444E+01
 20
-5.17080022E+01
 11
-8.88589266E+01
 21
-5.17080022E+01
  0
LINE
  8
0
 62
7
 10
-8.36866444E+01
 20
-3.22080022E+01
 11
-8.36866444E+01
 21
-5.92080022E+01
  0
LINE
  8
0
 62
7
 10
-1.63676644E+02
 20
-3.22080022E+01
 11
-1.63676644E+02
 21
-5.92080022E+01
  0
LINE
  8
0
  6
CENTER
 62
2
 10
-1.88172575E+02
 20
-4.57080022E+01
 11
-8.05866444E+01
 21
-4.57080022E+01
  0
LINE
  8
0
 62
7
 10
-1.74676644E+02
 20
-3.67080022E+01
 11
-1.72676644E+02
 21
-3.67080022E+01
  0
LINE
  8
0
 62
7
 10
-1.74676644E+02
 20
-5.47080022E+01
 11
-1.72676644E+02
 21
-5.47080022E+01
  0
LINE
  8
0
 62
7
 10
-1.68676644E+02
 20
-4.07080022E+01
 11
-1.63676644E+02
 21
-4.07080022E+01
  0
LINE
  8
0
 62
7
 10
-1.68676644E+02
 20
-5.07080022E+01
 11
-1.63676644E+02
 21
-5.07080022E+01
  0
LINE
  8
0
 62
7
 10
-1.69676644E+02
 20
-4.97080022E+01
 11
-1.68676644E+02
 21
-5.07080022E+01
  0
LINE
  8
0
 62
7
 10
-1.69676644E+02
 20
-4.17080022E+01
 11
-1.68676644E+02
 21
-4.07080022E+01
  0
LINE
  8
0
 62
7
 10
-1.72676644E+02
 20
-4.97080022E+01
 11
-1.69676644E+02
 21
-4.97080022E+01
  0
LINE
  8
0
 62
7
 10
-1.72676644E+02
 20
-4.17080022E+01
 11
-1.69676644E+02
 21
-4.17080022E+01
  0
LINE
  8
0
 62
7
 10
-1.72676644E+02
 20
-3.67080022E+01
 11
-1.72676644E+02
 21
-5.47080022E+01
  0
LINE
  8
0
 62
7
 10
-1.74676644E+02
 20
-3.27080022E+01
 11
-1.74676644E+02
 21
-5.87080022E+01
  0
LINE
  8
0
 62
7
 10
-1.84676644E+02
 20
-3.27080022E+01
 11
-1.84676644E+02
 21
-5.87080022E+01
  0
LINE
  8
0
  6
PHANTOM
 10
-1.17926644E+02
 20
-1.59580022E+01
 11
-1.17926644E+02
 21
-7.02641085E+01
  0
LINE
  8
0
 62
7
 10
1.98814701E+02
 20
5.53477842E+01
 11
1.92824701E+02
 21
5.53477842E+01
  0
LINE
  8
0
 62
7
 10
1.92824701E+02
 20
4.17677373E+01
 11
1.07824701E+02
 21
4.17677373E+01
  0
LINE
  8
0
 62
7
 10
1.92824701E+02
 20
6.72677373E+01
 11
1.07824701E+02
 21
6.72677373E+01
  0
LINE
  8
0
 62
7
 10
1.98814701E+02
 20
4.07619978E+01
 11
1.18824701E+02
 21
4.07619978E+01
  0
LINE
  8
0
 62
7
 10
1.71824701E+02
 20
5.34726301E+01
 11
1.70524701E+02
 21
5.40033529E+01
  0
LINE
  8
0
 62
7
 10
1.70524701E+02
 20
5.40033529E+01
 11
1.70524701E+02
 21
5.50647985E+01
  0
LINE
  8
0
 62
7
 10
1.71824701E+02
 20
5.55955213E+01
 11
1.70524701E+02
 21
5.50647985E+01
  0
LINE
  8
0
 62
7
 10
1.71824701E+02
 20
5.55955213E+01
 11
1.73124701E+02
 21
5.50647985E+01
  0
LINE
  8
0
 62
7
 10
1.73124701E+02
 20
5.40033529E+01
 11
1.73124701E+02
 21
5.50647985E+01
  0
LINE
  8
0
 62
7
 10
1.71824701E+02
 20
5.34726301E+01
 11
1.73124701E+02
 21
5.40033529E+01
  0
LINE
  8
0
 62
7
 10
1.81824701E+02
 20
5.34726301E+01
 11
1.80524701E+02
 21
5.40033529E+01
  0
LINE
  8
0
 62
7
 10
1.80524701E+02
 20
5.40033529E+01
 11
1.80524701E+02
 21
5.50647985E+01
  0
LINE
  8
0
 62
7
 10
1.81824701E+02
 20
5.55955213E+01
 11
1.80524701E+02
 21
5.50647985E+01
  0
LINE
  8
0
 62
7
 10
1.81824701E+02
 20
5.34726301E+01
 11
1.83124701E+02
 21
5.40033529E+01
  0
LINE
  8
0
 62
7
 10
1.81824701E+02
 20
5.55955213E+01
 11
1.83124701E+02
 21
5.50647985E+01
  0
LINE
  8
0
 62
7
 10
1.83124701E+02
 20
5.40033529E+01
 11
1.83124701E+02
 21
5.50647985E+01
  0
POLYLINE
  8
0
 62
7
 66
1
  0
VERTEX
  8
0
 62
7
 10
1.70562792E+02
 20
5.28063482E+01
  0
VERTEX
  8
0
 62
7
 10
1.70801136E+02
 20
5.27292467E+01
  0
VERTEX
  8
0
 62
7
 10
1.71048779E+02
 20
5.26685402E+01
  0
VERTEX
  8
0
 62
7
 10
1.71303471E+02
 20
5.26247802E+01
  0
VERTEX
  8
0
 62
7
 10
1.71562897E+02
 20
5.25983641E+01
  0
VERTEX
  8
0
 62
7
 10
1.71824701E+02
 20
5.25895321E+01
  0
VERTEX
  8
0
 62
7
 10
1.72086505E+02
 20
5.25983641E+01
  0
VERTEX
  8
0
 62
7
 10
1.72345931E+02
 20
5.26247802E+01
  0
VERTEX
  8
0
 62
7
 10
1.72600623E+02
 20
5.26685402E+01
  0
VERTEX
  8
0
 62
7
 10
1.72848266E+02
 20
5.27292467E+01
  0
VERTEX
  8
0
 62
7
 10
1.73086610E+02
 20
5.28063482E+01
  0
SEQEND
  8
0
  0
POLYLINE
  8
0
 62
7
 66
1
  0
VERTEX
  8
0
 62
7
 10
1.80562792E+02
 20
5.28063482E+01
  0
VERTEX
  8
0
 62
7
 10
1.80801136E+02
 20
5.27292467E+01
  0
VERTEX
  8
0
 62
7
 10
1.81048779E+02
 20
5.26685402E+01
  0
VERTEX
  8
0
 62
7
 10
1.81303471E+02
 20
5.26247802E+01
  0
VERTEX
  8
0
 62
7
 10
1.81562897E+02
 20
5.25983641E+01
  0
VERTEX
  8
0
 62
7
 10
1.81824701E+02
 20
5.25895321E+01
  0
VERTEX
  8
0
 62
7
 10
1.82086505E+02
 20
5.25983641E+01
  0
VERTEX
  8
0
 62
7
 10
1.82345931E+02
 20
5.26247802E+01
  0
VERTEX
  8
0
 62
7
 10
1.82600623E+02
 20
5.26685402E+01
  0
VERTEX
  8
0
 62
7
 10
1.82848266E+02
 20
5.27292467E+01
  0
VERTEX
  8
0
 62
7
 10
1.83086610E+02
 20
5.28063482E+01
  0
SEQEND
  8
0
  0
POLYLINE
  8
0
 62
7
 66
1
  0
VERTEX
  8
0
 62
7
 10
1.84538723E+02
 20
5.48475896E+01
  0
VERTEX
  8
0
 62
7
 10
1.84489218E+02
 20
5.50151412E+01
  0
VERTEX
  8
0
 62
7
 10
1.84419067E+02
 20
5.51789653E+01
  0
VERTEX
  8
0
 62
7
 10
1.84328813E+02
 20
5.53377925E+01
  0
VERTEX
  8
0
 62
7
 10
1.84219157E+02
 20
5.54903921E+01
  0
VERTEX
  8
0
 62
7
 10
1.84090947E+02
 20
5.56355817E+01
  0
VERTEX
  8
0
 62
7
 10
1.83945177E+02
 20
5.57722363E+01
  0
VERTEX
  8
0
 62
7
 10
1.83782976E+02
 20
5.58992970E+01
  0
VERTEX
  8
0
 62
7
 10
1.83605602E+02
 20
5.60157794E+01
  0
VERTEX
  8
0
 62
7
 10
1.83414429E+02
 20
5.61207808E+01
  0
VERTEX
  8
0
 62
7
 10
1.83210937E+02
 20
5.62134876E+01
  0
VERTEX
  8
0
 62
7
 10
1.82996705E+02
 20
5.62931816E+01
  0
VERTEX
  8
0
 62
7
 10
1.82773391E+02
 20
5.63592452E+01
  0
VERTEX
  8
0
 62
7
 10
1.82542726E+02
 20
5.64111665E+01
  0
VERTEX
  8
0
 62
7
 10
1.82306498E+02
 20
5.64485432E+01
  0
VERTEX
  8
0
 62
7
 10
1.82066536E+02
 20
5.64710857E+01
  0
VERTEX
  8
0
 62
7
 10
1.81824701E+02
 20
5.64786194E+01
  0
VERTEX
  8
0
 62
7
 10
1.81582866E+02
 20
5.64710857E+01
  0
VERTEX
  8
0
 62
7
 10
1.81342904E+02
 20
5.64485432E+01
  0
VERTEX
  8
0
 62
7
 10
1.81106676E+02
 20
5.64111665E+01
  0
VERTEX
  8
0
 62
7
 10
1.80876011E+02
 20
5.63592452E+01
  0
VERTEX
  8
0
 62
7
 10
1.80652697E+02
 20
5.62931816E+01
  0
VERTEX
  8
0
 62
7
 10
1.80438465E+02
 20
5.62134877E+01
  0
VERTEX
  8
0
 62
7
 10
1.80234973E+02
 20
5.61207808E+01
  0
VERTEX
  8
0
 62
7
 10
1.80043800E+02
 20
5.60157794E+01
  0
VERTEX
  8
0
 62
7
 10
1.79866426E+02
 20
5.58992970E+01
  0
VERTEX
  8
0
 62
7
 10
1.79704225E+02
 20
5.57722363E+01
  0
VERTEX
  8
0
 62
7
 10
1.79558455E+02
 20
5.56355817E+01
  0
VERTEX
  8
0
 62
7
 10
1.79430245E+02
 20
5.54903921E+01
  0
VERTEX
  8
0
 62
7
 10
1.79320589E+02
 20
5.53377925E+01
  0
VERTEX
  8
0
 62
7
 10
1.79230335E+02
 20
5.51789653E+01
  0
VERTEX
  8
0
 62
7
 10
1.79160184E+02
 20
5.50151413E+01
  0
VERTEX
  8
0
 62
7
 10
1.79110679E+02
 20
5.48475897E+01
  0
SEQEND
  8
0
  0
POLYLINE
  8
0
 62
7
 66
1
  0
VERTEX
  8
0
 62
7
 10
1.74538723E+02
 20
5.48475896E+01
  0
VERTEX
  8
0
 62
7
 10
1.74489218E+02
 20
5.50151412E+01
  0
VERTEX
  8
0
 62
7
 10
1.74419067E+02
 20
5.51789653E+01
  0
VERTEX
  8
0
 62
7
 10
1.74328813E+02
 20
5.53377925E+01
  0
VERTEX
  8
0
 62
7
 10
1.74219157E+02
 20
5.54903921E+01
  0
VERTEX
  8
0
 62
7
 10
1.74090947E+02
 20
5.56355817E+01
  0
VERTEX
  8
0
 62
7
 10
1.73945177E+02
 20
5.57722363E+01
  0
VERTEX
  8
0
 62
7
 10
1.73782976E+02
 20
5.58992970E+01
  0
VERTEX
  8
0
 62
7
 10
1.73605602E+02
 20
5.60157794E+01
  0
VERTEX
  8
0
 62
7
 10
1.73414429E+02
 20
5.61207808E+01
  0
VERTEX
  8
0
 62
7
 10
1.73210937E+02
 20
5.62134876E+01
  0
VERTEX
  8
0
 62
7
 10
1.72996705E+02
 20
5.62931816E+01
  0
VERTEX
  8
0
 62
7
 10
1.72773391E+02
 20
5.63592452E+01
  0
VERTEX
  8
0
 62
7
 10
1.72542726E+02
 20
5.64111665E+01
  0
VERTEX
  8
0
 62
7
 10
1.72306498E+02
 20
5.64485432E+01
  0
VERTEX
  8
0
 62
7
 10
1.72066536E+02
 20
5.64710857E+01
  0
VERTEX
  8
0
 62
7
 10
1.71824701E+02
 20
5.64786194E+01
  0
VERTEX
  8
0
 62
7
 10
1.71582866E+02
 20
5.64710857E+01
  0
VERTEX
  8
0
 62
7
 10
1.71342904E+02
 20
5.64485432E+01
  0
VERTEX
  8
0
 62
7
 10
1.71106676E+02
 20
5.64111665E+01
  0
VERTEX
  8
0
 62
7
 10
1.70876011E+02
 20
5.63592452E+01
  0
VERTEX
  8
0
 62
7
 10
1.70652697E+02
 20
5.62931816E+01
  0
VERTEX
  8
0
 62
7
 10
1.70438465E+02
 20
5.62134877E+01
  0
VERTEX
  8
0
 62
7
 10
1.70234973E+02
 20
5.61207808E+01
  0
VERTEX
  8
0
 62
7
 10
1.70043800E+02
 20
5.60157794E+01
  0
VERTEX
  8
0
 62
7
 10
1.69866426E+02
 20
5.58992970E+01
  0
VERTEX
  8
0
 62
7
 10
1.69704225E+02
 20
5.57722363E+01
  0
VERTEX
  8
0
 62
7
 10
1.69558455E+02
 20
5.56355817E+01
  0
VERTEX
  8
0
 62
7
 10
1.69430245E+02
 20
5.54903921E+01
  0
VERTEX
  8
0
 62
7
 10
1.69320589E+02
 20
5.53377925E+01
  0
VERTEX
  8
0
 62
7
 10
1.69230335E+02
 20
5.51789653E+01
  0
VERTEX
  8
0
 62
7
 10
1.69160184E+02
 20
5.50151413E+01
  0
VERTEX
  8
0
 62
7
 10
1.69110679E+02
 20
5.48475897E+01
  0
SEQEND
  8
0
  0
LINE
  8
0
  6
CENTER
 62
2
 10
1.85878888E+02
 20
5.45340757E+01
 11
1.67559381E+02
 21
5.45340757E+01
  0
POLYLINE
  8
0
 62
7
 66
1
  0
VERTEX
  8
0
 62
7
 10
1.71824701E+02
 20
6.08980367E+01
  0
VERTEX
  8
0
 62
7
 10
1.71563234E+02
 20
6.08818922E+01
  0
VERTEX
  8
0
 62
7
 10
1.71303756E+02
 20
6.08335814E+01
  0
VERTEX
  8
0
 62
7
 10
1.71048244E+02
 20
6.07534722E+01
  0
VERTEX
  8
0
 62
7
 10
1.70798641E+02
 20
6.06421741E+01
  0
VERTEX
  8
0
 62
7
 10
1.70556846E+02
 20
6.05005343E+01
  0
VERTEX
  8
0
 62
7
 10
1.70324701E+02
 20
6.03296306E+01
  0
VERTEX
  8
0
 62
7
 10
1.70103972E+02
 20
6.01307638E+01
  0
VERTEX
  8
0
 62
7
 10
1.69896338E+02
 20
5.99054473E+01
  0
VERTEX
  8
0
 62
7
 10
1.69703381E+02
 20
5.96553960E+01
  0
VERTEX
  8
0
 62
7
 10
1.69526568E+02
 20
5.93825129E+01
  0
VERTEX
  8
0
 62
7
 10
1.69367245E+02
 20
5.90888747E+01
  0
VERTEX
  8
0
 62
7
 10
1.69226625E+02
 20
5.87767163E+01
  0
VERTEX
  8
0
 62
7
 10
1.69105778E+02
 20
5.84484134E+01
  0
VERTEX
  8
0
 62
7
 10
1.69005623E+02
 20
5.81064646E+01
  0
VERTEX
  8
0
 62
7
 10
1.68926924E+02
 20
5.77534722E+01
  0
VERTEX
  8
0
 62
7
 10
1.68870278E+02
 20
5.73921228E+01
  0
VERTEX
  8
0
 62
7
 10
1.68836117E+02
 20
5.70251665E+01
  0
VERTEX
  8
0
 62
7
 10
1.68824701E+02
 20
5.66553960E+01
  0
VERTEX
  8
0
 62
7
 10
1.68836117E+02
 20
5.62856255E+01
  0
VERTEX
  8
0
 62
7
 10
1.68870278E+02
 20
5.59186692E+01
  0
VERTEX
  8
0
 62
7
 10
1.68926924E+02
 20
5.55573198E+01
  0
VERTEX
  8
0
 62
7
 10
1.69005623E+02
 20
5.52043274E+01
  0
VERTEX
  8
0
 62
7
 10
1.69105778E+02
 20
5.48623786E+01
  0
VERTEX
  8
0
 62
7
 10
1.69226625E+02
 20
5.45340756E+01
  0
VERTEX
  8
0
 62
7
 10
1.69367245E+02
 20
5.42219173E+01
  0
VERTEX
  8
0
 62
7
 10
1.69526568E+02
 20
5.39282791E+01
  0
VERTEX
  8
0
 62
7
 10
1.69703381E+02
 20
5.36553960E+01
  0
VERTEX
  8
0
 62
7
 10
1.69896338E+02
 20
5.34053447E+01
  0
VERTEX
  8
0
 62
7
 10
1.70103972E+02
 20
5.31800282E+01
  0
VERTEX
  8
0
 62
7
 10
1.70324701E+02
 20
5.29811614E+01
  0
VERTEX
  8
0
 62
7
 10
1.70556846E+02
 20
5.28102577E+01
  0
VERTEX
  8
0
 62
7
 10
1.70798641E+02
 20
5.26686178E+01
  0
VERTEX
  8
0
 62
7
 10
1.71048244E+02
 20
5.25573198E+01
  0
VERTEX
  8
0
 62
7
 10
1.71303756E+02
 20
5.24772106E+01
  0
VERTEX
  8
0
 62
7
 10
1.71563234E+02
 20
5.24288998E+01
  0
VERTEX
  8
0
 62
7
 10
1.71824701E+02
 20
5.24127553E+01
  0
VERTEX
  8
0
 62
7
 10
1.72086168E+02
 20
5.24288998E+01
  0
VERTEX
  8
0
 62
7
 10
1.72345646E+02
 20
5.24772106E+01
  0
VERTEX
  8
0
 62
7
 10
1.72601158E+02
 20
5.25573198E+01
  0
VERTEX
  8
0
 62
7
 10
1.72850761E+02
 20
5.26686179E+01
  0
VERTEX
  8
0
 62
7
 10
1.73092556E+02
 20
5.28102577E+01
  0
VERTEX
  8
0
 62
7
 10
1.73324701E+02
 20
5.29811614E+01
  0
VERTEX
  8
0
 62
7
 10
1.73545430E+02
 20
5.31800282E+01
  0
VERTEX
  8
0
 62
7
 10
1.73753064E+02
 20
5.34053447E+01
  0
VERTEX
  8
0
 62
7
 10
1.73946021E+02
 20
5.36553960E+01
  0
VERTEX
  8
0
 62
7
 10
1.74122834E+02
 20
5.39282791E+01
  0
VERTEX
  8
0
 62
7
 10
1.74282157E+02
 20
5.42219173E+01
  0
VERTEX
  8
0
 62
7
 10
1.74422777E+02
 20
5.45340757E+01
  0
VERTEX
  8
0
 62
7
 10
1.74543624E+02
 20
5.48623786E+01
  0
VERTEX
  8
0
 62
7
 10
1.74643779E+02
 20
5.52043274E+01
  0
VERTEX
  8
0
 62
7
 10
1.74722478E+02
 20
5.55573198E+01
  0
VERTEX
  8
0
 62
7
 10
1.74779124E+02
 20
5.59186692E+01
  0
VERTEX
  8
0
 62
7
 10
1.74813285E+02
 20
5.62856255E+01
  0
VERTEX
  8
0
 62
7
 10
1.74824701E+02
 20
5.66553960E+01
  0
VERTEX
  8
0
 62
7
 10
1.74813285E+02
 20
5.70251665E+01
  0
VERTEX
  8
0
 62
7
 10
1.74779124E+02
 20
5.73921228E+01
  0
VERTEX
  8
0
 62
7
 10
1.74722478E+02
 20
5.77534722E+01
  0
VERTEX
  8
0
 62
7
 10
1.74643779E+02
 20
5.81064646E+01
  0
VERTEX
  8
0
 62
7
 10
1.74543624E+02
 20
5.84484135E+01
  0
VERTEX
  8
0
 62
7
 10
1.74422777E+02
 20
5.87767164E+01
  0
VERTEX
  8
0
 62
7
 10
1.74282157E+02
 20
5.90888747E+01
  0
VERTEX
  8
0
 62
7
 10
1.74122834E+02
 20
5.93825129E+01
  0
VERTEX
  8
0
 62
7
 10
1.73946021E+02
 20
5.96553960E+01
  0
VERTEX
  8
0
 62
7
 10
1.73753064E+02
 20
5.99054473E+01
  0
VERTEX
  8
0
 62
7
 10
1.73545430E+02
 20
6.01307638E+01
  0
VERTEX
  8
0
 62
7
 10
1.73324701E+02
 20
6.03296306E+01
  0
VERTEX
  8
0
 62
7
 10
1.73092556E+02
 20
6.05005343E+01
  0
VERTEX
  8
0
 62
7
 10
1.72850761E+02
 20
6.06421742E+01
  0
VERTEX
  8
0
 62
7
 10
1.72601158E+02
 20
6.07534722E+01
  0
VERTEX
  8
0
 62
7
 10
1.72345646E+02
 20
6.08335814E+01
  0
VERTEX
  8
0
 62
7
 10
1.72086168E+02
 20
6.08818922E+01
  0
VERTEX
  8
0
 62
7
 10
1.71824701E+02
 20
6.08980367E+01
  0
SEQEND
  8
0
  0
POLYLINE
  8
0
 62
7
 66
1
  0
VERTEX
  8
0
 62
7
 10
1.81824701E+02
 20
6.08980367E+01
  0
VERTEX
  8
0
 62
7
 10
1.81563234E+02
 20
6.08818922E+01
  0
VERTEX
  8
0
 62
7
 10
1.81303756E+02
 20
6.08335814E+01
  0
VERTEX
  8
0
 62
7
 10
1.81048244E+02
 20
6.07534722E+01
  0
VERTEX
  8
0
 62
7
 10
1.80798641E+02
 20
6.06421741E+01
  0
VERTEX
  8
0
 62
7
 10
1.80556846E+02
 20
6.05005343E+01
  0
VERTEX
  8
0
 62
7
 10
1.80324701E+02
 20
6.03296306E+01
  0
VERTEX
  8
0
 62
7
 10
1.80103972E+02
 20
6.01307638E+01
  0
VERTEX
  8
0
 62
7
 10
1.79896338E+02
 20
5.99054473E+01
  0
VERTEX
  8
0
 62
7
 10
1.79703381E+02
 20
5.96553960E+01
  0
VERTEX
  8
0
 62
7
 10
1.79526568E+02
 20
5.93825129E+01
  0
VERTEX
  8
0
 62
7
 10
1.79367245E+02
 20
5.90888747E+01
  0
VERTEX
  8
0
 62
7
 10
1.79226625E+02
 20
5.87767163E+01
  0
VERTEX
  8
0
 62
7
 10
1.79105778E+02
 20
5.84484134E+01
  0
VERTEX
  8
0
 62
7
 10
1.79005623E+02
 20
5.81064646E+01
  0
VERTEX
  8
0
 62
7
 10
1.78926924E+02
 20
5.77534722E+01
  0
VERTEX
  8
0
 62
7
 10
1.78870278E+02
 20
5.73921228E+01
  0
VERTEX
  8
0
 62
7
 10
1.78836117E+02
 20
5.70251665E+01
  0
VERTEX
  8
0
 62
7
 10
1.78824701E+02
 20
5.66553960E+01
  0
VERTEX
  8
0
 62
7
 10
1.78836117E+02
 20
5.62856255E+01
  0
VERTEX
  8
0
 62
7
 10
1.78870278E+02
 20
5.59186692E+01
  0
VERTEX
  8
0
 62
7
 10
1.78926924E+02
 20
5.55573198E+01
  0
VERTEX
  8
0
 62
7
 10
1.79005623E+02
 20
5.52043274E+01
  0
VERTEX
  8
0
 62
7
 10
1.79105778E+02
 20
5.48623786E+01
  0
VERTEX
  8
0
 62
7
 10
1.79226625E+02
 20
5.45340756E+01
  0
VERTEX
  8
0
 62
7
 10
1.79367245E+02
 20
5.42219173E+01
  0
VERTEX
  8
0
 62
7
 10
1.79526568E+02
 20
5.39282791E+01
  0
VERTEX
  8
0
 62
7
 10
1.79703381E+02
 20
5.36553960E+01
  0
VERTEX
  8
0
 62
7
 10
1.79896338E+02
 20
5.34053447E+01
  0
VERTEX
  8
0
 62
7
 10
1.80103972E+02
 20
5.31800282E+01
  0
VERTEX
  8
0
 62
7
 10
1.80324701E+02
 20
5.29811614E+01
  0
VERTEX
  8
0
 62
7
 10
1.80556846E+02
 20
5.28102577E+01
  0
VERTEX
  8
0
 62
7
 10
1.80798641E+02
 20
5.26686178E+01
  0
VERTEX
  8
0
 62
7
 10
1.81048244E+02
 20
5.25573198E+01
  0
VERTEX
  8
0
 62
7
 10
1.81303756E+02
 20
5.24772106E+01
  0
VERTEX
  8
0
 62
7
 10
1.81563234E+02
 20
5.24288998E+01
  0
VERTEX
  8
0
 62
7
 10
1.81824701E+02
 20
5.24127553E+01
  0
VERTEX
  8
0
 62
7
 10
1.82086168E+02
 20
5.24288998E+01
  0
VERTEX
  8
0
 62
7
 10
1.82345646E+02
 20
5.24772106E+01
  0
VERTEX
  8
0
 62
7
 10
1.82601158E+02
 20
5.25573198E+01
  0
VERTEX
  8
0
 62
7
 10
1.82850761E+02
 20
5.26686179E+01
  0
VERTEX
  8
0
 62
7
 10
1.83092556E+02
 20
5.28102577E+01
  0
VERTEX
  8
0
 62
7
 10
1.83324701E+02
 20
5.29811614E+01
  0
VERTEX
  8
0
 62
7
 10
1.83545430E+02
 20
5.31800282E+01
  0
VERTEX
  8
0
 62
7
 10
1.83753064E+02
 20
5.34053447E+01
  0
VERTEX
  8
0
 62
7
 10
1.83946021E+02
 20
5.36553960E+01
  0
VERTEX
  8
0
 62
7
 10
1.84122834E+02
 20
5.39282791E+01
  0
VERTEX
  8
0
 62
7
 10
1.84282157E+02
 20
5.42219173E+01
  0
VERTEX
  8
0
 62
7
 10
1.84422777E+02
 20
5.45340757E+01
  0
VERTEX
  8
0
 62
7
 10
1.84543624E+02
 20
5.48623786E+01
  0
VERTEX
  8
0
 62
7
 10
1.84643779E+02
 20
5.52043274E+01
  0
VERTEX
  8
0
 62
7
 10
1.84722478E+02
 20
5.55573198E+01
  0
VERTEX
  8
0
 62
7
 10
1.84779124E+02
 20
5.59186692E+01
  0
VERTEX
  8
0
 62
7
 10
1.84813285E+02
 20
5.62856255E+01
  0
VERTEX
  8
0
 62
7
 10
1.84824701E+02
 20
5.66553960E+01
  0
VERTEX
  8
0
 62
7
 10
1.84813285E+02
 20
5.70251665E+01
  0
VERTEX
  8
0
 62
7
 10
1.84779124E+02
 20
5.73921228E+01
  0
VERTEX
  8
0
 62
7
 10
1.84722478E+02
 20
5.77534722E+01
  0
VERTEX
  8
0
 62
7
 10
1.84643779E+02
 20
5.81064646E+01
  0
VERTEX
  8
0
 62
7
 10
1.84543624E+02
 20
5.84484135E+01
  0
VERTEX
  8
0
 62
7
 10
1.84422777E+02
 20
5.87767164E+01
  0
VERTEX
  8
0
 62
7
 10
1.84282157E+02
 20
5.90888747E+01
  0
VERTEX
  8
0
 62
7
 10
1.84122834E+02
 20
5.93825129E+01
  0
VERTEX
  8
0
 62
7
 10
1.83946021E+02
 20
5.96553960E+01
  0
VERTEX
  8
0
 62
7
 10
1.83753064E+02
 20
5.99054473E+01
  0
VERTEX
  8
0
 62
7
 10
1.83545430E+02
 20
6.01307638E+01
  0
VERTEX
  8
0
 62
7
 10
1.83324701E+02
 20
6.03296306E+01
  0
VERTEX
  8
0
 62
7
 10
1.83092556E+02
 20
6.05005343E+01
  0
VERTEX
  8
0
 62
7
 10
1.82850761E+02
 20
6.06421742E+01
  0
VERTEX
  8
0
 62
7
 10
1.82601158E+02
 20
6.07534722E+01
  0
VERTEX
  8
0
 62
7
 10
1.82345646E+02
 20
6.08335814E+01
  0
VERTEX
  8
0
 62
7
 10
1.82086168E+02
 20
6.08818922E+01
  0
VERTEX
  8
0
 62
7
 10
1.81824701E+02
 20
6.08980367E+01
  0
SEQEND
  8
0
  0
LINE
  8
0
  6
CENTER
 62
2
 10
1.81824701E+02
 20
5.07364362E+01
 11
1.81824701E+02
 21
6.21970266E+01
  0
LINE
  8
0
  6
CENTER
 62
2
 10
1.71824701E+02
 20
5.07364362E+01
 11
1.71824701E+02
 21
6.21970266E+01
  0
LINE
  8
0
 62
4
 10
2.08824701E+02
 20
2.61997757E-01
 11
9.98247009E+01
 21
2.61997757E-01
  0
LINE
  8
0
 62
7
 10
1.93814701E+02
 20
5.51259588E+01
 11
1.92824701E+02
 21
5.51259588E+01
  0
LINE
  8
0
 62
7
 10
1.98814701E+02
 20
4.55800172E+01
 11
1.92824701E+02
 21
4.55800172E+01
  0
LINE
  8
0
 62
7
 10
1.92824701E+02
 20
4.87619978E+01
 11
1.93814701E+02
 21
4.87619978E+01
  0
CIRCLE
  8
0
 62
7
 10
1.27824206E+02
 20
1.12620307E+01
 40
4.75000000E+00
  0
CIRCLE
  8
0
 62
7
 10
1.27824206E+02
 20
3.12620307E+01
 40
4.75000000E+00
  0
CIRCLE
  8
0
 62
7
 10
1.27824206E+02
 20
1.12620307E+01
 40
2.75000000E+00
  0
CIRCLE
  8
0
 62
7
 10
1.27824206E+02
 20
3.12620307E+01
 40
2.75000000E+00
  0
LINE
  8
0
  6
CENTER
 62
2
 10
1.20945459E+02
 20
3.12619978E+01
 11
1.34533060E+02
 21
3.12619978E+01
  0
LINE
  8
0
  6
CENTER
 62
2
 10
9.45313676E+01
 20
2.12619978E+01
 11
2.01175124E+02
 21
2.12619978E+01
  0
LINE
  8
0
  6
CENTER
 62
2
 10
1.27824701E+02
 20
3.98000614E+00
 11
1.27824701E+02
 21
3.80219978E+01
  0
LINE
  8
0
 62
7
 10
1.98814701E+02
 20
2.61997757E-01
 11
1.98814701E+02
 21
5.53477842E+01
  0
LINE
  8
0
 62
7
 10
1.18824701E+02
 20
2.61997757E-01
 11
1.18824701E+02
 21
4.18833181E+01
  0
LINE
  8
0
 62
7
 10
1.92824701E+02
 20
4.17677373E+01
 11
1.92824701E+02
 21
6.72677373E+01
  0
LINE
  8
0
 62
7
 10
1.93814701E+02
 20
4.55800172E+01
 11
1.93814701E+02
 21
5.51259588E+01
  0
LINE
  8
0
  6
CENTER
 62
2
 10
1.20945459E+02
 20
1.12620307E+01
 11
1.34533060E+02
 21
1.12620307E+01
  0
LINE
  8
0
  6
CENTER
 62
2
 10
1.27824701E+02
 20
4.46361111E+01
 11
1.27824701E+02
 21
6.44510395E+01
  0
LINE
  8
0
  6
CENTER
 62
6
 10
1.42824701E+02
 20
4.46361111E+01
 11
1.42824701E+02
 21
6.44510395E+01
  0
LINE
  8
0
  6
CENTER
 62
6
 10
1.57824701E+02
 20
4.46361111E+01
 11
1.57824701E+02
 21
6.44510395E+01
  0
CIRCLE
  8
0
 62
4
 10
1.57824701E+02
 20
6.07677373E+01
 40
2.10000000E+00
  0
CIRCLE
  8
0
 62
4
 10
1.42824701E+02
 20
6.07677373E+01
 40
2.10000000E+00
  0
CIRCLE
  8
0
 62
7
 10
1.27824701E+02
 20
6.07677373E+01
 40
2.10000000E+00
  0
CIRCLE
  8
0
 62
6
 10
1.57824701E+02
 20
6.07677373E+01
 40
2.50000000E+00
  0
CIRCLE
  8
0
 62
6
 10
1.42824701E+02
 20
6.07677373E+01
 40
2.50000000E+00
  0
CIRCLE
  8
0
 62
2
 10
1.27824701E+02
 20
6.07677373E+01
 40
2.50000000E+00
  0
LINE
  8
0
 62
7
 10
1.09994654E+02
 20
4.17677373E+01
 11
1.09824701E+02
 21
4.15977842E+01
  0
ARC
  8
0
 62
7
 10
1.08824185E+02
 20
2.12619978E+01
 40
5.00041310E+00
 50
3.23133652E+02
 51
3.68663477E+01
  0
LINE
  8
0
 62
7
 10
1.07824701E+02
 20
1.22619978E+01
 11
1.09824701E+02
 21
1.22619978E+01
  0
LINE
  8
0
 62
7
 10
1.07824701E+02
 20
3.02619978E+01
 11
1.09824701E+02
 21
3.02619978E+01
  0
LINE
  8
0
 62
7
 10
9.78247009E+01
 20
5.26199776E+00
 11
1.07824701E+02
 21
5.26199776E+00
  0
LINE
  8
0
 62
7
 10
1.07824701E+02
 20
5.26199776E+00
 11
1.07824701E+02
 21
6.72677373E+01
  0
LINE
  8
0
 62
7
 10
9.78247009E+01
 20
5.26199776E+00
 11
9.78247009E+01
 21
6.67619978E+01
  0
LINE
  8
0
 62
2
 10
1.12824701E+02
 20
2.42619978E+01
 11
1.09824701E+02
 21
1.82619978E+01
  0
LINE
  8
0
 62
2
 10
1.09824701E+02
 20
2.42619978E+01
 11
1.12824701E+02
 21
1.82619978E+01
  0
LINE
  8
0
 62
7
 10
1.10834701E+02
 20
1.62619978E+01
 11
1.18824701E+02
 21
1.62619978E+01
  0
LINE
  8
0
 62
7
 10
1.12824701E+02
 20
2.42619978E+01
 11
1.12824701E+02
 21
1.82619978E+01
  0
LINE
  8
0
 62
7
 10
1.10834701E+02
 20
1.82619978E+01
 11
1.10834701E+02
 21
1.62519978E+01
  0
LINE
  8
0
 62
7
 10
1.09824701E+02
 20
1.82619978E+01
 11
1.12824701E+02
 21
1.82619978E+01
  0
LINE
  8
0
 62
7
 10
1.09824701E+02
 20
2.42619978E+01
 11
1.12824701E+02
 21
2.42619978E+01
  0
LINE
  8
0
 62
7
 10
1.10824701E+02
 20
2.62519978E+01
 11
1.10824701E+02
 21
2.42619978E+01
  0
LINE
  8
0
 62
7
 10
1.09824701E+02
 20
1.72619978E+01
 11
1.10834701E+02
 21
1.62519978E+01
  0
LINE
  8
0
 62
7
 10
1.09824701E+02
 20
2.52619978E+01
 11
1.10824701E+02
 21
2.62519978E+01
  0
LINE
  8
0
 62
7
 10
1.09824701E+02
 20
3.02619978E+01
 11
1.09824701E+02
 21
1.22619978E+01
  0
LINE
  8
0
 62
7
 10
1.10824701E+02
 20
2.62519978E+01
 11
1.18824701E+02
 21
2.62519978E+01
  0
LINE
  8
0
  6
CENTER
 62
2
 10
1.62303072E+02
 20
4.87677373E+01
 11
1.23895192E+02
 21
4.87677373E+01
  0
LINE
  8
0
  6
CENTER
 62
2
 10
1.62303072E+02
 20
6.07677373E+01
 11
1.23895192E+02
 21
6.07677373E+01
  0
CIRCLE
  8
0
 62
7
 10
1.27824701E+02
 20
4.87677373E+01
 40
2.10000000E+00
  0
CIRCLE
  8
0
 62
2
 10
1.27824701E+02
 20
4.87677373E+01
 40
2.50000000E+00
  0
CIRCLE
  8
0
 62
4
 10
1.42824701E+02
 20
4.87677373E+01
 40
2.10000000E+00
  0
CIRCLE
  8
0
 62
6
 10
1.42824701E+02
 20
4.87677373E+01
 40
2.50000000E+00
  0
CIRCLE
  8
0
 62
4
 10
1.57824701E+02
 20
4.87677373E+01
 40
2.10000000E+00
  0
CIRCLE
  8
0
 62
6
 10
1.57824701E+02
 20
4.87677373E+01
 40
2.50000000E+00
  0
LINE
  8
0
 62
7
 10
9.78247009E+01
 20
6.67619978E+01
 11
1.07824701E+02
 21
6.67619978E+01
  0
LINE
  8
0
 62
7
 10
1.98814701E+02
 20
3.23619978E+01
 11
1.32445091E+02
 21
3.23619978E+01
  0
LINE
  8
0
 62
7
 10
1.98814701E+02
 20
2.91619978E+01
 11
1.32084765E+02
 21
2.91619978E+01
  0
LINE
  8
0
 62
7
 10
1.98814701E+02
 20
1.33619978E+01
 11
1.32084798E+02
 21
1.33619978E+01
  0
LINE
  8
0
 62
7
 10
1.98814701E+02
 20
1.01619978E+01
 11
1.32445075E+02
 21
1.01619978E+01
  0
LINE
  8
0
 62
7
 10
1.23203322E+02
 20
3.23619978E+01
 11
1.18824701E+02
 21
3.23619978E+01
  0
LINE
  8
0
 62
7
 10
1.23563648E+02
 20
2.91619978E+01
 11
1.18824701E+02
 21
2.91619978E+01
  0
LINE
  8
0
 62
7
 10
1.23563615E+02
 20
1.33619978E+01
 11
1.18824701E+02
 21
1.33619978E+01
  0
LINE
  8
0
 62
7
 10
1.23203338E+02
 20
1.01619978E+01
 11
1.18824701E+02
 21
1.01619978E+01
  0
LINE
  8
0
 62
7
 10
1.98814701E+02
 20
3.97619978E+01
 11
1.18824701E+02
 21
3.97619978E+01
  0
LINE
  8
0
 62
4
 10
2.08824701E+02
 20
-1.07380022E+01
 11
2.08824701E+02
 21
2.61997757E-01
  0
LINE
  8
0
 62
4
 10
2.08824701E+02
 20
-1.07380022E+01
 11
9.98247009E+01
 21
-1.07380022E+01
  0
LINE
  8
0
 62
4
 10
9.98247009E+01
 20
-1.07380022E+01
 11
9.98247009E+01
 21
2.61997757E-01
  0
LINE
  8
0
  6
CENTER
 62
6
 10
1.09824701E+02
 20
-1.26672645E+01
 11
1.09824701E+02
 21
2.78014813E+00
  0
LINE
  8
0
  6
CENTER
 62
6
 10
2.03824701E+02
 20
-1.26672645E+01
 11
2.03824701E+02
 21
2.78014813E+00
  0
LINE
  8
0
  6
DASHED
 62
6
 10
1.05074701E+02
 20
-5.13800224E+00
 11
1.05074701E+02
 21
2.61997757E-01
  0
LINE
  8
0
  6
DASHED
 62
6
 10
1.14574701E+02
 20
-5.13800224E+00
 11
1.14574701E+02
 21
2.61997757E-01
  0
LINE
  8
0
  6
DASHED
 62
6
 10
1.07074701E+02
 20
-1.07380022E+01
 11
1.07074701E+02
 21
-5.13800224E+00
  0
LINE
  8
0
  6
DASHED
 62
6
 10
1.12574701E+02
 20
-1.07380022E+01
 11
1.12574701E+02
 21
-5.13800224E+00
  0
LINE
  8
0
  6
DASHED
 62
6
 10
2.01074701E+02
 20
-1.07380022E+01
 11
2.01074701E+02
 21
2.61997757E-01
  0
LINE
  8
0
  6
DASHED
 62
6
 10
2.06574701E+02
 20
-1.07380022E+01
 11
2.06574701E+02
 21
2.61997757E-01
  0
LINE
  8
0
  6
DASHED
 62
6
 10
1.14574701E+02
 20
-5.13800224E+00
 11
1.05074701E+02
 21
-5.13800224E+00
  0
LINE
  8
0
 62
4
 10
9.98247009E+01
 20
-1.07380022E+01
 11
1.27824701E+02
 21
-1.07380022E+01
  0
LINE
  8
0
  6
PHANTOM
 10
1.64574701E+02
 20
-2.39730022E+01
 11
1.64574701E+02
 21
8.70298373E+01
  0
LINE
  8
0
 62
7
 10
4.83765614E+01
 20
4.96733181E+01
 11
5.03665614E+01
 21
4.85233181E+01
  0
LINE
  8
0
 62
7
 10
5.03665614E+01
 20
4.85233181E+01
 11
5.03665614E+01
 21
4.62333181E+01
  0
LINE
  8
0
 62
7
 10
4.83765614E+01
 20
4.50933181E+01
 11
4.63965614E+01
 21
4.62333181E+01
  0
LINE
  8
0
 62
7
 10
5.03665614E+01
 20
4.62333181E+01
 11
4.83765614E+01
 21
4.50933181E+01
  0
LINE
  8
0
 62
7
 10
4.63965614E+01
 20
4.85233181E+01
 11
4.63965614E+01
 21
4.62333181E+01
  0
LINE
  8
0
 62
7
 10
4.83765614E+01
 20
4.96733181E+01
 11
4.63965614E+01
 21
4.85233181E+01
  0
CIRCLE
  8
0
 62
7
 10
4.83760755E+01
 20
4.73833511E+01
 40
4.75000000E+00
  0
LINE
  8
0
  6
CENTER
 62
2
 10
4.83765614E+01
 20
4.10633181E+01
 11
4.83765614E+01
 21
5.38833181E+01
  0
LINE
  8
0
  6
CENTER
 62
2
 10
4.28765614E+01
 20
4.73833181E+01
 11
5.38015198E+01
 21
4.73833181E+01
  0
CIRCLE
  8
0
 62
7
 10
4.83760755E+01
 20
4.73833511E+01
 40
4.25000000E+00
  0
LINE
  8
0
 62
7
 10
3.53765614E+01
 20
6.36733181E+01
 11
3.73665614E+01
 21
6.25233181E+01
  0
LINE
  8
0
 62
7
 10
3.73665614E+01
 20
6.25233181E+01
 11
3.73665614E+01
 21
6.02333181E+01
  0
LINE
  8
0
 62
7
 10
3.53765614E+01
 20
5.90933181E+01
 11
3.33965614E+01
 21
6.02333181E+01
  0
LINE
  8
0
 62
7
 10
3.73665614E+01
 20
6.02333181E+01
 11
3.53765614E+01
 21
5.90933181E+01
  0
LINE
  8
0
 62
7
 10
3.33965614E+01
 20
6.25233181E+01
 11
3.33965614E+01
 21
6.02333181E+01
  0
LINE
  8
0
 62
7
 10
3.53765614E+01
 20
6.36733181E+01
 11
3.33965614E+01
 21
6.25233181E+01
  0
CIRCLE
  8
0
 62
7
 10
3.53760755E+01
 20
6.13833511E+01
 40
4.75000000E+00
  0
LINE
  8
0
  6
CENTER
 62
2
 10
3.53765614E+01
 20
5.50633181E+01
 11
3.53765614E+01
 21
6.78833181E+01
  0
LINE
  8
0
  6
CENTER
 62
2
 10
2.98765614E+01
 20
6.13833181E+01
 11
4.08015198E+01
 21
6.13833181E+01
  0
CIRCLE
  8
0
 62
7
 10
3.53760755E+01
 20
6.13833511E+01
 40
4.25000000E+00
  0
CIRCLE
  8
0
 62
2
 10
4.93760755E+01
 20
1.12620307E+01
 40
2.50000000E+00
  0
CIRCLE
  8
0
 62
2
 10
4.93760755E+01
 20
3.12620307E+01
 40
2.50000000E+00
  0
CIRCLE
  8
0
 62
2
 10
3.43760755E+01
 20
3.12620307E+01
 40
2.50000000E+00
  0
CIRCLE
  8
0
 62
7
 10
3.43760755E+01
 20
3.12620307E+01
 40
2.09999943E+00
  0
CIRCLE
  8
0
 62
7
 10
4.93760755E+01
 20
3.12620307E+01
 40
2.09999943E+00
  0
CIRCLE
  8
0
 62
7
 10
4.93760755E+01
 20
1.12620307E+01
 40
2.09999943E+00
  0
CIRCLE
  8
0
 62
7
 10
3.43760755E+01
 20
1.12620307E+01
 40
2.09999943E+00
  0
CIRCLE
  8
0
 62
2
 10
3.43760755E+01
 20
1.12620307E+01
 40
2.50000000E+00
  0
CIRCLE
  8
0
 62
7
 10
4.18760755E+01
 20
2.12620307E+01
 40
4.25000000E+00
  0
CIRCLE
  8
0
 62
7
 10
4.18760755E+01
 20
2.12620307E+01
 40
7.50000000E+00
  0
CIRCLE
  8
0
 62
7
 10
4.18760755E+01
 20
2.12620307E+01
 40
8.00000000E+00
  0
LINE
  8
0
 62
7
 10
4.18765614E+01
 20
2.35519978E+01
 11
4.38665614E+01
 21
2.24019978E+01
  0
LINE
  8
0
 62
7
 10
4.38665614E+01
 20
2.24019978E+01
 11
4.38665614E+01
 21
2.01119978E+01
  0
LINE
  8
0
 62
7
 10
4.38665614E+01
 20
2.01119978E+01
 11
4.18765614E+01
 21
1.89719978E+01
  0
LINE
  8
0
 62
7
 10
4.18765614E+01
 20
1.89719978E+01
 11
3.98965614E+01
 21
2.01119978E+01
  0
LINE
  8
0
 62
7
 10
3.98965614E+01
 20
2.24019978E+01
 11
3.98965614E+01
 21
2.01119978E+01
  0
LINE
  8
0
 62
7
 10
4.18765614E+01
 20
2.35519978E+01
 11
3.98965614E+01
 21
2.24019978E+01
  0
LINE
  8
0
  6
CENTER
 62
2
 10
4.93765614E+01
 20
7.24115888E+00
 11
4.93765614E+01
 21
3.62019978E+01
  0
LINE
  8
0
  6
CENTER
 62
2
 10
3.03865614E+01
 20
1.12619978E+01
 11
5.28748575E+01
 21
1.12619978E+01
  0
LINE
  8
0
  6
CENTER
 62
2
 10
3.03865614E+01
 20
3.12619978E+01
 11
5.28748575E+01
 21
3.12619978E+01
  0
LINE
  8
0
  6
CENTER
 62
2
 10
3.43765614E+01
 20
7.24115888E+00
 11
3.43765614E+01
 21
3.62019978E+01
  0
LINE
  8
0
 62
7
 10
5.49232172E+01
 20
5.26199776E+00
 11
2.89232172E+01
 21
5.26199776E+00
  0
LINE
  8
0
  6
CENTER
 62
2
 10
4.18765614E+01
 20
-1.22029373E+01
 11
4.18765614E+01
 21
6.97189976E+01
  0
LINE
  8
0
  6
CENTER
 62
2
 10
5.70828332E+01
 20
2.12619978E+01
 11
2.67189903E+01
 21
2.12619978E+01
  0
LINE
  8
0
 62
7
 10
2.91765614E+01
 20
6.72677373E+01
 11
5.45765614E+01
 21
6.72677373E+01
  0
LINE
  8
0
 62
7
 10
5.48765614E+01
 20
6.67619978E+01
 11
2.88765614E+01
 21
6.67619978E+01
  0
LINE
  8
0
 62
7
 10
5.50765614E+01
 20
2.91619978E+01
 11
5.48765614E+01
 21
2.91619978E+01
  0
LINE
  8
0
 62
7
 10
5.50765614E+01
 20
1.33619978E+01
 11
5.48765614E+01
 21
1.33619978E+01
  0
LINE
  8
0
 62
7
 10
2.83765614E+01
 20
3.23619978E+01
 11
2.83765614E+01
 21
5.43477842E+01
  0
ARC
  8
0
 62
7
 10
2.93765614E+01
 20
5.43477842E+01
 40
1.00000000E+00
 50
1.20000000E+02
 51
1.80000000E+02
  0
LINE
  8
0
 62
7
 10
2.86765614E+01
 20
1.33619978E+01
 11
2.86765614E+01
 21
2.91619978E+01
  0
LINE
  8
0
 62
7
 10
2.83765614E+01
 20
3.23619978E+01
 11
2.88765614E+01
 21
3.23619978E+01
  0
LINE
  8
0
 62
7
 10
2.86765614E+01
 20
2.91619978E+01
 11
2.88765614E+01
 21
2.91619978E+01
  0
LINE
  8
0
 62
7
 10
2.83765614E+01
 20
2.61997757E-01
 11
2.83765614E+01
 21
1.01619978E+01
  0
LINE
  8
0
 62
7
 10
2.86765614E+01
 20
1.33619978E+01
 11
2.88765614E+01
 21
1.33619978E+01
  0
LINE
  8
0
 62
7
 10
2.83765614E+01
 20
1.01619978E+01
 11
2.88765614E+01
 21
1.01619978E+01
  0
LINE
  8
0
 62
7
 10
5.53765614E+01
 20
2.61997757E-01
 11
2.83765614E+01
 21
2.61997757E-01
  0
LINE
  8
0
 62
7
 10
5.53765614E+01
 20
2.61997757E-01
 11
5.53765614E+01
 21
1.01619978E+01
  0
LINE
  8
0
 62
7
 10
5.50765614E+01
 20
1.33619978E+01
 11
5.50765614E+01
 21
2.91619978E+01
  0
LINE
  8
0
 62
7
 10
5.50765614E+01
 20
1.33619978E+01
 11
5.48765614E+01
 21
1.33619978E+01
  0
LINE
  8
0
 62
7
 10
5.53765614E+01
 20
1.01619978E+01
 11
5.48765614E+01
 21
1.01619978E+01
  0
LINE
  8
0
 62
7
 10
5.53765614E+01
 20
3.97619978E+01
 11
5.53765614E+01
 21
3.23619978E+01
  0
LINE
  8
0
 62
7
 10
5.53765614E+01
 20
3.23619978E+01
 11
5.48765614E+01
 21
3.23619978E+01
  0
LINE
  8
0
 62
7
 10
5.50765614E+01
 20
2.91619978E+01
 11
5.48765614E+01
 21
2.91619978E+01
  0
LINE
  8
0
 62
7
 10
5.48765614E+01
 20
4.02619978E+01
 11
5.53765614E+01
 21
3.97619978E+01
  0
LINE
  8
0
 62
7
 10
2.88765614E+01
 20
5.26199776E+00
 11
2.88765614E+01
 21
6.69677373E+01
  0
LINE
  8
0
 62
7
 10
5.48765614E+01
 20
5.26199776E+00
 11
5.48765614E+01
 21
6.69677373E+01
  0
ARC
  8
0
 62
7
 10
5.45765614E+01
 20
6.69677373E+01
 40
3.00000000E-01
 50
0.00000000E+00
 51
9.00000002E+01
  0
ARC
  8
0
 62
7
 10
2.91765614E+01
 20
6.69677373E+01
 40
3.00000000E-01
 50
9.00000002E+01
 51
1.80000000E+02
  0
LINE
  8
0
 62
4
 10
2.88765614E+01
 20
-1.07380022E+01
 11
2.88765614E+01
 21
2.61997757E-01
  0
LINE
  8
0
 62
4
 10
5.48765614E+01
 20
-1.07380022E+01
 11
5.48765614E+01
 21
2.61997757E-01
  0
LINE
  8
0
 62
4
 10
5.48765614E+01
 20
-1.07380022E+01
 11
2.88765614E+01
 21
-1.07380022E+01
  0
LINE
  8
0
  6
CENTER
 62
6
 10
4.45715407E+01
 20
-3.73800224E+00
 11
3.89847009E+01
 21
-3.73800224E+00
  0
CIRCLE
  8
0
 62
4
 10
4.18765614E+01
 20
-3.73800224E+00
 40
1.25000000E+00
  0
ARC
  8
0
 62
7
 10
2.40819701E+02
 20
2.12620301E+01
 40
1.34997756E+01
 50
4.87191827E+01
 51
1.31236872E+02
  0
ARC
  8
0
 62
7
 10
2.40819701E+02
 20
2.12620313E+01
 40
1.35076658E+01
 50
2.28777456E+02
 51
3.11266324E+02
  0
CIRCLE
  8
0
 62
7
 10
2.40824215E+02
 20
2.12620307E+01
 40
1.20000000E+01
  0
CIRCLE
  8
0
 62
7
 10
2.40824215E+02
 20
2.12620307E+01
 40
1.01000004E+01
  0
CIRCLE
  8
0
 62
7
 10
2.40824215E+02
 20
2.12620307E+01
 40
1.06999998E+01
  0
LINE
  8
0
 62
7
 10
2.51866331E+02
 20
5.73682423E+01
 11
2.53824701E+02
 21
5.93266118E+01
  0
LINE
  8
0
 62
7
 10
2.36265826E+02
 20
4.17677373E+01
 11
2.28124701E+02
 21
4.17677373E+01
  0
LINE
  8
0
 62
7
 10
2.36265826E+02
 20
4.17677373E+01
 11
2.37724196E+02
 21
4.32261067E+01
  0
LINE
  8
0
 62
7
 10
2.52078463E+02
 20
5.75803744E+01
 11
2.47128716E+02
 21
6.25301218E+01
  0
LINE
  8
0
 62
7
 10
2.37512064E+02
 20
4.30139747E+01
 11
2.32562316E+02
 21
4.79637222E+01
  0
LINE
  8
0
 62
7
 10
2.53824701E+02
 20
9.66199776E+00
 11
2.53824701E+02
 21
1.33619978E+01
  0
LINE
  8
0
 62
7
 10
2.53524701E+02
 20
6.72677373E+01
 11
2.28124701E+02
 21
6.72677373E+01
  0
LINE
  8
0
 62
7
 10
2.27824701E+02
 20
1.01619978E+01
 11
2.27824701E+02
 21
1.33619978E+01
  0
ARC
  8
0
 62
7
 10
2.28124701E+02
 20
4.20677373E+01
 40
3.00000000E-01
 50
1.80000000E+02
 51
2.70000000E+02
  0
LINE
  8
0
 62
7
 10
2.42178969E+02
 20
4.65495086E+01
 11
2.38289881E+02
 21
4.26604213E+01
  0
LINE
  8
0
 62
7
 10
2.52432017E+02
 20
5.68025569E+01
 11
2.48542930E+02
 21
5.29134696E+01
  0
LINE
  8
0
 62
7
 10
2.53922756E+02
 20
5.51820259E+01
 11
2.43734603E+02
 21
4.49938737E+01
  0
LINE
  8
0
 62
7
 10
2.47128716E+02
 20
6.25301218E+01
 11
2.32562316E+02
 21
4.79637222E+01
  0
LINE
  8
0
 62
7
 10
2.38371357E+02
 20
4.07619978E+01
 11
2.28324701E+02
 21
4.07619978E+01
  0
CIRCLE
  8
0
 62
7
 10
2.40824701E+02
 20
4.76199776E+00
 40
2.10000000E+00
  0
CIRCLE
  8
0
 62
7
 10
2.40824701E+02
 20
3.77619978E+01
 40
2.10000000E+00
  0
CIRCLE
  8
0
 62
2
 10
2.40824701E+02
 20
3.77619978E+01
 40
2.50000000E+00
  0
CIRCLE
  8
0
 62
2
 10
2.40824701E+02
 20
4.76199776E+00
 40
2.50000000E+00
  0
LINE
  8
0
  6
CENTER
 62
2
 10
2.37111285E+02
 20
4.76199776E+00
 11
2.44489416E+02
 21
4.76199776E+00
  0
LINE
  8
0
  6
CENTER
 62
2
 10
2.37111285E+02
 20
3.77619978E+01
 11
2.44489416E+02
 21
3.77619978E+01
  0
LINE
  8
0
 62
7
 10
2.27324701E+02
 20
2.61997757E-01
 11
2.54324701E+02
 21
2.61997757E-01
  0
LINE
  8
0
 62
7
 10
2.27324701E+02
 20
2.61997757E-01
 11
2.27324701E+02
 21
1.01619978E+01
  0
LINE
  8
0
 62
7
 10
2.27324701E+02
 20
1.01619978E+01
 11
2.27824701E+02
 21
1.01619978E+01
  0
LINE
  8
0
 62
7
 10
2.27624701E+02
 20
1.33619978E+01
 11
2.27824701E+02
 21
1.33619978E+01
  0
LINE
  8
0
 62
7
 10
2.28324701E+02
 20
1.38619978E+01
 11
2.29924701E+02
 21
1.38619978E+01
  0
LINE
  8
0
 62
7
 10
2.28324701E+02
 20
9.66199776E+00
 11
2.29924701E+02
 21
9.66199776E+00
  0
LINE
  8
0
 62
7
 10
2.27824701E+02
 20
1.33619978E+01
 11
2.28324701E+02
 21
1.38619978E+01
  0
LINE
  8
0
 62
7
 10
2.27824701E+02
 20
1.01619978E+01
 11
2.28324701E+02
 21
9.66199776E+00
  0
LINE
  8
0
 62
7
 10
2.27624701E+02
 20
1.33619978E+01
 11
2.27624701E+02
 21
2.91619978E+01
  0
LINE
  8
0
 62
7
 10
2.27824701E+02
 20
2.91619978E+01
 11
2.28324701E+02
 21
2.86619978E+01
  0
LINE
  8
0
 62
7
 10
2.27624701E+02
 20
2.91619978E+01
 11
2.27824701E+02
 21
2.91619978E+01
  0
LINE
  8
0
 62
7
 10
2.28324701E+02
 20
2.86619978E+01
 11
2.29924701E+02
 21
2.86619978E+01
  0
LINE
  8
0
 62
7
 10
2.28324701E+02
 20
3.28619978E+01
 11
2.29924701E+02
 21
3.28619978E+01
  0
LINE
  8
0
 62
7
 10
2.27824701E+02
 20
3.23619978E+01
 11
2.28324701E+02
 21
3.28619978E+01
  0
LINE
  8
0
 62
7
 10
2.27324701E+02
 20
3.23619978E+01
 11
2.27824701E+02
 21
3.23619978E+01
  0
LINE
  8
0
 62
7
 10
2.54324701E+02
 20
2.61997757E-01
 11
2.54324701E+02
 21
1.01619978E+01
  0
LINE
  8
0
 62
7
 10
2.54324701E+02
 20
3.23619978E+01
 11
2.54324701E+02
 21
5.43477842E+01
  0
LINE
  8
0
 62
7
 10
2.54324701E+02
 20
1.01619978E+01
 11
2.53824701E+02
 21
1.01619978E+01
  0
LINE
  8
0
 62
7
 10
2.54024701E+02
 20
1.33619978E+01
 11
2.53824701E+02
 21
1.33619978E+01
  0
LINE
  8
0
 62
7
 10
2.53324701E+02
 20
1.38619978E+01
 11
2.51724701E+02
 21
1.38619978E+01
  0
LINE
  8
0
 62
7
 10
2.53324701E+02
 20
9.66199776E+00
 11
2.51724701E+02
 21
9.66199776E+00
  0
LINE
  8
0
 62
7
 10
2.53824701E+02
 20
1.33619978E+01
 11
2.53324701E+02
 21
1.38619978E+01
  0
LINE
  8
0
 62
7
 10
2.53824701E+02
 20
1.01619978E+01
 11
2.53324701E+02
 21
9.66199776E+00
  0
LINE
  8
0
 62
7
 10
2.54024701E+02
 20
1.33619978E+01
 11
2.54024701E+02
 21
2.91619978E+01
  0
LINE
  8
0
 62
7
 10
2.53824701E+02
 20
2.91619978E+01
 11
2.53324701E+02
 21
2.86619978E+01
  0
LINE
  8
0
 62
7
 10
2.54024701E+02
 20
2.91619978E+01
 11
2.53824701E+02
 21
2.91619978E+01
  0
LINE
  8
0
 62
7
 10
2.53324701E+02
 20
2.86619978E+01
 11
2.51724701E+02
 21
2.86619978E+01
  0
LINE
  8
0
 62
7
 10
2.53324701E+02
 20
3.28619978E+01
 11
2.51724701E+02
 21
3.28619978E+01
  0
LINE
  8
0
 62
7
 10
2.53824701E+02
 20
3.23619978E+01
 11
2.53324701E+02
 21
3.28619978E+01
  0
LINE
  8
0
 62
7
 10
2.54324701E+02
 20
3.23619978E+01
 11
2.53824701E+02
 21
3.23619978E+01
  0
ARC
  8
0
 62
7
 10
2.29924701E+02
 20
1.17619978E+01
 40
2.10000006E+00
 50
2.70000000E+02
 51
9.00000002E+01
  0
ARC
  8
0
 62
7
 10
2.29924701E+02
 20
3.07619978E+01
 40
2.10000006E+00
 50
2.70000000E+02
 51
9.00000002E+01
  0
ARC
  8
0
 62
7
 10
2.51724701E+02
 20
1.17619978E+01
 40
2.10000005E+00
 50
9.00000002E+01
 51
2.70000000E+02
  0
ARC
  8
0
 62
7
 10
2.51724701E+02
 20
3.07619978E+01
 40
2.10000005E+00
 50
9.00000002E+01
 51
2.70000000E+02
  0
LINE
  8
0
 62
7
 10
2.38371357E+02
 20
4.07619978E+01
 11
2.43168918E+02
 21
4.55595591E+01
  0
LINE
  8
0
 62
7
 10
2.27324701E+02
 20
3.97619978E+01
 11
2.27324701E+02
 21
3.23619978E+01
  0
LINE
  8
0
 62
7
 10
2.43734603E+02
 20
4.49938737E+01
 11
2.43168918E+02
 21
4.55595591E+01
  0
ARC
  8
0
 62
7
 10
2.53324701E+02
 20
5.43477842E+01
 40
1.00000000E+00
 50
7.63333124E-14
 51
5.65369590E+01
  0
LINE
  8
0
  6
CENTER
 62
2
 10
2.25618429E+02
 20
2.12619978E+01
 11
2.55982272E+02
 21
2.12619978E+01
  0
LINE
  8
0
  6
CENTER
 62
2
 10
2.40824701E+02
 20
-1.34902100E+01
 11
2.40824701E+02
 21
6.97189976E+01
  0
LINE
  8
0
 62
7
 10
2.52432017E+02
 20
5.68025569E+01
 11
2.46916584E+02
 21
6.23179898E+01
  0
LINE
  8
0
 62
7
 10
2.39845516E+02
 20
4.88829610E+01
 11
2.46209477E+02
 21
5.52469220E+01
  0
LINE
  8
0
 62
7
 10
2.38289881E+02
 20
4.26604213E+01
 11
2.32774448E+02
 21
4.81758542E+01
  0
LINE
  8
0
 62
7
 10
2.50098565E+02
 20
5.13578347E+01
 11
2.46209477E+02
 21
5.52469220E+01
  0
LINE
  8
0
 62
7
 10
2.43734603E+02
 20
4.49938737E+01
 11
2.39845516E+02
 21
4.88829610E+01
  0
ARC
  8
0
 62
7
 10
2.53524701E+02
 20
6.69677373E+01
 40
3.00000000E-01
 50
0.00000000E+00
 51
9.00000002E+01
  0
ARC
  8
0
 62
7
 10
2.28124701E+02
 20
6.69677373E+01
 40
3.00000000E-01
 50
9.00000002E+01
 51
1.80000000E+02
  0
LINE
  8
0
 62
7
 10
2.28324701E+02
 20
4.07619978E+01
 11
2.27324701E+02
 21
3.97619978E+01
  0
LINE
  8
0
  6
CENTER
 62
2
 10
2.22137428E+02
 20
3.07619978E+01
 11
2.55982272E+02
 21
3.07619978E+01
  0
LINE
  8
0
  6
CENTER
 62
2
 10
2.22710155E+02
 20
1.17619978E+01
 11
2.55982272E+02
 21
1.17619978E+01
  0
LINE
  8
0
 62
7
 10
2.53824701E+02
 20
5.50839711E+01
 11
2.53824701E+02
 21
6.69677373E+01
  0
LINE
  8
0
 62
7
 10
2.27824701E+02
 20
4.02619978E+01
 11
2.27824701E+02
 21
6.69677373E+01
  0
LINE
  8
0
 62
7
 10
2.27824701E+02
 20
2.91619978E+01
 11
2.27824701E+02
 21
3.23619978E+01
  0
LINE
  8
0
 62
7
 10
2.53824701E+02
 20
2.91619978E+01
 11
2.53824701E+02
 21
3.23619978E+01
  0
LINE
  8
0
  6
CENTER
 62
2
 10
2.39627298E+02
 20
5.82677373E+01
 11
2.33470935E+02
 21
5.82677373E+01
  0
LINE
  8
0
  6
CENTER
 62
2
 10
2.36824701E+02
 20
5.55258939E+01
 11
2.36824701E+02
 21
6.12206005E+01
  0
CIRCLE
  8
0
 62
7
 10
2.36824701E+02
 20
5.82677373E+01
 40
1.75000000E+00
  0
CIRCLE
  8
0
 62
2
 10
2.40824701E+02
 20
2.12619978E+01
 40
1.50000000E+00
  0
CIRCLE
  8
0
 62
7
 10
2.40824701E+02
 20
2.12619978E+01
 40
1.25000000E+00
  0
LINE
  8
0
 62
4
 10
2.27824701E+02
 20
-1.07380022E+01
 11
2.53824701E+02
 21
-1.07380022E+01
  0
LINE
  8
0
 62
4
 10
2.27824701E+02
 20
-1.07380022E+01
 11
2.27824701E+02
 21
2.61997757E-01
  0
LINE
  8
0
 62
4
 10
2.53824701E+02
 20
-1.07380022E+01
 11
2.53824701E+02
 21
2.61997757E-01
  0
LINE
  8
0
  6
CENTER
 62
6
 10
2.38421096E+02
 20
-3.73800224E+00
 11
2.43591533E+02
 21
-3.73800224E+00
  0
CIRCLE
  8
0
 62
6
 10
2.40824701E+02
 20
-3.73800224E+00
 40
1.50000000E+00
  0
CIRCLE
  8
0
 62
4
 10
2.40824701E+02
 20
-3.73800224E+00
 40
1.25000000E+00
  0
LINE
  8
0
 62
7
 10
1.93814701E+02
 20
1.19428037E+02
 11
1.93814701E+02
 21
1.29681085E+02
  0
POLYLINE
  8
0
 62
7
 66
1
  0
VERTEX
  8
0
 62
7
 10
1.69110679E+02
 20
1.19468076E+02
  0
VERTEX
  8
0
 62
7
 10
1.69160184E+02
 20
1.19300524E+02
  0
VERTEX
  8
0
 62
7
 10
1.69230335E+02
 20
1.19136700E+02
  0
VERTEX
  8
0
 62
7
 10
1.69320589E+02
 20
1.18977873E+02
  0
VERTEX
  8
0
 62
7
 10
1.69430245E+02
 20
1.18825274E+02
  0
VERTEX
  8
0
 62
7
 10
1.69558455E+02
 20
1.18680084E+02
  0
VERTEX
  8
0
 62
7
 10
1.69704225E+02
 20
1.18543429E+02
  0
VERTEX
  8
0
 62
7
 10
1.69866426E+02
 20
1.18416369E+02
  0
VERTEX
  8
0
 62
7
 10
1.70043800E+02
 20
1.18299886E+02
  0
VERTEX
  8
0
 62
7
 10
1.70234973E+02
 20
1.18194885E+02
  0
VERTEX
  8
0
 62
7
 10
1.70438465E+02
 20
1.18102178E+02
  0
VERTEX
  8
0
 62
7
 10
1.70652697E+02
 20
1.18022484E+02
  0
VERTEX
  8
0
 62
7
 10
1.70876011E+02
 20
1.17956420E+02
  0
VERTEX
  8
0
 62
7
 10
1.71106676E+02
 20
1.17904499E+02
  0
VERTEX
  8
0
 62
7
 10
1.71342904E+02
 20
1.17867122E+02
  0
VERTEX
  8
0
 62
7
 10
1.71582866E+02
 20
1.17844580E+02
  0
VERTEX
  8
0
 62
7
 10
1.71824701E+02
 20
1.17837046E+02
  0
VERTEX
  8
0
 62
7
 10
1.72066536E+02
 20
1.17844580E+02
  0
VERTEX
  8
0
 62
7
 10
1.72306498E+02
 20
1.17867122E+02
  0
VERTEX
  8
0
 62
7
 10
1.72542726E+02
 20
1.17904499E+02
  0
VERTEX
  8
0
 62
7
 10
1.72773391E+02
 20
1.17956420E+02
  0
VERTEX
  8
0
 62
7
 10
1.72996705E+02
 20
1.18022484E+02
  0
VERTEX
  8
0
 62
7
 10
1.73210937E+02
 20
1.18102178E+02
  0
VERTEX
  8
0
 62
7
 10
1.73414429E+02
 20
1.18194885E+02
  0
VERTEX
  8
0
 62
7
 10
1.73605602E+02
 20
1.18299886E+02
  0
VERTEX
  8
0
 62
7
 10
1.73782976E+02
 20
1.18416369E+02
  0
VERTEX
  8
0
 62
7
 10
1.73945177E+02
 20
1.18543429E+02
  0
VERTEX
  8
0
 62
7
 10
1.74090947E+02
 20
1.18680084E+02
  0
VERTEX
  8
0
 62
7
 10
1.74219157E+02
 20
1.18825274E+02
  0
VERTEX
  8
0
 62
7
 10
1.74328813E+02
 20
1.18977873E+02
  0
VERTEX
  8
0
 62
7
 10
1.74419067E+02
 20
1.19136700E+02
  0
VERTEX
  8
0
 62
7
 10
1.74489218E+02
 20
1.19300524E+02
  0
VERTEX
  8
0
 62
7
 10
1.74538723E+02
 20
1.19468076E+02
  0
SEQEND
  8
0
  0
POLYLINE
  8
0
 62
7
 66
1
  0
VERTEX
  8
0
 62
7
 10
1.79110679E+02
 20
1.19468076E+02
  0
VERTEX
  8
0
 62
7
 10
1.79160184E+02
 20
1.19300524E+02
  0
VERTEX
  8
0
 62
7
 10
1.79230335E+02
 20
1.19136700E+02
  0
VERTEX
  8
0
 62
7
 10
1.79320589E+02
 20
1.18977873E+02
  0
VERTEX
  8
0
 62
7
 10
1.79430245E+02
 20
1.18825274E+02
  0
VERTEX
  8
0
 62
7
 10
1.79558455E+02
 20
1.18680084E+02
  0
VERTEX
  8
0
 62
7
 10
1.79704225E+02
 20
1.18543429E+02
  0
VERTEX
  8
0
 62
7
 10
1.79866426E+02
 20
1.18416369E+02
  0
VERTEX
  8
0
 62
7
 10
1.80043800E+02
 20
1.18299886E+02
  0
VERTEX
  8
0
 62
7
 10
1.80234973E+02
 20
1.18194885E+02
  0
VERTEX
  8
0
 62
7
 10
1.80438465E+02
 20
1.18102178E+02
  0
VERTEX
  8
0
 62
7
 10
1.80652697E+02
 20
1.18022484E+02
  0
VERTEX
  8
0
 62
7
 10
1.80876011E+02
 20
1.17956420E+02
  0
VERTEX
  8
0
 62
7
 10
1.81106676E+02
 20
1.17904499E+02
  0
VERTEX
  8
0
 62
7
 10
1.81342904E+02
 20
1.17867122E+02
  0
VERTEX
  8
0
 62
7
 10
1.81582866E+02
 20
1.17844580E+02
  0
VERTEX
  8
0
 62
7
 10
1.81824701E+02
 20
1.17837046E+02
  0
VERTEX
  8
0
 62
7
 10
1.82066536E+02
 20
1.17844580E+02
  0
VERTEX
  8
0
 62
7
 10
1.82306498E+02
 20
1.17867122E+02
  0
VERTEX
  8
0
 62
7
 10
1.82542726E+02
 20
1.17904499E+02
  0
VERTEX
  8
0
 62
7
 10
1.82773391E+02
 20
1.17956420E+02
  0
VERTEX
  8
0
 62
7
 10
1.82996705E+02
 20
1.18022484E+02
  0
VERTEX
  8
0
 62
7
 10
1.83210937E+02
 20
1.18102178E+02
  0
VERTEX
  8
0
 62
7
 10
1.83414429E+02
 20
1.18194885E+02
  0
VERTEX
  8
0
 62
7
 10
1.83605602E+02
 20
1.18299886E+02
  0
VERTEX
  8
0
 62
7
 10
1.83782976E+02
 20
1.18416369E+02
  0
VERTEX
  8
0
 62
7
 10
1.83945177E+02
 20
1.18543429E+02
  0
VERTEX
  8
0
 62
7
 10
1.84090947E+02
 20
1.18680084E+02
  0
VERTEX
  8
0
 62
7
 10
1.84219157E+02
 20
1.18825274E+02
  0
VERTEX
  8
0
 62
7
 10
1.84328813E+02
 20
1.18977873E+02
  0
VERTEX
  8
0
 62
7
 10
1.84419067E+02
 20
1.19136700E+02
  0
VERTEX
  8
0
 62
7
 10
1.84489218E+02
 20
1.19300524E+02
  0
VERTEX
  8
0
 62
7
 10
1.84538723E+02
 20
1.19468076E+02
  0
SEQEND
  8
0
  0
POLYLINE
  8
0
 62
7
 66
1
  0
VERTEX
  8
0
 62
7
 10
1.83086610E+02
 20
1.21509318E+02
  0
VERTEX
  8
0
 62
7
 10
1.82848266E+02
 20
1.21586419E+02
  0
VERTEX
  8
0
 62
7
 10
1.82600623E+02
 20
1.21647126E+02
  0
VERTEX
  8
0
 62
7
 10
1.82345931E+02
 20
1.21690886E+02
  0
VERTEX
  8
0
 62
7
 10
1.82086505E+02
 20
1.21717302E+02
  0
VERTEX
  8
0
 62
7
 10
1.81824701E+02
 20
1.21726134E+02
  0
VERTEX
  8
0
 62
7
 10
1.81562897E+02
 20
1.21717302E+02
  0
VERTEX
  8
0
 62
7
 10
1.81303471E+02
 20
1.21690886E+02
  0
VERTEX
  8
0
 62
7
 10
1.81048779E+02
 20
1.21647126E+02
  0
VERTEX
  8
0
 62
7
 10
1.80801136E+02
 20
1.21586419E+02
  0
VERTEX
  8
0
 62
7
 10
1.80562792E+02
 20
1.21509318E+02
  0
SEQEND
  8
0
  0
POLYLINE
  8
0
 62
7
 66
1
  0
VERTEX
  8
0
 62
7
 10
1.73086610E+02
 20
1.21509318E+02
  0
VERTEX
  8
0
 62
7
 10
1.72848266E+02
 20
1.21586419E+02
  0
VERTEX
  8
0
 62
7
 10
1.72600623E+02
 20
1.21647126E+02
  0
VERTEX
  8
0
 62
7
 10
1.72345931E+02
 20
1.21690886E+02
  0
VERTEX
  8
0
 62
7
 10
1.72086505E+02
 20
1.21717302E+02
  0
VERTEX
  8
0
 62
7
 10
1.71824701E+02
 20
1.21726134E+02
  0
VERTEX
  8
0
 62
7
 10
1.71562897E+02
 20
1.21717302E+02
  0
VERTEX
  8
0
 62
7
 10
1.71303471E+02
 20
1.21690886E+02
  0
VERTEX
  8
0
 62
7
 10
1.71048779E+02
 20
1.21647126E+02
  0
VERTEX
  8
0
 62
7
 10
1.70801136E+02
 20
1.21586419E+02
  0
VERTEX
  8
0
 62
7
 10
1.70562792E+02
 20
1.21509318E+02
  0
SEQEND
  8
0
  0
LINE
  8
0
 62
7
 10
1.83124701E+02
 20
1.20312313E+02
 11
1.83124701E+02
 21
1.19250867E+02
  0
LINE
  8
0
 62
7
 10
1.81824701E+02
 20
1.18720145E+02
 11
1.83124701E+02
 21
1.19250867E+02
  0
LINE
  8
0
 62
7
 10
1.81824701E+02
 20
1.20843036E+02
 11
1.83124701E+02
 21
1.20312313E+02
  0
LINE
  8
0
 62
7
 10
1.81824701E+02
 20
1.18720145E+02
 11
1.80524701E+02
 21
1.19250867E+02
  0
LINE
  8
0
 62
7
 10
1.80524701E+02
 20
1.20312313E+02
 11
1.80524701E+02
 21
1.19250867E+02
  0
LINE
  8
0
 62
7
 10
1.81824701E+02
 20
1.20843036E+02
 11
1.80524701E+02
 21
1.20312313E+02
  0
LINE
  8
0
 62
7
 10
1.71824701E+02
 20
1.20843036E+02
 11
1.73124701E+02
 21
1.20312313E+02
  0
LINE
  8
0
 62
7
 10
1.73124701E+02
 20
1.20312313E+02
 11
1.73124701E+02
 21
1.19250867E+02
  0
LINE
  8
0
 62
7
 10
1.71824701E+02
 20
1.18720145E+02
 11
1.73124701E+02
 21
1.19250867E+02
  0
LINE
  8
0
 62
7
 10
1.71824701E+02
 20
1.18720145E+02
 11
1.70524701E+02
 21
1.19250867E+02
  0
LINE
  8
0
 62
7
 10
1.70524701E+02
 20
1.20312313E+02
 11
1.70524701E+02
 21
1.19250867E+02
  0
LINE
  8
0
 62
7
 10
1.71824701E+02
 20
1.20843036E+02
 11
1.70524701E+02
 21
1.20312313E+02
  0
LINE
  8
0
  6
CENTER
 62
2
 10
1.86114496E+02
 20
1.19781590E+02
 11
1.67053570E+02
 21
1.19781590E+02
  0
POLYLINE
  8
0
 62
7
 66
1
  0
VERTEX
  8
0
 62
7
 10
1.71824701E+02
 20
1.13417629E+02
  0
VERTEX
  8
0
 62
7
 10
1.72086168E+02
 20
1.13433774E+02
  0
VERTEX
  8
0
 62
7
 10
1.72345646E+02
 20
1.13482085E+02
  0
VERTEX
  8
0
 62
7
 10
1.72601158E+02
 20
1.13562194E+02
  0
VERTEX
  8
0
 62
7
 10
1.72850761E+02
 20
1.13673492E+02
  0
VERTEX
  8
0
 62
7
 10
1.73092556E+02
 20
1.13815132E+02
  0
VERTEX
  8
0
 62
7
 10
1.73324701E+02
 20
1.13986035E+02
  0
VERTEX
  8
0
 62
7
 10
1.73545430E+02
 20
1.14184902E+02
  0
VERTEX
  8
0
 62
7
 10
1.73753064E+02
 20
1.14410219E+02
  0
VERTEX
  8
0
 62
7
 10
1.73946021E+02
 20
1.14660270E+02
  0
VERTEX
  8
0
 62
7
 10
1.74122834E+02
 20
1.14933153E+02
  0
VERTEX
  8
0
 62
7
 10
1.74282157E+02
 20
1.15226791E+02
  0
VERTEX
  8
0
 62
7
 10
1.74422777E+02
 20
1.15538950E+02
  0
VERTEX
  8
0
 62
7
 10
1.74543624E+02
 20
1.15867253E+02
  0
VERTEX
  8
0
 62
7
 10
1.74643779E+02
 20
1.16209201E+02
  0
VERTEX
  8
0
 62
7
 10
1.74722478E+02
 20
1.16562194E+02
  0
VERTEX
  8
0
 62
7
 10
1.74779124E+02
 20
1.16923543E+02
  0
VERTEX
  8
0
 62
7
 10
1.74813285E+02
 20
1.17290500E+02
  0
VERTEX
  8
0
 62
7
 10
1.74824701E+02
 20
1.17660270E+02
  0
VERTEX
  8
0
 62
7
 10
1.74813285E+02
 20
1.18030041E+02
  0
VERTEX
  8
0
 62
7
 10
1.74779124E+02
 20
1.18396997E+02
  0
VERTEX
  8
0
 62
7
 10
1.74722478E+02
 20
1.18758346E+02
  0
VERTEX
  8
0
 62
7
 10
1.74643779E+02
 20
1.19111339E+02
  0
VERTEX
  8
0
 62
7
 10
1.74543624E+02
 20
1.19453287E+02
  0
VERTEX
  8
0
 62
7
 10
1.74422777E+02
 20
1.19781590E+02
  0
VERTEX
  8
0
 62
7
 10
1.74282157E+02
 20
1.20093749E+02
  0
VERTEX
  8
0
 62
7
 10
1.74122834E+02
 20
1.20387387E+02
  0
VERTEX
  8
0
 62
7
 10
1.73946021E+02
 20
1.20660270E+02
  0
VERTEX
  8
0
 62
7
 10
1.73753064E+02
 20
1.20910321E+02
  0
VERTEX
  8
0
 62
7
 10
1.73545430E+02
 20
1.21135638E+02
  0
VERTEX
  8
0
 62
7
 10
1.73324701E+02
 20
1.21334505E+02
  0
VERTEX
  8
0
 62
7
 10
1.73092556E+02
 20
1.21505408E+02
  0
VERTEX
  8
0
 62
7
 10
1.72850761E+02
 20
1.21647048E+02
  0
VERTEX
  8
0
 62
7
 10
1.72601158E+02
 20
1.21758346E+02
  0
VERTEX
  8
0
 62
7
 10
1.72345646E+02
 20
1.21838455E+02
  0
VERTEX
  8
0
 62
7
 10
1.72086168E+02
 20
1.21886766E+02
  0
VERTEX
  8
0
 62
7
 10
1.71824701E+02
 20
1.21902911E+02
  0
VERTEX
  8
0
 62
7
 10
1.71563234E+02
 20
1.21886766E+02
  0
VERTEX
  8
0
 62
7
 10
1.71303756E+02
 20
1.21838455E+02
  0
VERTEX
  8
0
 62
7
 10
1.71048244E+02
 20
1.21758346E+02
  0
VERTEX
  8
0
 62
7
 10
1.70798641E+02
 20
1.21647048E+02
  0
VERTEX
  8
0
 62
7
 10
1.70556846E+02
 20
1.21505408E+02
  0
VERTEX
  8
0
 62
7
 10
1.70324701E+02
 20
1.21334505E+02
  0
VERTEX
  8
0
 62
7
 10
1.70103972E+02
 20
1.21135638E+02
  0
VERTEX
  8
0
 62
7
 10
1.69896338E+02
 20
1.20910321E+02
  0
VERTEX
  8
0
 62
7
 10
1.69703381E+02
 20
1.20660270E+02
  0
VERTEX
  8
0
 62
7
 10
1.69526568E+02
 20
1.20387387E+02
  0
VERTEX
  8
0
 62
7
 10
1.69367245E+02
 20
1.20093749E+02
  0
VERTEX
  8
0
 62
7
 10
1.69226625E+02
 20
1.19781590E+02
  0
VERTEX
  8
0
 62
7
 10
1.69105778E+02
 20
1.19453287E+02
  0
VERTEX
  8
0
 62
7
 10
1.69005623E+02
 20
1.19111339E+02
  0
VERTEX
  8
0
 62
7
 10
1.68926924E+02
 20
1.18758346E+02
  0
VERTEX
  8
0
 62
7
 10
1.68870278E+02
 20
1.18396997E+02
  0
VERTEX
  8
0
 62
7
 10
1.68836117E+02
 20
1.18030040E+02
  0
VERTEX
  8
0
 62
7
 10
1.68824701E+02
 20
1.17660270E+02
  0
VERTEX
  8
0
 62
7
 10
1.68836117E+02
 20
1.17290499E+02
  0
VERTEX
  8
0
 62
7
 10
1.68870278E+02
 20
1.16923543E+02
  0
VERTEX
  8
0
 62
7
 10
1.68926924E+02
 20
1.16562194E+02
  0
VERTEX
  8
0
 62
7
 10
1.69005623E+02
 20
1.16209201E+02
  0
VERTEX
  8
0
 62
7
 10
1.69105778E+02
 20
1.15867253E+02
  0
VERTEX
  8
0
 62
7
 10
1.69226625E+02
 20
1.15538950E+02
  0
VERTEX
  8
0
 62
7
 10
1.69367245E+02
 20
1.15226791E+02
  0
VERTEX
  8
0
 62
7
 10
1.69526568E+02
 20
1.14933153E+02
  0
VERTEX
  8
0
 62
7
 10
1.69703381E+02
 20
1.14660270E+02
  0
VERTEX
  8
0
 62
7
 10
1.69896338E+02
 20
1.14410219E+02
  0
VERTEX
  8
0
 62
7
 10
1.70103972E+02
 20
1.14184902E+02
  0
VERTEX
  8
0
 62
7
 10
1.70324701E+02
 20
1.13986035E+02
  0
VERTEX
  8
0
 62
7
 10
1.70556846E+02
 20
1.13815132E+02
  0
VERTEX
  8
0
 62
7
 10
1.70798641E+02
 20
1.13673492E+02
  0
VERTEX
  8
0
 62
7
 10
1.71048244E+02
 20
1.13562194E+02
  0
VERTEX
  8
0
 62
7
 10
1.71303756E+02
 20
1.13482085E+02
  0
VERTEX
  8
0
 62
7
 10
1.71563234E+02
 20
1.13433774E+02
  0
VERTEX
  8
0
 62
7
 10
1.71824701E+02
 20
1.13417629E+02
  0
SEQEND
  8
0
  0
POLYLINE
  8
0
 62
7
 66
1
  0
VERTEX
  8
0
 62
7
 10
1.81824701E+02
 20
1.13417629E+02
  0
VERTEX
  8
0
 62
7
 10
1.82086168E+02
 20
1.13433774E+02
  0
VERTEX
  8
0
 62
7
 10
1.82345646E+02
 20
1.13482085E+02
  0
VERTEX
  8
0
 62
7
 10
1.82601158E+02
 20
1.13562194E+02
  0
VERTEX
  8
0
 62
7
 10
1.82850761E+02
 20
1.13673492E+02
  0
VERTEX
  8
0
 62
7
 10
1.83092556E+02
 20
1.13815132E+02
  0
VERTEX
  8
0
 62
7
 10
1.83324701E+02
 20
1.13986035E+02
  0
VERTEX
  8
0
 62
7
 10
1.83545430E+02
 20
1.14184902E+02
  0
VERTEX
  8
0
 62
7
 10
1.83753064E+02
 20
1.14410219E+02
  0
VERTEX
  8
0
 62
7
 10
1.83946021E+02
 20
1.14660270E+02
  0
VERTEX
  8
0
 62
7
 10
1.84122834E+02
 20
1.14933153E+02
  0
VERTEX
  8
0
 62
7
 10
1.84282157E+02
 20
1.15226791E+02
  0
VERTEX
  8
0
 62
7
 10
1.84422777E+02
 20
1.15538950E+02
  0
VERTEX
  8
0
 62
7
 10
1.84543624E+02
 20
1.15867253E+02
  0
VERTEX
  8
0
 62
7
 10
1.84643779E+02
 20
1.16209201E+02
  0
VERTEX
  8
0
 62
7
 10
1.84722478E+02
 20
1.16562194E+02
  0
VERTEX
  8
0
 62
7
 10
1.84779124E+02
 20
1.16923543E+02
  0
VERTEX
  8
0
 62
7
 10
1.84813285E+02
 20
1.17290500E+02
  0
VERTEX
  8
0
 62
7
 10
1.84824701E+02
 20
1.17660270E+02
  0
VERTEX
  8
0
 62
7
 10
1.84813285E+02
 20
1.18030041E+02
  0
VERTEX
  8
0
 62
7
 10
1.84779124E+02
 20
1.18396997E+02
  0
VERTEX
  8
0
 62
7
 10
1.84722478E+02
 20
1.18758346E+02
  0
VERTEX
  8
0
 62
7
 10
1.84643779E+02
 20
1.19111339E+02
  0
VERTEX
  8
0
 62
7
 10
1.84543624E+02
 20
1.19453287E+02
  0
VERTEX
  8
0
 62
7
 10
1.84422777E+02
 20
1.19781590E+02
  0
VERTEX
  8
0
 62
7
 10
1.84282157E+02
 20
1.20093749E+02
  0
VERTEX
  8
0
 62
7
 10
1.84122834E+02
 20
1.20387387E+02
  0
VERTEX
  8
0
 62
7
 10
1.83946021E+02
 20
1.20660270E+02
  0
VERTEX
  8
0
 62
7
 10
1.83753064E+02
 20
1.20910321E+02
  0
VERTEX
  8
0
 62
7
 10
1.83545430E+02
 20
1.21135638E+02
  0
VERTEX
  8
0
 62
7
 10
1.83324701E+02
 20
1.21334505E+02
  0
VERTEX
  8
0
 62
7
 10
1.83092556E+02
 20
1.21505408E+02
  0
VERTEX
  8
0
 62
7
 10
1.82850761E+02
 20
1.21647048E+02
  0
VERTEX
  8
0
 62
7
 10
1.82601158E+02
 20
1.21758346E+02
  0
VERTEX
  8
0
 62
7
 10
1.82345646E+02
 20
1.21838455E+02
  0
VERTEX
  8
0
 62
7
 10
1.82086168E+02
 20
1.21886766E+02
  0
VERTEX
  8
0
 62
7
 10
1.81824701E+02
 20
1.21902911E+02
  0
VERTEX
  8
0
 62
7
 10
1.81563234E+02
 20
1.21886766E+02
  0
VERTEX
  8
0
 62
7
 10
1.81303756E+02
 20
1.21838455E+02
  0
VERTEX
  8
0
 62
7
 10
1.81048244E+02
 20
1.21758346E+02
  0
VERTEX
  8
0
 62
7
 10
1.80798641E+02
 20
1.21647048E+02
  0
VERTEX
  8
0
 62
7
 10
1.80556846E+02
 20
1.21505408E+02
  0
VERTEX
  8
0
 62
7
 10
1.80324701E+02
 20
1.21334505E+02
  0
VERTEX
  8
0
 62
7
 10
1.80103972E+02
 20
1.21135638E+02
  0
VERTEX
  8
0
 62
7
 10
1.79896338E+02
 20
1.20910321E+02
  0
VERTEX
  8
0
 62
7
 10
1.79703381E+02
 20
1.20660270E+02
  0
VERTEX
  8
0
 62
7
 10
1.79526568E+02
 20
1.20387387E+02
  0
VERTEX
  8
0
 62
7
 10
1.79367245E+02
 20
1.20093749E+02
  0
VERTEX
  8
0
 62
7
 10
1.79226625E+02
 20
1.19781590E+02
  0
VERTEX
  8
0
 62
7
 10
1.79105778E+02
 20
1.19453287E+02
  0
VERTEX
  8
0
 62
7
 10
1.79005623E+02
 20
1.19111339E+02
  0
VERTEX
  8
0
 62
7
 10
1.78926924E+02
 20
1.18758346E+02
  0
VERTEX
  8
0
 62
7
 10
1.78870278E+02
 20
1.18396997E+02
  0
VERTEX
  8
0
 62
7
 10
1.78836117E+02
 20
1.18030040E+02
  0
VERTEX
  8
0
 62
7
 10
1.78824701E+02
 20
1.17660270E+02
  0
VERTEX
  8
0
 62
7
 10
1.78836117E+02
 20
1.17290499E+02
  0
VERTEX
  8
0
 62
7
 10
1.78870278E+02
 20
1.16923543E+02
  0
VERTEX
  8
0
 62
7
 10
1.78926924E+02
 20
1.16562194E+02
  0
VERTEX
  8
0
 62
7
 10
1.79005623E+02
 20
1.16209201E+02
  0
VERTEX
  8
0
 62
7
 10
1.79105778E+02
 20
1.15867253E+02
  0
VERTEX
  8
0
 62
7
 10
1.79226625E+02
 20
1.15538950E+02
  0
VERTEX
  8
0
 62
7
 10
1.79367245E+02
 20
1.15226791E+02
  0
VERTEX
  8
0
 62
7
 10
1.79526568E+02
 20
1.14933153E+02
  0
VERTEX
  8
0
 62
7
 10
1.79703381E+02
 20
1.14660270E+02
  0
VERTEX
  8
0
 62
7
 10
1.79896338E+02
 20
1.14410219E+02
  0
VERTEX
  8
0
 62
7
 10
1.80103972E+02
 20
1.14184902E+02
  0
VERTEX
  8
0
 62
7
 10
1.80324701E+02
 20
1.13986035E+02
  0
VERTEX
  8
0
 62
7
 10
1.80556846E+02
 20
1.13815132E+02
  0
VERTEX
  8
0
 62
7
 10
1.80798641E+02
 20
1.13673492E+02
  0
VERTEX
  8
0
 62
7
 10
1.81048244E+02
 20
1.13562194E+02
  0
VERTEX
  8
0
 62
7
 10
1.81303756E+02
 20
1.13482085E+02
  0
VERTEX
  8
0
 62
7
 10
1.81563234E+02
 20
1.13433774E+02
  0
VERTEX
  8
0
 62
7
 10
1.81824701E+02
 20
1.13417629E+02
  0
SEQEND
  8
0
  0
LINE
  8
0
  6
CENTER
 62
2
 10
1.81824701E+02
 20
1.23579230E+02
 11
1.81824701E+02
 21
1.12118639E+02
  0
LINE
  8
0
  6
CENTER
 62
2
 10
1.71824701E+02
 20
1.23579230E+02
 11
1.71824701E+02
 21
1.12118639E+02
  0
LINE
  8
0
 62
7
 10
1.92824701E+02
 20
1.33291998E+02
 11
9.78247009E+01
 21
1.33291998E+02
  0
LINE
  8
0
 62
7
 10
1.18824701E+02
 20
1.06791998E+02
 11
1.98814701E+02
 21
1.06791998E+02
  0
LINE
  8
0
 62
7
 10
1.18824701E+02
 20
1.33791998E+02
 11
1.98814701E+02
 21
1.33791998E+02
  0
LINE
  8
0
 62
7
 10
1.98814701E+02
 20
1.22610017E+02
 11
1.93814701E+02
 21
1.22610017E+02
  0
LINE
  8
0
 62
7
 10
1.93814701E+02
 20
1.29681085E+02
 11
1.92824701E+02
 21
1.29681085E+02
  0
LINE
  8
0
 62
7
 10
1.93814701E+02
 20
1.25791998E+02
 11
1.92824701E+02
 21
1.25791998E+02
  0
LINE
  8
0
 62
7
 10
1.93814701E+02
 20
1.19428037E+02
 11
1.92824701E+02
 21
1.19428037E+02
  0
LINE
  8
0
 62
7
 10
1.92824701E+02
 20
1.07291998E+02
 11
9.78247009E+01
 21
1.07291998E+02
  0
LINE
  8
0
 62
7
 10
1.18824701E+02
 20
1.07291998E+02
 11
1.18824701E+02
 21
1.06791998E+02
  0
LINE
  8
0
 62
7
 10
1.98814701E+02
 20
1.33791998E+02
 11
1.98814701E+02
 21
1.06791998E+02
  0
LINE
  8
0
 62
7
 10
1.18824701E+02
 20
1.33791998E+02
 11
1.18824701E+02
 21
1.33291998E+02
  0
LINE
  8
0
  6
CENTER
 62
2
 10
9.45313676E+01
 20
1.20291998E+02
 11
2.12996129E+02
 21
1.20291998E+02
  0
LINE
  8
0
 62
7
 10
1.92824701E+02
 20
1.07291998E+02
 11
1.92824701E+02
 21
1.33291998E+02
  0
LINE
  8
0
  6
CENTER
 62
2
 10
1.22824701E+02
 20
1.29681085E+02
 11
1.22824701E+02
 21
1.09018188E+02
  0
LINE
  8
0
  6
CENTER
 62
2
 10
1.37824701E+02
 20
1.29681085E+02
 11
1.37824701E+02
 21
1.09018188E+02
  0
LINE
  8
0
  6
CENTER
 62
6
 10
1.52824701E+02
 20
1.29681085E+02
 11
1.52824701E+02
 21
1.09018188E+02
  0
CIRCLE
  8
0
 62
2
 10
1.22824701E+02
 20
1.26291998E+02
 40
2.50000000E+00
  0
CIRCLE
  8
0
 62
2
 10
1.37824701E+02
 20
1.26291998E+02
 40
2.50000000E+00
  0
CIRCLE
  8
0
 62
6
 10
1.52824701E+02
 20
1.26291998E+02
 40
2.50000000E+00
  0
CIRCLE
  8
0
 62
4
 10
1.52824701E+02
 20
1.26291998E+02
 40
2.10000000E+00
  0
CIRCLE
  8
0
 62
7
 10
1.37824701E+02
 20
1.26291998E+02
 40
2.10000000E+00
  0
CIRCLE
  8
0
 62
7
 10
1.22824701E+02
 20
1.26291998E+02
 40
2.10000000E+00
  0
LINE
  8
0
 62
7
 10
9.78247009E+01
 20
1.07291998E+02
 11
9.78247009E+01
 21
1.33291998E+02
  0
LINE
  8
0
  6
CENTER
 62
2
 10
1.17292580E+02
 20
1.26291998E+02
 11
1.56923402E+02
 21
1.26291998E+02
  0
LINE
  8
0
  6
CENTER
 62
2
 10
1.17292580E+02
 20
1.14291998E+02
 11
1.56923402E+02
 21
1.14291998E+02
  0
CIRCLE
  8
0
 62
2
 10
1.22824701E+02
 20
1.14291998E+02
 40
2.50000000E+00
  0
CIRCLE
  8
0
 62
7
 10
1.22824701E+02
 20
1.14291998E+02
 40
2.10000000E+00
  0
CIRCLE
  8
0
 62
2
 10
1.37824701E+02
 20
1.14291998E+02
 40
2.50000000E+00
  0
CIRCLE
  8
0
 62
7
 10
1.37824701E+02
 20
1.14291998E+02
 40
2.10000000E+00
  0
CIRCLE
  8
0
 62
6
 10
1.52824701E+02
 20
1.14291998E+02
 40
2.50000000E+00
  0
CIRCLE
  8
0
 62
4
 10
1.52824701E+02
 20
1.14291998E+02
 40
2.10000000E+00
  0
LINE
  8
0
 62
7
 10
1.07824701E+02
 20
1.07291998E+02
 11
1.07824701E+02
 21
1.33291998E+02
  0
LINE
  8
0
 62
7
 10
1.98814701E+02
 20
1.23155245E+02
 11
1.93814701E+02
 21
1.23155245E+02
  0
LINE
  8
0
 62
7
 10
1.98814701E+02
 20
1.17791998E+02
 11
1.92824701E+02
 21
1.17791998E+02
  0
LINE
  8
0
 62
4
 10
1.98814701E+02
 20
1.33291998E+02
 11
2.08824701E+02
 21
1.33291998E+02
  0
LINE
  8
0
 62
4
 10
1.98814701E+02
 20
1.07291998E+02
 11
2.08824701E+02
 21
1.07291998E+02
  0
LINE
  8
0
 62
4
 10
2.08824701E+02
 20
1.07291998E+02
 11
2.08824701E+02
 21
1.33291998E+02
  0
LINE
  8
0
  6
CENTER
 62
6
 10
1.99029343E+02
 20
1.27791998E+02
 11
2.09536538E+02
 21
1.27791998E+02
  0
LINE
  8
0
  6
CENTER
 62
6
 10
2.03824701E+02
 20
1.22905799E+02
 11
2.03824701E+02
 21
1.32766397E+02
  0
CIRCLE
  8
0
 62
4
 10
2.03824701E+02
 20
1.27791998E+02
 40
2.75000000E+00
  0
LINE
  8
0
  6
PHANTOM
 10
1.64574701E+02
 20
8.70298978E+01
 11
1.64574701E+02
 21
1.49545911E+02
  0
LINE
  8
0
 62
7
 10
9.78247009E+01
 20
-6.37080022E+01
 11
1.18824701E+02
 21
-6.37080022E+01
  0
LINE
  8
0
 62
7
 10
9.78247009E+01
 20
-3.77080022E+01
 11
1.18824701E+02
 21
-3.77080022E+01
  0
LINE
  8
0
 62
7
 10
1.18824701E+02
 20
-6.42080022E+01
 11
1.98814701E+02
 21
-6.42080022E+01
  0
LINE
  8
0
 62
7
 10
1.18824701E+02
 20
-3.72080022E+01
 11
1.98814701E+02
 21
-3.72080022E+01
  0
LINE
  8
0
  6
CENTER
 62
6
 10
1.89516527E+02
 20
-4.32076806E+01
 11
1.77758209E+02
 21
-4.32076806E+01
  0
LINE
  8
0
  6
CENTER
 62
6
 10
1.28622894E+02
 20
-5.82080022E+01
 11
1.41038101E+02
 21
-5.82080022E+01
  0
LINE
  8
0
  6
CENTER
 62
6
 10
1.83814701E+02
 20
-3.66388549E+01
 11
1.83814701E+02
 21
-4.93825062E+01
  0
LINE
  8
0
  6
CENTER
 62
6
 10
1.34814701E+02
 20
-5.21414410E+01
 11
1.34814701E+02
 21
-6.37026916E+01
  0
LINE
  8
0
 62
7
 10
1.98814701E+02
 20
-3.72080022E+01
 11
1.98814701E+02
 21
-3.77080022E+01
  0
LINE
  8
0
 62
7
 10
1.18824701E+02
 20
-3.72080022E+01
 11
1.18824701E+02
 21
-3.77080022E+01
  0
LINE
  8
0
  6
CENTER
 62
2
 10
9.43287702E+01
 20
-5.07080022E+01
 11
2.11023937E+02
 21
-5.07080022E+01
  0
LINE
  8
0
 62
7
 10
9.78247009E+01
 20
-3.77080022E+01
 11
9.78247009E+01
 21
-6.37080022E+01
  0
LINE
  8
0
 62
4
 10
9.98247009E+01
 20
-3.77080022E+01
 11
2.08824701E+02
 21
-3.77080022E+01
  0
LINE
  8
0
 62
4
 10
9.98247009E+01
 20
-6.37080022E+01
 11
2.08824701E+02
 21
-6.37080022E+01
  0
LINE
  8
0
 62
4
 10
9.98247009E+01
 20
-3.77080022E+01
 11
9.98247009E+01
 21
-6.37080022E+01
  0
LINE
  8
0
 62
4
 10
2.08824701E+02
 20
-3.77080022E+01
 11
2.08824701E+02
 21
-6.37080022E+01
  0
LINE
  8
0
 62
7
 10
1.18824701E+02
 20
-6.37080022E+01
 11
1.18824701E+02
 21
-6.42080022E+01
  0
LINE
  8
0
 62
7
 10
1.98814701E+02
 20
-6.37080022E+01
 11
1.98814701E+02
 21
-6.42080022E+01
  0
CIRCLE
  8
0
 62
4
 10
1.83814701E+02
 20
-4.32076806E+01
 40
4.25000000E+00
  0
CIRCLE
  8
0
 62
4
 10
1.34814701E+02
 20
-5.82080022E+01
 40
4.25000000E+00
  0
LINE
  8
0
 62
4
 10
1.83814701E+02
 20
-4.08982795E+01
 11
1.81814701E+02
 21
-4.20529800E+01
  0
LINE
  8
0
 62
4
 10
1.81814701E+02
 20
-4.20529800E+01
 11
1.81814701E+02
 21
-4.43623811E+01
  0
LINE
  8
0
 62
4
 10
1.81814701E+02
 20
-4.43623811E+01
 11
1.83814701E+02
 21
-4.55170817E+01
  0
LINE
  8
0
 62
4
 10
1.83814701E+02
 20
-4.55170817E+01
 11
1.85814701E+02
 21
-4.43623811E+01
  0
LINE
  8
0
 62
4
 10
1.85814701E+02
 20
-4.43623811E+01
 11
1.85814701E+02
 21
-4.20529800E+01
  0
LINE
  8
0
 62
4
 10
1.85814701E+02
 20
-4.20529800E+01
 11
1.83814701E+02
 21
-4.08982795E+01
  0
LINE
  8
0
 62
4
 10
1.34814701E+02
 20
-5.58986012E+01
 11
1.32814701E+02
 21
-5.70533017E+01
  0
LINE
  8
0
 62
4
 10
1.32814701E+02
 20
-5.70533017E+01
 11
1.32814701E+02
 21
-5.93627028E+01
  0
LINE
  8
0
 62
4
 10
1.32814701E+02
 20
-5.93627028E+01
 11
1.34814701E+02
 21
-6.05174033E+01
  0
LINE
  8
0
 62
4
 10
1.34814701E+02
 20
-6.05174033E+01
 11
1.36814701E+02
 21
-5.93627028E+01
  0
LINE
  8
0
 62
4
 10
1.36814701E+02
 20
-5.93627028E+01
 11
1.36814701E+02
 21
-5.70533017E+01
  0
LINE
  8
0
 62
4
 10
1.36814701E+02
 20
-5.70533017E+01
 11
1.34814701E+02
 21
-5.58986012E+01
  0
LINE
  8
0
  6
CENTER
 62
6
 10
1.09824701E+02
 20
-3.65173198E+01
 11
1.09824701E+02
 21
-4.97873576E+01
  0
LINE
  8
0
  6
CENTER
 62
6
 10
2.03824701E+02
 20
-5.33166230E+01
 11
2.03824701E+02
 21
-6.37080022E+01
  0
LINE
  8
0
  6
CENTER
 62
6
 10
1.02668805E+02
 20
-4.32080022E+01
 11
1.17209379E+02
 21
-4.32080022E+01
  0
LINE
  8
0
  6
CENTER
 62
6
 10
1.98805994E+02
 20
-5.82080022E+01
 11
2.08405596E+02
 21
-5.82080022E+01
  0
CIRCLE
  8
0
 62
4
 10
2.03824701E+02
 20
-5.82080022E+01
 40
2.75000000E+00
  0
CIRCLE
  8
0
 62
4
 10
1.09824701E+02
 20
-4.32080022E+01
 40
2.75000000E+00
  0
CIRCLE
  8
0
  6
DASHED
 62
6
 10
1.09824701E+02
 20
-4.32080022E+01
 40
4.75000000E+00
  0
CIRCLE
  8
0
 62
4
 10
1.83814701E+02
 20
-4.32076806E+01
 40
4.75000000E+00
  0
CIRCLE
  8
0
 62
4
 10
1.34814701E+02
 20
-5.82080022E+01
 40
4.75000000E+00
  0
LINE
  8
0
  6
PHANTOM
 10
1.64574701E+02
 20
-2.39580022E+01
 11
1.64574701E+02
 21
-7.66667791E+01
  0
LINE
  8
0
 62
4
 10
-4.06217772E+01
 20
-1.79247330E+02
 11
-3.73717772E+01
 21
-1.79247330E+02
  0
LINE
  8
0
 62
4
 10
-4.21217772E+01
 20
-1.76647330E+02
 11
-3.73717772E+01
 21
-1.76647330E+02
  0
LINE
  8
0
 62
4
 10
-4.58717772E+01
 20
-1.79247330E+02
 11
-4.21217772E+01
 21
-1.79247330E+02
  0
LINE
  8
0
 62
4
 10
-4.58717772E+01
 20
-1.76647330E+02
 11
-4.36217772E+01
 21
-1.76647330E+02
  0
LINE
  8
0
 62
4
 10
-6.78717772E+01
 20
-1.76097330E+02
 11
-4.58717772E+01
 21
-1.76097330E+02
  0
LINE
  8
0
 62
4
 10
-6.78717772E+01
 20
-1.76647330E+02
 11
-4.58717772E+01
 21
-1.76647330E+02
  0
LINE
  8
0
 62
4
 10
-6.71217772E+01
 20
-1.75147330E+02
 11
-6.46217772E+01
 21
-1.75147330E+02
  0
LINE
  8
0
 62
4
 10
-6.46217772E+01
 20
-1.75147330E+02
 11
-6.46217772E+01
 21
-1.75647330E+02
  0
LINE
  8
0
 62
6
 10
-6.48517772E+01
 20
-1.75147330E+02
 11
-6.48517772E+01
 21
-1.75647330E+02
  0
LINE
  8
0
 62
6
 10
-6.69017772E+01
 20
-1.75147330E+02
 11
-6.69017772E+01
 21
-1.75647330E+02
  0
LINE
  8
0
 62
4
 10
-6.71217772E+01
 20
-1.75147330E+02
 11
-6.71217772E+01
 21
-1.75647330E+02
  0
LINE
  8
0
 62
4
 10
-6.71217772E+01
 20
-1.79417330E+02
 11
-6.46217772E+01
 21
-1.79417330E+02
  0
LINE
  8
0
 62
4
 10
-6.46217772E+01
 20
-1.78237330E+02
 11
-6.46217772E+01
 21
-1.79417330E+02
  0
LINE
  8
0
 62
6
 10
-6.48517772E+01
 20
-1.78237330E+02
 11
-6.48517772E+01
 21
-1.79647330E+02
  0
LINE
  8
0
 62
6
 10
-6.69017772E+01
 20
-1.78237330E+02
 11
-6.69017772E+01
 21
-1.79647330E+02
  0
LINE
  8
0
 62
4
 10
-6.71217772E+01
 20
-1.78237330E+02
 11
-6.71217772E+01
 21
-1.79417330E+02
  0
LINE
  8
0
 62
4
 10
-6.69017772E+01
 20
-1.79647330E+02
 11
-6.71217772E+01
 21
-1.79417330E+02
  0
LINE
  8
0
 62
4
 10
-6.48517772E+01
 20
-1.79647330E+02
 11
-6.46217772E+01
 21
-1.79417330E+02
  0
LINE
  8
0
 62
4
 10
-6.69017772E+01
 20
-1.79647330E+02
 11
-6.48517772E+01
 21
-1.79647330E+02
  0
LINE
  8
0
 62
6
 10
-4.41217772E+01
 20
-1.75777330E+02
 11
-4.16217772E+01
 21
-1.80107330E+02
  0
LINE
  8
0
 62
6
 10
-4.26217772E+01
 20
-1.75777330E+02
 11
-4.01217772E+01
 21
-1.80107330E+02
  0
LINE
  8
0
 62
6
 10
-3.51417772E+01
 20
-1.75777330E+02
 11
-3.26417772E+01
 21
-1.80107330E+02
  0
LINE
  8
0
  6
CENTER
 62
6
 10
-4.71917772E+01
 20
-1.77947330E+02
 11
-3.73717772E+01
 21
-1.77947330E+02
  0
LINE
  8
0
 62
6
 10
-3.36417772E+01
 20
-1.75777330E+02
 11
-3.11417772E+01
 21
-1.80107330E+02
  0
LINE
  8
0
 62
4
 10
-3.03717772E+01
 20
-1.78647330E+02
 11
-2.73717772E+01
 21
-1.78647330E+02
  0
LINE
  8
0
 62
4
 10
-3.03717772E+01
 20
-1.78147330E+02
 11
-2.73717772E+01
 21
-1.78147330E+02
  0
LINE
  8
0
 62
4
 10
-3.03717772E+01
 20
-1.77747330E+02
 11
-2.73717772E+01
 21
-1.77747330E+02
  0
LINE
  8
0
 62
4
 10
-3.03717772E+01
 20
-1.77247330E+02
 11
-2.73717772E+01
 21
-1.77247330E+02
  0
LINE
  8
0
 62
4
 10
-3.29117772E+01
 20
-1.77047330E+02
 11
-3.03717772E+01
 21
-1.77047330E+02
  0
LINE
  8
0
 62
4
 10
-3.73717772E+01
 20
-1.77047330E+02
 11
-3.44117772E+01
 21
-1.77047330E+02
  0
LINE
  8
0
 62
4
 10
-3.18717772E+01
 20
-1.78847330E+02
 11
-3.03717772E+01
 21
-1.78847330E+02
  0
LINE
  8
0
 62
4
 10
-3.23917772E+01
 20
-1.77947330E+02
 11
-3.03717772E+01
 21
-1.77947330E+02
  0
LINE
  8
0
 62
4
 10
-3.73717772E+01
 20
-1.77947330E+02
 11
-3.38917772E+01
 21
-1.77947330E+02
  0
LINE
  8
0
 62
4
 10
-3.73717772E+01
 20
-1.78847330E+02
 11
-3.33717772E+01
 21
-1.78847330E+02
  0
LINE
  8
0
 62
4
 10
-3.03717772E+01
 20
-1.77047330E+02
 11
-3.03717772E+01
 21
-1.78847330E+02
  0
LINE
  8
0
 62
4
 10
-2.73717772E+01
 20
-1.78147330E+02
 11
-2.73717772E+01
 21
-1.78647330E+02
  0
LINE
  8
0
 62
4
 10
-2.73717772E+01
 20
-1.77247330E+02
 11
-2.73717772E+01
 21
-1.77747330E+02
  0
LINE
  8
0
  6
CENTER
 62
6
 10
-3.90517772E+01
 20
-1.78397330E+02
 11
-2.71217772E+01
 21
-1.78397330E+02
  0
LINE
  8
0
  6
CENTER
 62
6
 10
-3.91017772E+01
 20
-1.77497330E+02
 11
-2.71717772E+01
 21
-1.77497330E+02
  0
LINE
  8
0
 62
4
 10
-3.73717772E+01
 20
-1.76647330E+02
 11
-3.73717772E+01
 21
-1.79247330E+02
  0
LINE
  8
0
 62
4
 10
-6.36217772E+01
 20
-1.78687330E+02
 11
-6.31717772E+01
 21
-1.78687330E+02
  0
LINE
  8
0
 62
4
 10
-6.36717772E+01
 20
-1.79447330E+02
 11
-6.31717772E+01
 21
-1.79447330E+02
  0
LINE
  8
0
 62
4
 10
-6.36717772E+01
 20
-1.77447330E+02
 11
-6.36717772E+01
 21
-1.79447330E+02
  0
LINE
  8
0
 62
4
 10
-6.78717772E+01
 20
-1.78247330E+02
 11
-6.38717772E+01
 21
-1.78247330E+02
  0
LINE
  8
0
 62
4
 10
-6.78717772E+01
 20
-1.77447330E+02
 11
-6.78717772E+01
 21
-1.78247330E+02
  0
LINE
  8
0
 62
4
 10
-6.38717772E+01
 20
-1.77447330E+02
 11
-6.38717772E+01
 21
-1.78247330E+02
  0
LINE
  8
0
 62
4
 10
-6.36217772E+01
 20
-1.77447330E+02
 11
-6.36217772E+01
 21
-1.78687330E+02
  0
LINE
  8
0
  6
CENTER
 62
6
 10
-6.58717772E+01
 20
-1.74847330E+02
 11
-6.58717772E+01
 21
-1.81077330E+02
  0
LINE
  8
0
 62
4
 10
-6.78717772E+01
 20
-1.77447330E+02
 11
-6.36217772E+01
 21
-1.77447330E+02
  0
LINE
  8
0
 62
4
 10
-6.31717772E+01
 20
-1.78687330E+02
 11
-6.31717772E+01
 21
-1.80247330E+02
  0
LINE
  8
0
 62
4
 10
-6.78717772E+01
 20
-1.77447330E+02
 11
-6.78717772E+01
 21
-1.75647330E+02
  0
LINE
  8
0
 62
4
 10
-4.58717772E+01
 20
-1.75647330E+02
 11
-4.58717772E+01
 21
-1.80247330E+02
  0
LINE
  8
0
 62
4
 10
-6.31717772E+01
 20
-1.80247330E+02
 11
-4.58717772E+01
 21
-1.80247330E+02
  0
LINE
  8
0
 62
4
 10
-6.78717772E+01
 20
-1.75647330E+02
 11
-4.58717772E+01
 21
-1.75647330E+02
  0
LINE
  8
0
 62
4
 10
-4.06217772E+01
 20
-1.79247330E+02
 11
-3.73717772E+01
 21
-1.79247330E+02
  0
LINE
  8
0
 62
4
 10
-4.21217772E+01
 20
-1.76647330E+02
 11
-3.73717772E+01
 21
-1.76647330E+02
  0
LINE
  8
0
 62
4
 10
-4.58717772E+01
 20
-1.79247330E+02
 11
-4.21217772E+01
 21
-1.79247330E+02
  0
LINE
  8
0
 62
4
 10
-4.58717772E+01
 20
-1.76647330E+02
 11
-4.36217772E+01
 21
-1.76647330E+02
  0
LINE
  8
0
 62
4
 10
-6.78717772E+01
 20
-1.76097330E+02
 11
-4.58717772E+01
 21
-1.76097330E+02
  0
LINE
  8
0
 62
4
 10
-6.78717772E+01
 20
-1.76647330E+02
 11
-4.58717772E+01
 21
-1.76647330E+02
  0
LINE
  8
0
 62
4
 10
-6.71217772E+01
 20
-1.75147330E+02
 11
-6.46217772E+01
 21
-1.75147330E+02
  0
LINE
  8
0
 62
4
 10
-6.46217772E+01
 20
-1.75147330E+02
 11
-6.46217772E+01
 21
-1.75647330E+02
  0
LINE
  8
0
 62
6
 10
-6.48517772E+01
 20
-1.75147330E+02
 11
-6.48517772E+01
 21
-1.75647330E+02
  0
LINE
  8
0
 62
6
 10
-6.69017772E+01
 20
-1.75147330E+02
 11
-6.69017772E+01
 21
-1.75647330E+02
  0
LINE
  8
0
 62
4
 10
-6.71217772E+01
 20
-1.75147330E+02
 11
-6.71217772E+01
 21
-1.75647330E+02
  0
LINE
  8
0
 62
4
 10
-6.71217772E+01
 20
-1.79417330E+02
 11
-6.46217772E+01
 21
-1.79417330E+02
  0
LINE
  8
0
 62
4
 10
-6.46217772E+01
 20
-1.78237330E+02
 11
-6.46217772E+01
 21
-1.79417330E+02
  0
LINE
  8
0
 62
6
 10
-6.48517772E+01
 20
-1.78237330E+02
 11
-6.48517772E+01
 21
-1.79647330E+02
  0
LINE
  8
0
 62
6
 10
-6.69017772E+01
 20
-1.78237330E+02
 11
-6.69017772E+01
 21
-1.79647330E+02
  0
LINE
  8
0
 62
4
 10
-6.71217772E+01
 20
-1.78237330E+02
 11
-6.71217772E+01
 21
-1.79417330E+02
  0
LINE
  8
0
 62
4
 10
-6.69017772E+01
 20
-1.79647330E+02
 11
-6.71217772E+01
 21
-1.79417330E+02
  0
LINE
  8
0
 62
4
 10
-6.48517772E+01
 20
-1.79647330E+02
 11
-6.46217772E+01
 21
-1.79417330E+02
  0
LINE
  8
0
 62
4
 10
-6.69017772E+01
 20
-1.79647330E+02
 11
-6.48517772E+01
 21
-1.79647330E+02
  0
LINE
  8
0
 62
6
 10
-4.41217772E+01
 20
-1.75777330E+02
 11
-4.16217772E+01
 21
-1.80107330E+02
  0
LINE
  8
0
 62
6
 10
-4.26217772E+01
 20
-1.75777330E+02
 11
-4.01217772E+01
 21
-1.80107330E+02
  0
LINE
  8
0
 62
6
 10
-3.51417772E+01
 20
-1.75777330E+02
 11
-3.26417772E+01
 21
-1.80107330E+02
  0
LINE
  8
0
  6
CENTER
 62
6
 10
-4.71917772E+01
 20
-1.77947330E+02
 11
-3.73717772E+01
 21
-1.77947330E+02
  0
LINE
  8
0
 62
6
 10
-3.36417772E+01
 20
-1.75777330E+02
 11
-3.11417772E+01
 21
-1.80107330E+02
  0
LINE
  8
0
 62
4
 10
-3.03717772E+01
 20
-1.78647330E+02
 11
-2.73717772E+01
 21
-1.78647330E+02
  0
LINE
  8
0
 62
4
 10
-3.03717772E+01
 20
-1.78147330E+02
 11
-2.73717772E+01
 21
-1.78147330E+02
  0
LINE
  8
0
 62
4
 10
-3.03717772E+01
 20
-1.77747330E+02
 11
-2.73717772E+01
 21
-1.77747330E+02
  0
LINE
  8
0
 62
4
 10
-3.03717772E+01
 20
-1.77247330E+02
 11
-2.73717772E+01
 21
-1.77247330E+02
  0
LINE
  8
0
 62
4
 10
-3.29117772E+01
 20
-1.77047330E+02
 11
-3.03717772E+01
 21
-1.77047330E+02
  0
LINE
  8
0
 62
4
 10
-3.73717772E+01
 20
-1.77047330E+02
 11
-3.44117772E+01
 21
-1.77047330E+02
  0
LINE
  8
0
 62
4
 10
-3.18717772E+01
 20
-1.78847330E+02
 11
-3.03717772E+01
 21
-1.78847330E+02
  0
LINE
  8
0
 62
4
 10
-3.23917772E+01
 20
-1.77947330E+02
 11
-3.03717772E+01
 21
-1.77947330E+02
  0
LINE
  8
0
 62
4
 10
-3.73717772E+01
 20
-1.77947330E+02
 11
-3.38917772E+01
 21
-1.77947330E+02
  0
LINE
  8
0
 62
4
 10
-3.73717772E+01
 20
-1.78847330E+02
 11
-3.33717772E+01
 21
-1.78847330E+02
  0
LINE
  8
0
 62
4
 10
-3.03717772E+01
 20
-1.77047330E+02
 11
-3.03717772E+01
 21
-1.78847330E+02
  0
LINE
  8
0
 62
4
 10
-2.73717772E+01
 20
-1.78147330E+02
 11
-2.73717772E+01
 21
-1.78647330E+02
  0
LINE
  8
0
 62
4
 10
-2.73717772E+01
 20
-1.77247330E+02
 11
-2.73717772E+01
 21
-1.77747330E+02
  0
LINE
  8
0
  6
CENTER
 62
6
 10
-3.90517772E+01
 20
-1.78397330E+02
 11
-2.71217772E+01
 21
-1.78397330E+02
  0
LINE
  8
0
  6
CENTER
 62
6
 10
-3.91017772E+01
 20
-1.77497330E+02
 11
-2.71717772E+01
 21
-1.77497330E+02
  0
LINE
  8
0
 62
4
 10
-3.73717772E+01
 20
-1.76647330E+02
 11
-3.73717772E+01
 21
-1.79247330E+02
  0
LINE
  8
0
 62
4
 10
-6.36217772E+01
 20
-1.78687330E+02
 11
-6.31717772E+01
 21
-1.78687330E+02
  0
LINE
  8
0
 62
4
 10
-6.36717772E+01
 20
-1.79447330E+02
 11
-6.31717772E+01
 21
-1.79447330E+02
  0
LINE
  8
0
 62
4
 10
-6.36717772E+01
 20
-1.77447330E+02
 11
-6.36717772E+01
 21
-1.79447330E+02
  0
LINE
  8
0
 62
4
 10
-6.78717772E+01
 20
-1.78247330E+02
 11
-6.38717772E+01
 21
-1.78247330E+02
  0
LINE
  8
0
 62
4
 10
-6.78717772E+01
 20
-1.77447330E+02
 11
-6.78717772E+01
 21
-1.78247330E+02
  0
LINE
  8
0
 62
4
 10
-6.38717772E+01
 20
-1.77447330E+02
 11
-6.38717772E+01
 21
-1.78247330E+02
  0
LINE
  8
0
 62
4
 10
-6.36217772E+01
 20
-1.77447330E+02
 11
-6.36217772E+01
 21
-1.78687330E+02
  0
LINE
  8
0
  6
CENTER
 62
6
 10
-6.58717772E+01
 20
-1.74847330E+02
 11
-6.58717772E+01
 21
-1.81077330E+02
  0
LINE
  8
0
 62
4
 10
-6.78717772E+01
 20
-1.77447330E+02
 11
-6.36217772E+01
 21
-1.77447330E+02
  0
LINE
  8
0
 62
4
 10
-6.31717772E+01
 20
-1.78687330E+02
 11
-6.31717772E+01
 21
-1.80247330E+02
  0
LINE
  8
0
 62
4
 10
-6.78717772E+01
 20
-1.77447330E+02
 11
-6.78717772E+01
 21
-1.75647330E+02
  0
LINE
  8
0
 62
4
 10
-4.58717772E+01
 20
-1.75647330E+02
 11
-4.58717772E+01
 21
-1.80247330E+02
  0
LINE
  8
0
 62
4
 10
-6.31717772E+01
 20
-1.80247330E+02
 11
-4.58717772E+01
 21
-1.80247330E+02
  0
LINE
  8
0
 62
4
 10
-6.78717772E+01
 20
-1.75647330E+02
 11
-4.58717772E+01
 21
-1.75647330E+02
  0
ARC
  8
0
 62
4
 10
-1.12414504E+02
 20
-1.78197327E+02
 40
2.05000229E+00
 50
2.70000064E+02
 51
3.59999936E+02
  0
ARC
  8
0
 62
4
 10
-1.12414500E+02
 20
-1.78197327E+02
 40
2.05000229E+00
 50
1.80000064E+02
 51
2.69999936E+02
  0
LINE
  8
0
 62
4
 10
-1.13664502E+02
 20
-1.75147330E+02
 11
-1.11164502E+02
 21
-1.75147330E+02
  0
LINE
  8
0
 62
4
 10
-1.11164502E+02
 20
-1.75147330E+02
 11
-1.11164502E+02
 21
-1.75647330E+02
  0
LINE
  8
0
 62
6
 10
-1.11394502E+02
 20
-1.75147330E+02
 11
-1.11394502E+02
 21
-1.75647330E+02
  0
LINE
  8
0
 62
6
 10
-1.13434502E+02
 20
-1.75147330E+02
 11
-1.13434502E+02
 21
-1.75647330E+02
  0
LINE
  8
0
 62
4
 10
-1.13664502E+02
 20
-1.75147330E+02
 11
-1.13664502E+02
 21
-1.75647330E+02
  0
LINE
  8
0
 62
4
 10
-1.13664502E+02
 20
-1.79417330E+02
 11
-1.11164502E+02
 21
-1.79417330E+02
  0
LINE
  8
0
 62
4
 10
-1.11164502E+02
 20
-1.78237330E+02
 11
-1.11164502E+02
 21
-1.79417330E+02
  0
LINE
  8
0
 62
6
 10
-1.11394502E+02
 20
-1.78237330E+02
 11
-1.11394502E+02
 21
-1.79647330E+02
  0
LINE
  8
0
 62
6
 10
-1.13434502E+02
 20
-1.78237330E+02
 11
-1.13434502E+02
 21
-1.79647330E+02
  0
LINE
  8
0
 62
4
 10
-1.13664502E+02
 20
-1.78237330E+02
 11
-1.13664502E+02
 21
-1.79417330E+02
  0
LINE
  8
0
 62
4
 10
-1.13434502E+02
 20
-1.79647330E+02
 11
-1.13664502E+02
 21
-1.79417330E+02
  0
LINE
  8
0
 62
4
 10
-1.11394502E+02
 20
-1.79647330E+02
 11
-1.11164502E+02
 21
-1.79417330E+02
  0
LINE
  8
0
 62
4
 10
-1.13434502E+02
 20
-1.79647330E+02
 11
-1.11394502E+02
 21
-1.79647330E+02
  0
LINE
  8
0
 62
4
 10
-1.14464502E+02
 20
-1.78237330E+02
 11
-1.10364502E+02
 21
-1.78237330E+02
  0
LINE
  8
0
 62
4
 10
-1.14464502E+02
 20
-1.77447330E+02
 11
-1.10364502E+02
 21
-1.77447330E+02
  0
LINE
  8
0
 62
4
 10
-1.10364502E+02
 20
-1.76647330E+02
 11
-1.10364502E+02
 21
-1.78197330E+02
  0
LINE
  8
0
 62
4
 10
-1.10364502E+02
 20
-1.76647330E+02
 11
-1.10914502E+02
 21
-1.76097330E+02
  0
LINE
  8
0
 62
4
 10
-1.10914502E+02
 20
-1.75647330E+02
 11
-1.10914502E+02
 21
-1.76097330E+02
  0
LINE
  8
0
 62
4
 10
-1.13914502E+02
 20
-1.75647330E+02
 11
-1.10914502E+02
 21
-1.75647330E+02
  0
LINE
  8
0
 62
4
 10
-1.13914502E+02
 20
-1.75647330E+02
 11
-1.13914502E+02
 21
-1.76097330E+02
  0
LINE
  8
0
 62
4
 10
-1.14464502E+02
 20
-1.76647330E+02
 11
-1.13914502E+02
 21
-1.76097330E+02
  0
LINE
  8
0
 62
4
 10
-1.14464502E+02
 20
-1.76647330E+02
 11
-1.14464502E+02
 21
-1.78197330E+02
  0
LINE
  8
0
  6
CENTER
 62
6
 10
-1.12414502E+02
 20
-1.73597330E+02
 11
-1.12414502E+02
 21
-1.82307330E+02
  0
CIRCLE
  8
0
 62
4
 10
-6.58717619E+01
 20
-1.33097327E+02
 40
1.39999962E+00
  0
CIRCLE
  8
0
 62
4
 10
-6.58717619E+01
 20
-1.33097327E+02
 40
1.25000000E+00
  0
LINE
  8
0
 62
4
 10
-4.58717772E+01
 20
-1.34397327E+02
 11
-4.27817772E+01
 21
-1.34397327E+02
  0
LINE
  8
0
 62
4
 10
-4.58717772E+01
 20
-1.31797327E+02
 11
-4.42917772E+01
 21
-1.31797327E+02
  0
LINE
  8
0
 62
6
 10
-4.47917772E+01
 20
-1.30937327E+02
 11
-4.22917772E+01
 21
-1.35257327E+02
  0
LINE
  8
0
 62
4
 10
-6.65717772E+01
 20
-1.34157327E+02
 11
-6.49317772E+01
 21
-1.32537327E+02
  0
LINE
  8
0
 62
4
 10
-6.69217772E+01
 20
-1.33807327E+02
 11
-6.51917772E+01
 21
-1.32077327E+02
  0
LINE
  8
0
  6
CENTER
 62
6
 10
-6.58717772E+01
 20
-1.30267327E+02
 11
-6.58717772E+01
 21
-1.35847327E+02
  0
LINE
  8
0
 62
4
 10
-4.58717772E+01
 20
-1.31047327E+02
 11
-4.58717772E+01
 21
-1.35147327E+02
  0
LINE
  8
0
 62
4
 10
-6.78717772E+01
 20
-1.31047327E+02
 11
-6.78717772E+01
 21
-1.35147327E+02
  0
LINE
  8
0
 62
4
 10
-6.78717772E+01
 20
-1.31047327E+02
 11
-4.58717772E+01
 21
-1.31047327E+02
  0
LINE
  8
0
 62
4
 10
-6.78717772E+01
 20
-1.35147327E+02
 11
-4.58717772E+01
 21
-1.35147327E+02
  0
LINE
  8
0
 62
4
 10
-6.78717772E+01
 20
-1.31597327E+02
 11
-4.58717772E+01
 21
-1.31597327E+02
  0
LINE
  8
0
 62
4
 10
-6.78717772E+01
 20
-1.34597327E+02
 11
-4.58717772E+01
 21
-1.34597327E+02
  0
LINE
  8
0
  6
CENTER
 62
6
 10
-7.06717772E+01
 20
-1.33097327E+02
 11
-4.04717772E+01
 21
-1.33097327E+02
  0
LINE
  8
0
 62
4
 10
1.08220678E+02
 20
-1.67570293E+02
 11
1.08279760E+02
 21
-1.64320830E+02
  0
LINE
  8
0
 62
4
 10
1.05593840E+02
 20
-1.69022781E+02
 11
1.05680189E+02
 21
-1.64273565E+02
  0
LINE
  8
0
 62
4
 10
1.05525669E+02
 20
-1.72772161E+02
 11
1.05566572E+02
 21
-1.70522533E+02
  0
LINE
  8
0
 62
4
 10
1.08125240E+02
 20
-1.72819426E+02
 11
1.08193410E+02
 21
-1.69070045E+02
  0
LINE
  8
0
 62
4
 10
8.80621920E+01
 20
-1.78855701E+02
 11
9.05617788E+01
 21
-1.78901148E+02
  0
LINE
  8
0
 62
4
 10
9.05617788E+01
 20
-1.78901148E+02
 11
9.05526894E+01
 21
-1.79401065E+02
  0
LINE
  8
0
 62
6
 10
9.03318168E+01
 20
-1.78896967E+02
 11
9.03227274E+01
 21
-1.79396884E+02
  0
LINE
  8
0
 62
6
 10
8.82821556E+01
 20
-1.78859700E+02
 11
8.82730662E+01
 21
-1.79359618E+02
  0
LINE
  8
0
 62
4
 10
8.80621920E+01
 20
-1.78855701E+02
 11
8.80531025E+01
 21
-1.79355618E+02
  0
LINE
  8
0
 62
4
 10
8.79845684E+01
 20
-1.83124995E+02
 11
9.04841553E+01
 21
-1.83170442E+02
  0
LINE
  8
0
 62
4
 10
9.05054245E+01
 20
-1.82000636E+02
 11
9.04841553E+01
 21
-1.83170442E+02
  0
LINE
  8
0
 62
6
 10
9.02754625E+01
 20
-1.81996455E+02
 11
9.02500122E+01
 21
-1.83396223E+02
  0
LINE
  8
0
 62
6
 10
8.82258013E+01
 20
-1.81959188E+02
 11
8.82003509E+01
 21
-1.83358957E+02
  0
LINE
  8
0
 62
4
 10
8.80058376E+01
 20
-1.81955189E+02
 11
8.79845684E+01
 21
-1.83124995E+02
  0
LINE
  8
0
 62
4
 10
8.82003509E+01
 20
-1.83358957E+02
 11
8.79845684E+01
 21
-1.83124995E+02
  0
LINE
  8
0
 62
4
 10
9.02500122E+01
 20
-1.83396223E+02
 11
9.04841553E+01
 21
-1.83170442E+02
  0
LINE
  8
0
 62
4
 10
8.82003509E+01
 20
-1.83358957E+02
 11
9.02500122E+01
 21
-1.83396223E+02
  0
LINE
  8
0
 62
6
 10
1.04697624E+02
 20
-1.71006816E+02
 11
1.09072356E+02
 21
-1.68585944E+02
  0
LINE
  8
0
 62
6
 10
1.04724893E+02
 20
-1.69507064E+02
 11
1.09099624E+02
 21
-1.67086192E+02
  0
LINE
  8
0
 62
6
 10
1.04860870E+02
 20
-1.62028300E+02
 11
1.09235602E+02
 21
-1.59607428E+02
  0
LINE
  8
0
  6
CENTER
 62
6
 10
1.06801458E+02
 20
-1.74115575E+02
 11
1.06979974E+02
 21
-1.64297198E+02
  0
LINE
  8
0
 62
6
 10
1.04888138E+02
 20
-1.60528548E+02
 11
1.09262870E+02
 21
-1.58107675E+02
  0
LINE
  8
0
 62
4
 10
1.07807110E+02
 20
-1.57311080E+02
 11
1.07861647E+02
 21
-1.54311576E+02
  0
LINE
  8
0
 62
4
 10
1.07307193E+02
 20
-1.57301990E+02
 11
1.07361729E+02
 21
-1.54302486E+02
  0
LINE
  8
0
 62
4
 10
1.06907259E+02
 20
-1.57294719E+02
 11
1.06961796E+02
 21
-1.54295215E+02
  0
LINE
  8
0
 62
4
 10
1.06407342E+02
 20
-1.57285630E+02
 11
1.06461878E+02
 21
-1.54286125E+02
  0
LINE
  8
0
 62
4
 10
1.06161201E+02
 20
-1.59821574E+02
 11
1.06207375E+02
 21
-1.57281994E+02
  0
LINE
  8
0
 62
4
 10
1.06080123E+02
 20
-1.64280837E+02
 11
1.06133932E+02
 21
-1.61321326E+02
  0
LINE
  8
0
 62
4
 10
1.07979809E+02
 20
-1.58814468E+02
 11
1.08007077E+02
 21
-1.57314716E+02
  0
LINE
  8
0
 62
4
 10
1.07070505E+02
 20
-1.59318021E+02
 11
1.07107226E+02
 21
-1.57298355E+02
  0
LINE
  8
0
 62
4
 10
1.06979974E+02
 20
-1.64297198E+02
 11
1.07043237E+02
 21
-1.60817773E+02
  0
LINE
  8
0
 62
4
 10
1.07879826E+02
 20
-1.64313559E+02
 11
1.07952541E+02
 21
-1.60314220E+02
  0
LINE
  8
0
 62
4
 10
1.06207375E+02
 20
-1.57281994E+02
 11
1.08007077E+02
 21
-1.57314716E+02
  0
LINE
  8
0
 62
4
 10
1.07361729E+02
 20
-1.54302486E+02
 11
1.07861647E+02
 21
-1.54311576E+02
  0
LINE
  8
0
 62
4
 10
1.06461878E+02
 20
-1.54286125E+02
 11
1.06961796E+02
 21
-1.54295215E+02
  0
LINE
  8
0
  6
CENTER
 62
6
 10
1.07399360E+02
 20
-1.65985101E+02
 11
1.07616233E+02
 21
-1.54057072E+02
  0
LINE
  8
0
  6
CENTER
 62
6
 10
1.06498599E+02
 20
-1.66018732E+02
 11
1.06715473E+02
 21
-1.54090703E+02
  0
LINE
  8
0
 62
4
 10
1.05680189E+02
 20
-1.64273565E+02
 11
1.08279760E+02
 21
-1.64320830E+02
  0
LINE
  8
0
 62
4
 10
1.03498732E+02
 20
-1.74235555E+02
 11
1.09397757E+02
 21
-1.74342810E+02
  0
LINE
  8
0
 62
4
 10
1.03407838E+02
 20
-1.79234729E+02
 11
1.09306863E+02
 21
-1.79341984E+02
  0
LINE
  8
0
 62
4
 10
1.03421472E+02
 20
-1.78484853E+02
 11
1.09320497E+02
 21
-1.78592108E+02
  0
LINE
  8
0
 62
4
 10
8.72950460E+01
 20
-1.79791910E+02
 11
1.09291411E+02
 21
-1.80191844E+02
  0
LINE
  8
0
 62
4
 10
8.72850477E+01
 20
-1.80341819E+02
 11
1.09281412E+02
 21
-1.80741753E+02
  0
LINE
  8
0
 62
4
 10
9.15397990E+01
 20
-1.81219310E+02
 11
9.15183480E+01
 21
-1.82399115E+02
  0
LINE
  8
0
 62
4
 10
9.15183480E+01
 20
-1.82399115E+02
 11
9.19482770E+01
 21
-1.82406932E+02
  0
LINE
  8
0
 62
4
 10
9.14698106E+01
 20
-1.81218038E+02
 11
9.14334529E+01
 21
-1.83217707E+02
  0
LINE
  8
0
 62
4
 10
9.14334529E+01
 20
-1.83217707E+02
 11
9.19333703E+01
 21
-1.83226797E+02
  0
LINE
  8
0
 62
4
 10
1.03526000E+02
 20
-1.72735803E+02
 11
1.09425025E+02
 21
-1.72843058E+02
  0
LINE
  8
0
 62
4
 10
9.12698436E+01
 20
-1.81214402E+02
 11
9.12553006E+01
 21
-1.82014270E+02
  0
LINE
  8
0
 62
4
 10
8.72559616E+01
 20
-1.81941554E+02
 11
9.12553006E+01
 21
-1.82014270E+02
  0
LINE
  8
0
 62
4
 10
8.72705046E+01
 20
-1.81141687E+02
 11
9.15397990E+01
 21
-1.81219310E+02
  0
LINE
  8
0
 62
4
 10
1.03526000E+02
 20
-1.72735803E+02
 11
1.03400566E+02
 21
-1.79634663E+02
  0
LINE
  8
0
  6
CENTER
 62
6
 10
8.93161665E+01
 20
-1.78648462E+02
 11
8.92089115E+01
 21
-1.84547487E+02
  0
LINE
  8
0
 62
4
 10
9.19482770E+01
 20
-1.82406932E+02
 11
9.19188273E+01
 21
-1.84026664E+02
  0
LINE
  8
0
 62
4
 10
8.72559616E+01
 20
-1.81941554E+02
 11
8.73032265E+01
 21
-1.79341984E+02
  0
LINE
  8
0
 62
4
 10
1.09425025E+02
 20
-1.72843058E+02
 11
1.09215968E+02
 21
-1.84341158E+02
  0
LINE
  8
0
 62
4
 10
9.19188273E+01
 20
-1.84026664E+02
 11
1.09215968E+02
 21
-1.84341158E+02
  0
LINE
  8
0
 62
4
 10
8.73032265E+01
 20
-1.79341984E+02
 11
1.03400566E+02
 21
-1.79634663E+02
  0
ARC
  8
0
 62
4
 10
4.42652941E+01
 20
-1.81887073E+02
 40
2.04519835E+00
 50
2.70985958E+02
 51
3.59862852E+02
  0
ARC
  8
0
 62
4
 10
4.42604889E+01
 20
-1.81891967E+02
 40
2.05000229E+00
 50
1.80000064E+02
 51
2.69999936E+02
  0
LINE
  8
0
 62
4
 10
4.55604866E+01
 20
-1.68691969E+02
 11
4.55604866E+01
 21
-1.72441969E+02
  0
LINE
  8
0
 62
4
 10
4.29604866E+01
 20
-1.70191969E+02
 11
4.29604866E+01
 21
-1.72441969E+02
  0
LINE
  8
0
 62
4
 10
4.30104866E+01
 20
-1.78841969E+02
 11
4.55104866E+01
 21
-1.78841969E+02
  0
LINE
  8
0
 62
4
 10
4.55104866E+01
 20
-1.78841969E+02
 11
4.55104866E+01
 21
-1.79341969E+02
  0
LINE
  8
0
 62
6
 10
4.52804866E+01
 20
-1.78841969E+02
 11
4.52804866E+01
 21
-1.79341969E+02
  0
LINE
  8
0
 62
6
 10
4.32404866E+01
 20
-1.78841969E+02
 11
4.32404866E+01
 21
-1.79341969E+02
  0
LINE
  8
0
 62
4
 10
4.30104866E+01
 20
-1.78841969E+02
 11
4.30104866E+01
 21
-1.79341969E+02
  0
LINE
  8
0
 62
4
 10
4.30104866E+01
 20
-1.83111969E+02
 11
4.55104866E+01
 21
-1.83111969E+02
  0
LINE
  8
0
 62
4
 10
4.55104866E+01
 20
-1.81941969E+02
 11
4.55104866E+01
 21
-1.83111969E+02
  0
LINE
  8
0
 62
6
 10
4.52804866E+01
 20
-1.81941969E+02
 11
4.52804866E+01
 21
-1.83341969E+02
  0
LINE
  8
0
 62
6
 10
4.32404866E+01
 20
-1.81941969E+02
 11
4.32404866E+01
 21
-1.83341969E+02
  0
LINE
  8
0
 62
4
 10
4.30104866E+01
 20
-1.81941969E+02
 11
4.30104866E+01
 21
-1.83111969E+02
  0
LINE
  8
0
 62
4
 10
4.32404866E+01
 20
-1.83341969E+02
 11
4.30104866E+01
 21
-1.83111969E+02
  0
LINE
  8
0
 62
4
 10
4.52804866E+01
 20
-1.83341969E+02
 11
4.55104866E+01
 21
-1.83111969E+02
  0
LINE
  8
0
 62
4
 10
4.32404866E+01
 20
-1.83341969E+02
 11
4.52804866E+01
 21
-1.83341969E+02
  0
LINE
  8
0
 62
6
 10
4.21004866E+01
 20
-1.70691969E+02
 11
4.64204866E+01
 21
-1.68191969E+02
  0
LINE
  8
0
 62
4
 10
4.20104866E+01
 20
-1.72441969E+02
 11
4.65104866E+01
 21
-1.72441969E+02
  0
LINE
  8
0
 62
4
 10
4.22104866E+01
 20
-1.81941969E+02
 11
4.63104866E+01
 21
-1.81941969E+02
  0
LINE
  8
0
 62
4
 10
4.22104866E+01
 20
-1.81141969E+02
 11
4.63104866E+01
 21
-1.81141969E+02
  0
LINE
  8
0
 62
4
 10
4.27604866E+01
 20
-1.79341969E+02
 11
4.57604866E+01
 21
-1.79341969E+02
  0
LINE
  8
0
  6
CENTER
 62
6
 10
4.42604866E+01
 20
-1.66781969E+02
 11
4.42604866E+01
 21
-1.85401969E+02
  0
LINE
  8
0
 62
4
 10
4.65104866E+01
 20
-1.72441969E+02
 11
4.65104866E+01
 21
-1.78191969E+02
  0
LINE
  8
0
 62
4
 10
4.57604866E+01
 20
-1.78941969E+02
 11
4.65104866E+01
 21
-1.78191969E+02
  0
LINE
  8
0
 62
4
 10
4.57604866E+01
 20
-1.79791969E+02
 11
4.57604866E+01
 21
-1.78941969E+02
  0
LINE
  8
0
 62
4
 10
4.63104866E+01
 20
-1.80341969E+02
 11
4.57604866E+01
 21
-1.79791969E+02
  0
LINE
  8
0
 62
4
 10
4.63104866E+01
 20
-1.80341969E+02
 11
4.63104866E+01
 21
-1.81891969E+02
  0
LINE
  8
0
 62
4
 10
4.22104866E+01
 20
-1.80341969E+02
 11
4.22104866E+01
 21
-1.81891969E+02
  0
LINE
  8
0
 62
4
 10
4.22104866E+01
 20
-1.80341969E+02
 11
4.27604866E+01
 21
-1.79791969E+02
  0
LINE
  8
0
 62
4
 10
4.27604866E+01
 20
-1.79791969E+02
 11
4.27604866E+01
 21
-1.78941969E+02
  0
LINE
  8
0
 62
4
 10
4.27604866E+01
 20
-1.78941969E+02
 11
4.20104866E+01
 21
-1.78191969E+02
  0
LINE
  8
0
 62
4
 10
4.20104866E+01
 20
-1.72441969E+02
 11
4.20104866E+01
 21
-1.78191969E+02
  0
LINE
  8
0
 62
4
 10
4.20104866E+01
 20
-1.73941969E+02
 11
4.65104866E+01
 21
-1.73941969E+02
  0
CIRCLE
  8
0
 62
4
 10
1.06420475E+02
 20
-1.31423809E+02
 40
2.50000000E-01
  0
CIRCLE
  8
0
 62
4
 10
1.07032352E+02
 20
-1.32082966E+02
 40
2.50000000E-01
  0
CIRCLE
  8
0
 62
4
 10
1.06420475E+02
 20
-1.31423809E+02
 40
4.49999988E-01
  0
CIRCLE
  8
0
 62
4
 10
1.07032352E+02
 20
-1.32082966E+02
 40
4.49999988E-01
  0
CIRCLE
  8
0
 62
4
 10
1.06710545E+02
 20
-1.31741963E+02
 40
1.29999924E+00
  0
CIRCLE
  8
0
 62
4
 10
8.93031960E+01
 20
-1.31741963E+02
 40
1.39999962E+00
  0
CIRCLE
  8
0
 62
4
 10
8.93031960E+01
 20
-1.31741963E+02
 40
1.25000000E+00
  0
ARC
  8
0
 62
4
 10
1.06803196E+02
 20
-1.31741963E+02
 40
3.30437589E+00
 50
1.37084793E+02
 51
2.22915207E+02
  0
LINE
  8
0
 62
4
 10
8.82331960E+01
 20
-1.32381963E+02
 11
8.99431960E+01
 21
-1.30671963E+02
  0
LINE
  8
0
 62
4
 10
8.86531960E+01
 20
-1.32811963E+02
 11
9.03731960E+01
 21
-1.31101963E+02
  0
LINE
  8
0
 62
4
 10
1.09303196E+02
 20
-1.29491963E+02
 11
1.09303196E+02
 21
-1.33991963E+02
  0
LINE
  8
0
 62
4
 10
1.04383196E+02
 20
-1.33991963E+02
 11
1.09303196E+02
 21
-1.33991963E+02
  0
LINE
  8
0
 62
4
 10
1.04383196E+02
 20
-1.29491963E+02
 11
1.09303196E+02
 21
-1.29491963E+02
  0
LINE
  8
0
  6
CENTER
 62
6
 10
8.93031960E+01
 20
-1.28911963E+02
 11
8.93031960E+01
 21
-1.34491963E+02
  0
LINE
  8
0
 62
4
 10
8.73031960E+01
 20
-1.29691963E+02
 11
8.73031960E+01
 21
-1.33791963E+02
  0
LINE
  8
0
 62
4
 10
8.73031960E+01
 20
-1.29691963E+02
 11
1.04213196E+02
 21
-1.29691963E+02
  0
LINE
  8
0
 62
4
 10
8.73031960E+01
 20
-1.33791963E+02
 11
1.04213196E+02
 21
-1.33791963E+02
  0
LINE
  8
0
 62
4
 10
8.73031960E+01
 20
-1.30241963E+02
 11
1.03863196E+02
 21
-1.30241963E+02
  0
LINE
  8
0
 62
4
 10
8.73031960E+01
 20
-1.33241963E+02
 11
1.03863196E+02
 21
-1.33241963E+02
  0
LINE
  8
0
  6
CENTER
 62
6
 10
8.59831960E+01
 20
-1.31741963E+02
 11
1.10883196E+02
 21
-1.31741963E+02
  0
TEXT
  8
0
 10
1.48066889E+02
 20
1.56030225E+02
 40
4.50000000E+00
  1
STRETCH LINE
 41
1.05263158E+00
  7
MONOTXT
  0
TEXT
  8
0
 10
-1.34434457E+02
 20
1.57164249E+02
 40
4.50000000E+00
  1
STRETCH LINE
 41
1.05263158E+00
  7
MONOTXT
  0
TEXT
  8
0
 62
7
 10
-5.39760595E-01
 20
-1.07250000E+02
 40
4.50000000E+00
  1
MODEL:ZE235,255,202,201
 41
1.00000000E+00
  7
MONOTXT
  0
TEXT
  8
0
 62
7
 10
-1.57214688E+02
 20
-1.07250000E+02
 40
4.50000000E+00
  1
MODEL:ZE135,155,102,101
 41
1.00000000E+00
  7
MONOTXT
  0
TEXT
  8
0
 62
7
 10
-5.39760595E-01
 20
-1.07250000E+02
 40
4.50000000E+00
  1
MODEL:ZE235,255,202,201
 41
1.00000000E+00
  7
MONOTXT
  0
TEXT
  8
0
 62
7
 10
-1.57214688E+02
 20
-1.07250000E+02
 40
4.50000000E+00
  1
MODEL:ZE135,155,102,101
 41
1.00000000E+00
  7
MONOTXT
  0
TEXT
  8
0
 62
7
 10
1.40743646E+01
 20
1.57350000E+02
 40
6.30000019E+00
  1
MODEL:MS20*30-L
 41
1.00000015E+00
  7
MONOTXT
  0
TEXT
  8
0
 62
7
 10
-9.57578125E+01
 20
-9.32500000E+01
 40
4.50000000E+00
  1
30
 41
1.00000000E+00
  7
MONOTXT
  0
TEXT
  8
0
 62
7
 10
-1.22757812E+02
 20
-9.32500000E+01
 40
4.50000000E+00
  1
20
 41
1.00000000E+00
  7
MONOTXT
  0
TEXT
  8
0
 62
7
 10
-1.49757812E+02
 20
-9.32500000E+01
 40
4.50000000E+00
  1
10
 41
1.00000000E+00
  7
MONOTXT
  0
TEXT
  8
0
 62
7
 10
-1.74507812E+02
 20
-9.32500000E+01
 40
4.50000000E+00
  1
0
 41
1.00000000E+00
  7
MONOTXT
  0
TEXT
  8
0
 62
7
 10
-2.06007812E+02
 20
-9.32500000E+01
 40
4.50000000E+00
  1
-10
 41
1.00000000E+00
  7
MONOTXT
  0
TEXT
  8
0
 62
7
 10
-9.57578125E+01
 20
-8.52500000E+01
 40
4.50000000E+00
  1
60
 41
1.00000000E+00
  7
MONOTXT
  0
TEXT
  8
0
 62
7
 10
-2.73507812E+02
 20
-9.32500000E+01
 40
4.50000000E+00
  1
STRETCH
 41
1.00000000E+00
  7
MONOTXT
  0
TEXT
  8
0
 62
7
 10
-2.33007812E+02
 20
-9.32500000E+01
 40
4.50000000E+00
  1
-20
 41
1.00000000E+00
  7
MONOTXT
  0
TEXT
  8
0
 62
7
 10
-2.30757812E+02
 20
-8.52500000E+01
 40
4.50000000E+00
  1
10
 41
1.00000000E+00
  7
MONOTXT
  0
TEXT
  8
0
 62
7
 10
-2.71257812E+02
 20
-8.52500000E+01
 40
4.50000000E+00
  1
STROKE
 41
1.00000000E+00
  7
MONOTXT
  0
TEXT
  8
0
 62
7
 10
-1.22757812E+02
 20
-8.52500000E+01
 40
4.50000000E+00
  1
50
 41
1.00000000E+00
  7
MONOTXT
  0
TEXT
  8
0
 62
7
 10
-1.49757812E+02
 20
-8.52500000E+01
 40
4.50000000E+00
  1
40
 41
1.00000000E+00
  7
MONOTXT
  0
TEXT
  8
0
 62
7
 10
-2.73507812E+02
 20
-9.32500000E+01
 40
4.50000000E+00
  1
STRETCH
 41
1.00000000E+00
  7
MONOTXT
  0
TEXT
  8
0
 62
7
 10
-1.76757812E+02
 20
-8.52500000E+01
 40
4.50000000E+00
  1
30
 41
1.00000000E+00
  7
MONOTXT
  0
TEXT
  8
0
 62
7
 10
-2.03757812E+02
 20
-8.52500000E+01
 40
4.50000000E+00
  1
20
 41
1.00000000E+00
  7
MONOTXT
  0
TEXT
  8
0
 62
7
 10
-2.71257812E+02
 20
-8.52500000E+01
 40
4.50000000E+00
  1
STROKE
 41
1.00000000E+00
  7
MONOTXT
  0
LINE
  8
0
 62
7
 10
-7.82500000E+01
 20
-9.50000000E+01
 11
-7.82500000E+01
 21
-7.90000000E+01
  0
LINE
  8
0
 62
7
 10
-1.05250000E+02
 20
-9.50000000E+01
 11
-1.05250000E+02
 21
-7.90000000E+01
  0
LINE
  8
0
 62
7
 10
-1.32250000E+02
 20
-9.50000000E+01
 11
-1.32250000E+02
 21
-7.90000000E+01
  0
LINE
  8
0
 62
7
 10
-1.59250000E+02
 20
-9.50000000E+01
 11
-1.59250000E+02
 21
-7.90000000E+01
  0
LINE
  8
0
 62
7
 10
-1.86250000E+02
 20
-9.50000000E+01
 11
-1.86250000E+02
 21
-7.90000000E+01
  0
LINE
  8
0
 62
7
 10
-2.13250000E+02
 20
-9.50000000E+01
 11
-2.13250000E+02
 21
-7.90000000E+01
  0
LINE
  8
0
 62
7
 10
-2.40250000E+02
 20
-9.50000000E+01
 11
-2.40250000E+02
 21
-7.90000000E+01
  0
LINE
  8
0
 62
7
 10
-2.76250000E+02
 20
-9.50000000E+01
 11
-2.76250000E+02
 21
-7.90000000E+01
  0
LINE
  8
0
 62
7
 10
-2.76250000E+02
 20
-7.90000000E+01
 11
-7.82500000E+01
 21
-7.90000000E+01
  0
LINE
  8
0
 62
7
 10
-2.76250000E+02
 20
-8.70000000E+01
 11
-7.82500000E+01
 21
-8.70000000E+01
  0
LINE
  8
0
 62
7
 10
-2.76250000E+02
 20
-9.50000000E+01
 11
-7.82500000E+01
 21
-9.50000000E+01
  0
TEXT
  8
0
 62
7
 10
-2.03757812E+02
 20
-7.66553618E+01
 40
4.50000000E+00
  1
STRETCH LIST
 41
1.05263158E+00
  7
MONOTXT
  0
TEXT
  8
0
 62
7
 10
-9.67578125E+01
 20
-7.57169733E+01
 40
4.50000000E+00
  1
(mm)
 41
1.00000000E+00
  7
MONOTXT
  0
TEXT
  8
0
 62
7
 10
-2.67600562E+02
 20
1.57350000E+02
 40
6.30000019E+00
  1
MODEL:MS20*30
 41
1.00000015E+00
  7
MONOTXT
  0
LINE
  8
0
 62
7
 10
-2.81250000E+02
 20
-1.00000000E+02
 11
2.82099854E+02
 21
-1.00000000E+02
  0
LINE
  8
0
 62
7
 10
2.82099854E+02
 20
1.95500000E+02
 11
2.82099854E+02
 21
-1.95000000E+02
  0
LINE
  8
0
 62
7
 10
-2.81250000E+02
 20
1.95500000E+02
 11
2.82099854E+02
 21
1.95500000E+02
  0
LINE
  8
0
 62
7
 10
-2.81250000E+02
 20
1.95500000E+02
 11
-2.81250000E+02
 21
-1.95000000E+02
  0
LINE
  8
0
 62
7
 10
-2.81250000E+02
 20
-1.95000000E+02
 11
2.82099854E+02
 21
-1.95000000E+02
  0
LINE
  8
0
 62
7
 10
1.62099976E+02
 20
-1.75000000E+02
 11
1.62099976E+02
 21
-1.95000000E+02
  0
LINE
  8
0
 62
7
 10
1.62099976E+02
 20
-1.75000000E+02
 11
2.82099854E+02
 21
-1.75000000E+02
  0
LINE
  8
0
 62
7
 10
1.62099976E+02
 20
1.75500000E+02
 11
2.82099854E+02
 21
1.75500000E+02
  0
LINE
  8
0
 62
7
 10
-2.81250000E+02
 20
1.75500000E+02
 11
-1.61250000E+02
 21
1.75500000E+02
  0
LINE
  8
0
 62
7
 10
1.62099976E+02
 20
1.95500000E+02
 11
1.62099976E+02
 21
1.75500000E+02
  0
LINE
  8
0
 62
7
 10
-1.61250000E+02
 20
1.95500000E+02
 11
-1.61250000E+02
 21
1.75500000E+02
  0
TEXT
  8
0
 62
7
 10
1.97799690E+02
 20
1.82350000E+02
 40
6.30000019E+00
  1
Ver. 1.0
 41
1.08108124E+00
  7
MONOTXT
  0
TEXT
  8
0
 62
7
 10
1.69885276E+02
 20
-1.89500000E+02
 40
9.00000000E+00
  1
KOGANEI CORP.
 41
1.04838732E+00
  7
MONOTXT
  0
TEXT
  8
0
 62
7
 10
-2.58150288E+02
 20
1.82350000E+02
 40
6.30000019E+00
  1
MULTI SLIDER
 41
1.05263174E+00
  7
MONOTXT
  0
ENDSEC
  0
EOF
