  0
SECTION
  2
HEADER
  9
$ACADVER
  1
AC1003
  9
$EXTMIN
 10
-2.81250000E+02
 20
-1.95000000E+02
  9
$EXTMAX
 10
2.82099854E+02
 20
1.95500000E+02
  9
$LIMMIN
 10
-2.81251000E+02
 20
-1.95001000E+02
  9
$LIMMAX
 10
2.82100854E+02
 20
1.95501000E+02
  9
$SNAPUNIT
 10
1
 20
1
  9
$SNAPBASE
 10
0
 20
0
  9
$GRIDMODE
 70
0
  9
$GRIDUNIT
 10
0
 20
0
  9
$LTSCALE
 40
9.38916423E+00
  9
$TEXTSIZE
 40
3.2
  9
$DIMTAD
 70
0
  9
$LUNITS
 70
2
  9
$LUPREC
 70
4
  9
$FILLETRAD
 40
0
  9
$AUNITS
 70
0
  9
$AUPREC
 70
0
  0
ENDSEC
  0
SECTION
  2
TABLES
  0
TABLE
  2
LTYPE
 70
2
  0
LTYPE
  2
CONTINUOUS
 70
64
  3
Solid-Line
 72
65
 73
0
 40
0
  0
LTYPE
  2
DASHED
 70
64
  3
DASHED
 72
65
 73
2
 40
.75
 49
.5
 49
-.25
  0
LTYPE
  2
HIDDEN
 70
64
  3
HIDDEN
 72
65
 73
2
 40
.375
 49
.25
 49
-.125
  0
LTYPE
  2
CENTER
 70
64
  3
CENTER
 72
65
 73
4
 40
2
 49
1.25
 49
-.25
 49
.25
 49
-.25
  0
LTYPE
  2
PHANTOM
 70
64
  3
PHANTOM
 72
65
 73
6
 40
2.5
 49
1.25
 49
-.25
 49
.25
 49
-.25
 49
.25
 49
-.25
  0
ENDTAB
  0
TABLE
  2
LAYER
 70
1
  0
LAYER
  2
1
 70
0
 62
7
  6
CONTINUOUS
 0
ENDTAB
  0
TABLE
  2
STYLE
 70
2
  0
STYLE
  2
MONOTXT
 70
0
 40
0
 41
1
 50
0
 71
0
 42
.2
  3
monotxt
  0
STYLE
  2
BIGFONT
 70
0
 40
0
 41
1
 50
0
 71
0
 42
.2
  3
txt
  4
bigfont
  0
ENDTAB
  0
ENDSEC
  0
SECTION
  2
ENTITIES
  0
LINE
  8
0
  6
PHANTOM
 10
-1.25050000E+02
 20
-1.80700206E+01
 11
-1.25050000E+02
 21
8.85191902E+01
  0
LINE
  8
0
 62
7
 10
-1.60096995E+02
 20
1.43410844E+01
 11
-1.68250000E+02
 21
1.43410844E+01
  0
LINE
  8
0
 62
7
 10
-1.63020298E+02
 20
1.75410844E+01
 11
-1.68250000E+02
 21
1.75410844E+01
  0
LINE
  8
0
 62
7
 10
-1.63021712E+02
 20
3.25410844E+01
 11
-1.68250000E+02
 21
3.25410844E+01
  0
LINE
  8
0
 62
7
 10
-1.60142515E+02
 20
3.57410844E+01
 11
-1.68250000E+02
 21
3.57410844E+01
  0
LINE
  8
0
 62
7
 10
-9.82500000E+01
 20
1.43410844E+01
 11
-1.58411102E+02
 21
1.43410844E+01
  0
LINE
  8
0
 62
7
 10
-9.82500000E+01
 20
1.75410844E+01
 11
-1.55487798E+02
 21
1.75410844E+01
  0
LINE
  8
0
 62
7
 10
-9.82500000E+01
 20
3.25410844E+01
 11
-1.55486384E+02
 21
3.25410844E+01
  0
LINE
  8
0
 62
7
 10
-9.82500000E+01
 20
3.57410844E+01
 11
-1.58365581E+02
 21
3.57410844E+01
  0
CIRCLE
  8
0
 62
4
 10
-1.32250000E+02
 20
4.50338297E+01
 40
1.65000000E+00
  0
CIRCLE
  8
0
 62
6
 10
-1.32250000E+02
 20
4.50338297E+01
 40
2.00000000E+00
  0
CIRCLE
  8
0
 62
4
 10
-1.47250000E+02
 20
4.50338297E+01
 40
1.65000000E+00
  0
CIRCLE
  8
0
 62
6
 10
-1.47250000E+02
 20
4.50338297E+01
 40
2.00000000E+00
  0
CIRCLE
  8
0
 62
7
 10
-1.57250000E+02
 20
4.50338297E+01
 40
1.65000000E+00
  0
CIRCLE
  8
0
 62
2
 10
-1.57250000E+02
 20
4.50338297E+01
 40
2.00000000E+00
  0
LINE
  8
0
  6
CENTER
 62
2
 10
-1.60475001E+02
 20
4.50338297E+01
 11
-1.28871884E+02
 21
4.50338297E+01
  0
LINE
  8
0
  6
CENTER
 62
2
 10
-1.60475001E+02
 20
5.50338297E+01
 11
-1.28871884E+02
 21
5.50338297E+01
  0
LINE
  8
0
 62
7
 10
-1.82250000E+02
 20
5.90410844E+01
 11
-1.74250000E+02
 21
5.90410844E+01
  0
LINE
  8
0
 62
7
 10
-1.69250000E+02
 20
2.24760844E+01
 11
-1.69250000E+02
 21
2.74760844E+01
  0
LINE
  8
0
 62
7
 10
-1.73250000E+02
 20
3.29760844E+01
 11
-1.73250000E+02
 21
1.69760844E+01
  0
LINE
  8
0
 62
2
 10
-1.70050000E+02
 20
2.70760844E+01
 11
-1.69250000E+02
 21
2.70760844E+01
  0
LINE
  8
0
 62
2
 10
-1.70050000E+02
 20
2.28760844E+01
 11
-1.69250000E+02
 21
2.28760844E+01
  0
LINE
  8
0
 62
7
 10
-1.72800000E+02
 20
2.97260844E+01
 11
-1.70500000E+02
 21
2.97260844E+01
  0
LINE
  8
0
 62
7
 10
-1.72870000E+02
 20
2.03560844E+01
 11
-1.70430000E+02
 21
2.03560844E+01
  0
LINE
  8
0
 62
7
 10
-1.70050000E+02
 20
2.89460844E+01
 11
-1.70050000E+02
 21
2.10160844E+01
  0
LINE
  8
0
 62
7
 10
-1.73250000E+02
 20
2.89460844E+01
 11
-1.72800000E+02
 21
2.97260844E+01
  0
LINE
  8
0
 62
7
 10
-1.70500000E+02
 20
2.97260844E+01
 11
-1.70050000E+02
 21
2.89460844E+01
  0
LINE
  8
0
 62
7
 10
-1.73250000E+02
 20
2.10160844E+01
 11
-1.72870000E+02
 21
2.03560844E+01
  0
LINE
  8
0
 62
7
 10
-1.70430000E+02
 20
2.03460844E+01
 11
-1.70050000E+02
 21
2.10160844E+01
  0
LINE
  8
0
 62
7
 10
-1.72850000E+02
 20
2.72860844E+01
 11
-1.70450000E+02
 21
2.72860844E+01
  0
LINE
  8
0
 62
7
 10
-1.70450000E+02
 20
2.26660844E+01
 11
-1.72850000E+02
 21
2.26660844E+01
  0
LINE
  8
0
 62
7
 10
-1.82250000E+02
 20
1.14760844E+01
 11
-1.74250000E+02
 21
1.14760844E+01
  0
LINE
  8
0
 62
7
 10
-1.74250000E+02
 20
3.29760844E+01
 11
-1.73250000E+02
 21
3.29760844E+01
  0
LINE
  8
0
 62
7
 10
-1.74250000E+02
 20
1.69760844E+01
 11
-1.73250000E+02
 21
1.69760844E+01
  0
ARC
  8
0
 62
7
 10
-1.71920719E+02
 20
2.15110844E+01
 40
1.87003693E+00
 50
3.21856375E+02
 51
3.81436245E+01
  0
ARC
  8
0
 62
7
 10
-1.71387380E+02
 20
2.84451190E+01
 40
1.86617778E+00
 50
1.38729217E+02
 51
2.18394612E+02
  0
ARC
  8
0
 62
7
 10
-1.71920696E+02
 20
2.84449163E+01
 40
1.87238813E+00
 50
3.21763725E+02
 51
4.11124470E+01
  0
ARC
  8
0
 62
7
 10
-1.71387362E+02
 20
2.15110844E+01
 40
1.86368863E+00
 50
1.41702943E+02
 51
2.18297057E+02
  0
ARC
  8
0
 62
7
 10
-1.76920712E+02
 20
2.49760844E+01
 40
6.87067820E+00
 50
3.40353783E+02
 51
1.96462164E+01
  0
ARC
  8
0
 62
7
 10
-1.66387381E+02
 20
2.49760844E+01
 40
6.86305611E+00
 50
1.60331066E+02
 51
1.99668934E+02
  0
LINE
  8
0
 62
7
 10
-1.82250000E+02
 20
5.90410844E+01
 11
-1.82250000E+02
 21
1.14760844E+01
  0
LINE
  8
0
 62
7
 10
-1.74250000E+02
 20
5.95338297E+01
 11
-1.74250000E+02
 21
1.14760844E+01
  0
LINE
  8
0
 62
7
 10
-1.70050000E+02
 20
2.24760844E+01
 11
-1.68250000E+02
 21
2.24760844E+01
  0
LINE
  8
0
 62
7
 10
-1.70050000E+02
 20
2.74760844E+01
 11
-1.68250000E+02
 21
2.74760844E+01
  0
LINE
  8
0
 62
2
 10
-1.69250000E+02
 20
2.29760844E+01
 11
-1.68380000E+02
 21
2.24760844E+01
  0
LINE
  8
0
 62
2
 10
-1.69250000E+02
 20
2.69760844E+01
 11
-1.68380000E+02
 21
2.74760844E+01
  0
CIRCLE
  8
0
 62
7
 10
-1.57250000E+02
 20
5.50338297E+01
 40
1.65000000E+00
  0
CIRCLE
  8
0
 62
4
 10
-1.47250000E+02
 20
5.50338297E+01
 40
1.65000000E+00
  0
CIRCLE
  8
0
 62
4
 10
-1.32250000E+02
 20
5.50338297E+01
 40
1.65000000E+00
  0
CIRCLE
  8
0
 62
6
 10
-1.32250000E+02
 20
5.50338297E+01
 40
2.00000000E+00
  0
LINE
  8
0
  6
CENTER
 62
2
 10
-1.76684018E+02
 20
5.00338297E+01
 11
-9.89559213E+01
 21
5.00338297E+01
  0
CIRCLE
  8
0
 62
6
 10
-1.47250000E+02
 20
5.50338297E+01
 40
2.00000000E+00
  0
CIRCLE
  8
0
 62
2
 10
-1.57250000E+02
 20
5.50338297E+01
 40
2.00000000E+00
  0
LINE
  8
0
  6
CENTER
 62
2
 10
-1.09750000E+02
 20
5.53180870E+01
 11
-1.09750000E+02
 21
4.65846636E+01
  0
LINE
  8
0
 62
7
 10
-1.00250000E+02
 20
5.95338297E+01
 11
-1.00250000E+02
 21
4.05338297E+01
  0
LINE
  8
0
 62
7
 10
-9.82500000E+01
 20
3.95410844E+01
 11
-1.68250000E+02
 21
3.95410844E+01
  0
LINE
  8
0
 62
7
 10
-9.82500000E+01
 20
3.90410844E+01
 11
-1.68250000E+02
 21
3.90410844E+01
  0
LINE
  8
0
 62
7
 10
-1.17750000E+02
 20
4.88295958E+01
 11
-1.16970000E+02
 21
4.91480295E+01
  0
LINE
  8
0
 62
7
 10
-1.16970000E+02
 20
4.97848968E+01
 11
-1.16970000E+02
 21
4.91480295E+01
  0
LINE
  8
0
 62
7
 10
-1.17750000E+02
 20
5.01033305E+01
 11
-1.16970000E+02
 21
4.97848968E+01
  0
LINE
  8
0
 62
7
 10
-1.17750000E+02
 20
5.01033305E+01
 11
-1.18530000E+02
 21
4.97848968E+01
  0
LINE
  8
0
 62
7
 10
-1.18530000E+02
 20
4.97848968E+01
 11
-1.18530000E+02
 21
4.91480295E+01
  0
LINE
  8
0
 62
7
 10
-1.17750000E+02
 20
4.88295958E+01
 11
-1.18530000E+02
 21
4.91480295E+01
  0
LINE
  8
0
 62
7
 10
-1.09750000E+02
 20
5.01033305E+01
 11
-1.10530000E+02
 21
4.97848968E+01
  0
LINE
  8
0
 62
7
 10
-1.10530000E+02
 20
4.97848968E+01
 11
-1.10530000E+02
 21
4.91480295E+01
  0
LINE
  8
0
 62
7
 10
-1.09750000E+02
 20
4.88295958E+01
 11
-1.10530000E+02
 21
4.91480295E+01
  0
LINE
  8
0
 62
7
 10
-1.09750000E+02
 20
4.88295958E+01
 11
-1.08970000E+02
 21
4.91480295E+01
  0
LINE
  8
0
 62
7
 10
-1.09750000E+02
 20
5.01033305E+01
 11
-1.08970000E+02
 21
4.97848968E+01
  0
LINE
  8
0
 62
7
 10
-1.08970000E+02
 20
4.97848968E+01
 11
-1.08970000E+02
 21
4.91480295E+01
  0
LINE
  8
0
 62
7
 10
-1.68250000E+02
 20
8.54108437E+00
 11
-9.82500000E+01
 21
8.54108437E+00
  0
POLYLINE
  8
0
 62
7
 66
1
  0
VERTEX
  8
0
 62
7
 10
-1.18903291E+02
 20
4.83987739E+01
  0
VERTEX
  8
0
 62
7
 10
-1.18757791E+02
 20
4.83275259E+01
  0
VERTEX
  8
0
 62
7
 10
-1.18603548E+02
 20
4.82661600E+01
  0
VERTEX
  8
0
 62
7
 10
-1.18441899E+02
 20
4.82152087E+01
  0
VERTEX
  8
0
 62
7
 10
-1.18274247E+02
 20
4.81751140E+01
  0
VERTEX
  8
0
 62
7
 10
-1.18102045E+02
 20
4.81462238E+01
  0
VERTEX
  8
0
 62
7
 10
-1.17926790E+02
 20
4.81287888E+01
  0
VERTEX
  8
0
 62
7
 10
-1.17750000E+02
 20
4.81229603E+01
  0
VERTEX
  8
0
 62
7
 10
-1.17573210E+02
 20
4.81287888E+01
  0
VERTEX
  8
0
 62
7
 10
-1.17397955E+02
 20
4.81462238E+01
  0
VERTEX
  8
0
 62
7
 10
-1.17225753E+02
 20
4.81751140E+01
  0
VERTEX
  8
0
 62
7
 10
-1.17058101E+02
 20
4.82152087E+01
  0
VERTEX
  8
0
 62
7
 10
-1.16896452E+02
 20
4.82661600E+01
  0
VERTEX
  8
0
 62
7
 10
-1.16742209E+02
 20
4.83275259E+01
  0
VERTEX
  8
0
 62
7
 10
-1.16596709E+02
 20
4.83987739E+01
  0
SEQEND
  8
0
  0
POLYLINE
  8
0
 62
7
 66
1
  0
VERTEX
  8
0
 62
7
 10
-1.10903291E+02
 20
4.83987739E+01
  0
VERTEX
  8
0
 62
7
 10
-1.10757791E+02
 20
4.83275259E+01
  0
VERTEX
  8
0
 62
7
 10
-1.10603548E+02
 20
4.82661600E+01
  0
VERTEX
  8
0
 62
7
 10
-1.10441899E+02
 20
4.82152087E+01
  0
VERTEX
  8
0
 62
7
 10
-1.10274247E+02
 20
4.81751140E+01
  0
VERTEX
  8
0
 62
7
 10
-1.10102045E+02
 20
4.81462238E+01
  0
VERTEX
  8
0
 62
7
 10
-1.09926790E+02
 20
4.81287888E+01
  0
VERTEX
  8
0
 62
7
 10
-1.09750000E+02
 20
4.81229603E+01
  0
VERTEX
  8
0
 62
7
 10
-1.09573210E+02
 20
4.81287888E+01
  0
VERTEX
  8
0
 62
7
 10
-1.09397955E+02
 20
4.81462238E+01
  0
VERTEX
  8
0
 62
7
 10
-1.09225753E+02
 20
4.81751140E+01
  0
VERTEX
  8
0
 62
7
 10
-1.09058101E+02
 20
4.82152087E+01
  0
VERTEX
  8
0
 62
7
 10
-1.08896452E+02
 20
4.82661600E+01
  0
VERTEX
  8
0
 62
7
 10
-1.08742209E+02
 20
4.83275259E+01
  0
VERTEX
  8
0
 62
7
 10
-1.08596709E+02
 20
4.83987739E+01
  0
SEQEND
  8
0
  0
POLYLINE
  8
0
 62
7
 66
1
  0
VERTEX
  8
0
 62
7
 10
-1.15858226E+02
 20
4.95913435E+01
  0
VERTEX
  8
0
 62
7
 10
-1.15881603E+02
 20
4.97104837E+01
  0
VERTEX
  8
0
 62
7
 10
-1.15919956E+02
 20
4.98276681E+01
  0
VERTEX
  8
0
 62
7
 10
-1.15972977E+02
 20
4.99419573E+01
  0
VERTEX
  8
0
 62
7
 10
-1.16040242E+02
 20
5.00524352E+01
  0
VERTEX
  8
0
 62
7
 10
-1.16121211E+02
 20
5.01582164E+01
  0
VERTEX
  8
0
 62
7
 10
-1.16215235E+02
 20
5.02584530E+01
  0
VERTEX
  8
0
 62
7
 10
-1.16321561E+02
 20
5.03523415E+01
  0
VERTEX
  8
0
 62
7
 10
-1.16439336E+02
 20
5.04391295E+01
  0
VERTEX
  8
0
 62
7
 10
-1.16567616E+02
 20
5.05181212E+01
  0
VERTEX
  8
0
 62
7
 10
-1.16705374E+02
 20
5.05886835E+01
  0
VERTEX
  8
0
 62
7
 10
-1.16851505E+02
 20
5.06502509E+01
  0
VERTEX
  8
0
 62
7
 10
-1.17004837E+02
 20
5.07023298E+01
  0
VERTEX
  8
0
 62
7
 10
-1.17164143E+02
 20
5.07445029E+01
  0
VERTEX
  8
0
 62
7
 10
-1.17328144E+02
 20
5.07764321E+01
  0
VERTEX
  8
0
 62
7
 10
-1.17495526E+02
 20
5.07978615E+01
  0
VERTEX
  8
0
 62
7
 10
-1.17664948E+02
 20
5.08086193E+01
  0
VERTEX
  8
0
 62
7
 10
-1.17835052E+02
 20
5.08086193E+01
  0
VERTEX
  8
0
 62
7
 10
-1.18004474E+02
 20
5.07978615E+01
  0
VERTEX
  8
0
 62
7
 10
-1.18171856E+02
 20
5.07764321E+01
  0
VERTEX
  8
0
 62
7
 10
-1.18335857E+02
 20
5.07445029E+01
  0
VERTEX
  8
0
 62
7
 10
-1.18495163E+02
 20
5.07023298E+01
  0
VERTEX
  8
0
 62
7
 10
-1.18648495E+02
 20
5.06502509E+01
  0
VERTEX
  8
0
 62
7
 10
-1.18794626E+02
 20
5.05886835E+01
  0
VERTEX
  8
0
 62
7
 10
-1.18932384E+02
 20
5.05181212E+01
  0
VERTEX
  8
0
 62
7
 10
-1.19060664E+02
 20
5.04391295E+01
  0
VERTEX
  8
0
 62
7
 10
-1.19178439E+02
 20
5.03523415E+01
  0
VERTEX
  8
0
 62
7
 10
-1.19284765E+02
 20
5.02584530E+01
  0
VERTEX
  8
0
 62
7
 10
-1.19378789E+02
 20
5.01582164E+01
  0
VERTEX
  8
0
 62
7
 10
-1.19459758E+02
 20
5.00524352E+01
  0
VERTEX
  8
0
 62
7
 10
-1.19527023E+02
 20
4.99419573E+01
  0
VERTEX
  8
0
 62
7
 10
-1.19580044E+02
 20
4.98276681E+01
  0
VERTEX
  8
0
 62
7
 10
-1.19618397E+02
 20
4.97104837E+01
  0
VERTEX
  8
0
 62
7
 10
-1.19641774E+02
 20
4.95913435E+01
  0
SEQEND
  8
0
  0
POLYLINE
  8
0
 62
7
 66
1
  0
VERTEX
  8
0
 62
7
 10
-1.07858226E+02
 20
4.95913435E+01
  0
VERTEX
  8
0
 62
7
 10
-1.07881603E+02
 20
4.97104837E+01
  0
VERTEX
  8
0
 62
7
 10
-1.07919956E+02
 20
4.98276681E+01
  0
VERTEX
  8
0
 62
7
 10
-1.07972977E+02
 20
4.99419573E+01
  0
VERTEX
  8
0
 62
7
 10
-1.08040242E+02
 20
5.00524352E+01
  0
VERTEX
  8
0
 62
7
 10
-1.08121211E+02
 20
5.01582164E+01
  0
VERTEX
  8
0
 62
7
 10
-1.08215235E+02
 20
5.02584530E+01
  0
VERTEX
  8
0
 62
7
 10
-1.08321561E+02
 20
5.03523415E+01
  0
VERTEX
  8
0
 62
7
 10
-1.08439336E+02
 20
5.04391295E+01
  0
VERTEX
  8
0
 62
7
 10
-1.08567616E+02
 20
5.05181212E+01
  0
VERTEX
  8
0
 62
7
 10
-1.08705374E+02
 20
5.05886835E+01
  0
VERTEX
  8
0
 62
7
 10
-1.08851505E+02
 20
5.06502509E+01
  0
VERTEX
  8
0
 62
7
 10
-1.09004837E+02
 20
5.07023298E+01
  0
VERTEX
  8
0
 62
7
 10
-1.09164143E+02
 20
5.07445029E+01
  0
VERTEX
  8
0
 62
7
 10
-1.09328144E+02
 20
5.07764321E+01
  0
VERTEX
  8
0
 62
7
 10
-1.09495526E+02
 20
5.07978615E+01
  0
VERTEX
  8
0
 62
7
 10
-1.09664948E+02
 20
5.08086193E+01
  0
VERTEX
  8
0
 62
7
 10
-1.09835052E+02
 20
5.08086193E+01
  0
VERTEX
  8
0
 62
7
 10
-1.10004474E+02
 20
5.07978615E+01
  0
VERTEX
  8
0
 62
7
 10
-1.10171856E+02
 20
5.07764321E+01
  0
VERTEX
  8
0
 62
7
 10
-1.10335857E+02
 20
5.07445029E+01
  0
VERTEX
  8
0
 62
7
 10
-1.10495163E+02
 20
5.07023298E+01
  0
VERTEX
  8
0
 62
7
 10
-1.10648495E+02
 20
5.06502509E+01
  0
VERTEX
  8
0
 62
7
 10
-1.10794626E+02
 20
5.05886835E+01
  0
VERTEX
  8
0
 62
7
 10
-1.10932384E+02
 20
5.05181212E+01
  0
VERTEX
  8
0
 62
7
 10
-1.11060664E+02
 20
5.04391295E+01
  0
VERTEX
  8
0
 62
7
 10
-1.11178439E+02
 20
5.03523415E+01
  0
VERTEX
  8
0
 62
7
 10
-1.11284765E+02
 20
5.02584530E+01
  0
VERTEX
  8
0
 62
7
 10
-1.11378789E+02
 20
5.01582164E+01
  0
VERTEX
  8
0
 62
7
 10
-1.11459758E+02
 20
5.00524352E+01
  0
VERTEX
  8
0
 62
7
 10
-1.11527023E+02
 20
4.99419573E+01
  0
VERTEX
  8
0
 62
7
 10
-1.11580044E+02
 20
4.98276681E+01
  0
VERTEX
  8
0
 62
7
 10
-1.11618397E+02
 20
4.97104837E+01
  0
VERTEX
  8
0
 62
7
 10
-1.11641774E+02
 20
4.95913435E+01
  0
SEQEND
  8
0
  0
LINE
  8
0
  6
CENTER
 62
2
 10
-1.06704085E+02
 20
4.94664632E+01
 11
-1.21385386E+02
 21
4.94664632E+01
  0
POLYLINE
  8
0
 62
7
 66
1
  0
VERTEX
  8
0
 62
7
 10
-1.17750000E+02
 20
4.79108282E+01
  0
VERTEX
  8
0
 62
7
 10
-1.17566973E+02
 20
4.79221294E+01
  0
VERTEX
  8
0
 62
7
 10
-1.17385339E+02
 20
4.79559469E+01
  0
VERTEX
  8
0
 62
7
 10
-1.17206480E+02
 20
4.80120234E+01
  0
VERTEX
  8
0
 62
7
 10
-1.17031758E+02
 20
4.80899320E+01
  0
VERTEX
  8
0
 62
7
 10
-1.16862502E+02
 20
4.81890799E+01
  0
VERTEX
  8
0
 62
7
 10
-1.16700000E+02
 20
4.83087125E+01
  0
VERTEX
  8
0
 62
7
 10
-1.16545489E+02
 20
4.84479192E+01
  0
VERTEX
  8
0
 62
7
 10
-1.16400146E+02
 20
4.86056408E+01
  0
VERTEX
  8
0
 62
7
 10
-1.16265076E+02
 20
4.87806767E+01
  0
VERTEX
  8
0
 62
7
 10
-1.16141307E+02
 20
4.89716949E+01
  0
VERTEX
  8
0
 62
7
 10
-1.16029781E+02
 20
4.91772416E+01
  0
VERTEX
  8
0
 62
7
 10
-1.15931347E+02
 20
4.93957525E+01
  0
VERTEX
  8
0
 62
7
 10
-1.15846754E+02
 20
4.96255645E+01
  0
VERTEX
  8
0
 62
7
 10
-1.15776645E+02
 20
4.98649287E+01
  0
VERTEX
  8
0
 62
7
 10
-1.15721556E+02
 20
5.01120234E+01
  0
VERTEX
  8
0
 62
7
 10
-1.15681904E+02
 20
5.03649679E+01
  0
VERTEX
  8
0
 62
7
 10
-1.15657991E+02
 20
5.06218374E+01
  0
VERTEX
  8
0
 62
7
 10
-1.15650000E+02
 20
5.08806767E+01
  0
VERTEX
  8
0
 62
7
 10
-1.15657991E+02
 20
5.11395161E+01
  0
VERTEX
  8
0
 62
7
 10
-1.15681904E+02
 20
5.13963855E+01
  0
VERTEX
  8
0
 62
7
 10
-1.15721556E+02
 20
5.16493300E+01
  0
VERTEX
  8
0
 62
7
 10
-1.15776645E+02
 20
5.18964247E+01
  0
VERTEX
  8
0
 62
7
 10
-1.15846754E+02
 20
5.21357889E+01
  0
VERTEX
  8
0
 62
7
 10
-1.15931347E+02
 20
5.23656009E+01
  0
VERTEX
  8
0
 62
7
 10
-1.16029781E+02
 20
5.25841118E+01
  0
VERTEX
  8
0
 62
7
 10
-1.16141307E+02
 20
5.27896585E+01
  0
VERTEX
  8
0
 62
7
 10
-1.16265076E+02
 20
5.29806767E+01
  0
VERTEX
  8
0
 62
7
 10
-1.16400146E+02
 20
5.31557126E+01
  0
VERTEX
  8
0
 62
7
 10
-1.16545489E+02
 20
5.33134342E+01
  0
VERTEX
  8
0
 62
7
 10
-1.16700000E+02
 20
5.34526409E+01
  0
VERTEX
  8
0
 62
7
 10
-1.16862502E+02
 20
5.35722735E+01
  0
VERTEX
  8
0
 62
7
 10
-1.17031758E+02
 20
5.36714214E+01
  0
VERTEX
  8
0
 62
7
 10
-1.17206480E+02
 20
5.37493300E+01
  0
VERTEX
  8
0
 62
7
 10
-1.17385339E+02
 20
5.38054065E+01
  0
VERTEX
  8
0
 62
7
 10
-1.17566973E+02
 20
5.38392240E+01
  0
VERTEX
  8
0
 62
7
 10
-1.17750000E+02
 20
5.38505252E+01
  0
VERTEX
  8
0
 62
7
 10
-1.17933027E+02
 20
5.38392240E+01
  0
VERTEX
  8
0
 62
7
 10
-1.18114661E+02
 20
5.38054065E+01
  0
VERTEX
  8
0
 62
7
 10
-1.18293520E+02
 20
5.37493300E+01
  0
VERTEX
  8
0
 62
7
 10
-1.18468242E+02
 20
5.36714214E+01
  0
VERTEX
  8
0
 62
7
 10
-1.18637498E+02
 20
5.35722735E+01
  0
VERTEX
  8
0
 62
7
 10
-1.18800000E+02
 20
5.34526409E+01
  0
VERTEX
  8
0
 62
7
 10
-1.18954511E+02
 20
5.33134342E+01
  0
VERTEX
  8
0
 62
7
 10
-1.19099854E+02
 20
5.31557126E+01
  0
VERTEX
  8
0
 62
7
 10
-1.19234924E+02
 20
5.29806767E+01
  0
VERTEX
  8
0
 62
7
 10
-1.19358693E+02
 20
5.27896585E+01
  0
VERTEX
  8
0
 62
7
 10
-1.19470219E+02
 20
5.25841118E+01
  0
VERTEX
  8
0
 62
7
 10
-1.19568653E+02
 20
5.23656009E+01
  0
VERTEX
  8
0
 62
7
 10
-1.19653246E+02
 20
5.21357889E+01
  0
VERTEX
  8
0
 62
7
 10
-1.19723355E+02
 20
5.18964247E+01
  0
VERTEX
  8
0
 62
7
 10
-1.19778444E+02
 20
5.16493300E+01
  0
VERTEX
  8
0
 62
7
 10
-1.19818096E+02
 20
5.13963855E+01
  0
VERTEX
  8
0
 62
7
 10
-1.19842009E+02
 20
5.11395160E+01
  0
VERTEX
  8
0
 62
7
 10
-1.19850000E+02
 20
5.08806767E+01
  0
VERTEX
  8
0
 62
7
 10
-1.19842009E+02
 20
5.06218373E+01
  0
VERTEX
  8
0
 62
7
 10
-1.19818096E+02
 20
5.03649679E+01
  0
VERTEX
  8
0
 62
7
 10
-1.19778444E+02
 20
5.01120233E+01
  0
VERTEX
  8
0
 62
7
 10
-1.19723355E+02
 20
4.98649287E+01
  0
VERTEX
  8
0
 62
7
 10
-1.19653246E+02
 20
4.96255645E+01
  0
VERTEX
  8
0
 62
7
 10
-1.19568653E+02
 20
4.93957525E+01
  0
VERTEX
  8
0
 62
7
 10
-1.19470219E+02
 20
4.91772416E+01
  0
VERTEX
  8
0
 62
7
 10
-1.19358693E+02
 20
4.89716949E+01
  0
VERTEX
  8
0
 62
7
 10
-1.19234924E+02
 20
4.87806767E+01
  0
VERTEX
  8
0
 62
7
 10
-1.19099854E+02
 20
4.86056408E+01
  0
VERTEX
  8
0
 62
7
 10
-1.18954511E+02
 20
4.84479192E+01
  0
VERTEX
  8
0
 62
7
 10
-1.18800000E+02
 20
4.83087125E+01
  0
VERTEX
  8
0
 62
7
 10
-1.18637498E+02
 20
4.81890799E+01
  0
VERTEX
  8
0
 62
7
 10
-1.18468242E+02
 20
4.80899320E+01
  0
VERTEX
  8
0
 62
7
 10
-1.18293520E+02
 20
4.80120234E+01
  0
VERTEX
  8
0
 62
7
 10
-1.18114661E+02
 20
4.79559469E+01
  0
VERTEX
  8
0
 62
7
 10
-1.17933027E+02
 20
4.79221294E+01
  0
VERTEX
  8
0
 62
7
 10
-1.17750000E+02
 20
4.79108282E+01
  0
SEQEND
  8
0
  0
POLYLINE
  8
0
 62
7
 66
1
  0
VERTEX
  8
0
 62
7
 10
-1.09750000E+02
 20
4.79108282E+01
  0
VERTEX
  8
0
 62
7
 10
-1.09566973E+02
 20
4.79221294E+01
  0
VERTEX
  8
0
 62
7
 10
-1.09385339E+02
 20
4.79559469E+01
  0
VERTEX
  8
0
 62
7
 10
-1.09206480E+02
 20
4.80120234E+01
  0
VERTEX
  8
0
 62
7
 10
-1.09031758E+02
 20
4.80899320E+01
  0
VERTEX
  8
0
 62
7
 10
-1.08862502E+02
 20
4.81890799E+01
  0
VERTEX
  8
0
 62
7
 10
-1.08700000E+02
 20
4.83087125E+01
  0
VERTEX
  8
0
 62
7
 10
-1.08545489E+02
 20
4.84479192E+01
  0
VERTEX
  8
0
 62
7
 10
-1.08400146E+02
 20
4.86056408E+01
  0
VERTEX
  8
0
 62
7
 10
-1.08265076E+02
 20
4.87806767E+01
  0
VERTEX
  8
0
 62
7
 10
-1.08141307E+02
 20
4.89716949E+01
  0
VERTEX
  8
0
 62
7
 10
-1.08029781E+02
 20
4.91772416E+01
  0
VERTEX
  8
0
 62
7
 10
-1.07931347E+02
 20
4.93957525E+01
  0
VERTEX
  8
0
 62
7
 10
-1.07846754E+02
 20
4.96255645E+01
  0
VERTEX
  8
0
 62
7
 10
-1.07776645E+02
 20
4.98649287E+01
  0
VERTEX
  8
0
 62
7
 10
-1.07721556E+02
 20
5.01120234E+01
  0
VERTEX
  8
0
 62
7
 10
-1.07681904E+02
 20
5.03649679E+01
  0
VERTEX
  8
0
 62
7
 10
-1.07657991E+02
 20
5.06218374E+01
  0
VERTEX
  8
0
 62
7
 10
-1.07650000E+02
 20
5.08806767E+01
  0
VERTEX
  8
0
 62
7
 10
-1.07657991E+02
 20
5.11395161E+01
  0
VERTEX
  8
0
 62
7
 10
-1.07681904E+02
 20
5.13963855E+01
  0
VERTEX
  8
0
 62
7
 10
-1.07721556E+02
 20
5.16493300E+01
  0
VERTEX
  8
0
 62
7
 10
-1.07776645E+02
 20
5.18964247E+01
  0
VERTEX
  8
0
 62
7
 10
-1.07846754E+02
 20
5.21357889E+01
  0
VERTEX
  8
0
 62
7
 10
-1.07931347E+02
 20
5.23656009E+01
  0
VERTEX
  8
0
 62
7
 10
-1.08029781E+02
 20
5.25841118E+01
  0
VERTEX
  8
0
 62
7
 10
-1.08141307E+02
 20
5.27896585E+01
  0
VERTEX
  8
0
 62
7
 10
-1.08265076E+02
 20
5.29806767E+01
  0
VERTEX
  8
0
 62
7
 10
-1.08400146E+02
 20
5.31557126E+01
  0
VERTEX
  8
0
 62
7
 10
-1.08545489E+02
 20
5.33134342E+01
  0
VERTEX
  8
0
 62
7
 10
-1.08700000E+02
 20
5.34526409E+01
  0
VERTEX
  8
0
 62
7
 10
-1.08862502E+02
 20
5.35722735E+01
  0
VERTEX
  8
0
 62
7
 10
-1.09031758E+02
 20
5.36714214E+01
  0
VERTEX
  8
0
 62
7
 10
-1.09206480E+02
 20
5.37493300E+01
  0
VERTEX
  8
0
 62
7
 10
-1.09385339E+02
 20
5.38054065E+01
  0
VERTEX
  8
0
 62
7
 10
-1.09566973E+02
 20
5.38392240E+01
  0
VERTEX
  8
0
 62
7
 10
-1.09750000E+02
 20
5.38505252E+01
  0
VERTEX
  8
0
 62
7
 10
-1.09933027E+02
 20
5.38392240E+01
  0
VERTEX
  8
0
 62
7
 10
-1.10114661E+02
 20
5.38054065E+01
  0
VERTEX
  8
0
 62
7
 10
-1.10293520E+02
 20
5.37493300E+01
  0
VERTEX
  8
0
 62
7
 10
-1.10468242E+02
 20
5.36714214E+01
  0
VERTEX
  8
0
 62
7
 10
-1.10637498E+02
 20
5.35722735E+01
  0
VERTEX
  8
0
 62
7
 10
-1.10800000E+02
 20
5.34526409E+01
  0
VERTEX
  8
0
 62
7
 10
-1.10954511E+02
 20
5.33134342E+01
  0
VERTEX
  8
0
 62
7
 10
-1.11099854E+02
 20
5.31557126E+01
  0
VERTEX
  8
0
 62
7
 10
-1.11234924E+02
 20
5.29806767E+01
  0
VERTEX
  8
0
 62
7
 10
-1.11358693E+02
 20
5.27896585E+01
  0
VERTEX
  8
0
 62
7
 10
-1.11470219E+02
 20
5.25841118E+01
  0
VERTEX
  8
0
 62
7
 10
-1.11568653E+02
 20
5.23656009E+01
  0
VERTEX
  8
0
 62
7
 10
-1.11653246E+02
 20
5.21357889E+01
  0
VERTEX
  8
0
 62
7
 10
-1.11723355E+02
 20
5.18964247E+01
  0
VERTEX
  8
0
 62
7
 10
-1.11778444E+02
 20
5.16493300E+01
  0
VERTEX
  8
0
 62
7
 10
-1.11818096E+02
 20
5.13963855E+01
  0
VERTEX
  8
0
 62
7
 10
-1.11842009E+02
 20
5.11395160E+01
  0
VERTEX
  8
0
 62
7
 10
-1.11850000E+02
 20
5.08806767E+01
  0
VERTEX
  8
0
 62
7
 10
-1.11842009E+02
 20
5.06218373E+01
  0
VERTEX
  8
0
 62
7
 10
-1.11818096E+02
 20
5.03649679E+01
  0
VERTEX
  8
0
 62
7
 10
-1.11778444E+02
 20
5.01120233E+01
  0
VERTEX
  8
0
 62
7
 10
-1.11723355E+02
 20
4.98649287E+01
  0
VERTEX
  8
0
 62
7
 10
-1.11653246E+02
 20
4.96255645E+01
  0
VERTEX
  8
0
 62
7
 10
-1.11568653E+02
 20
4.93957525E+01
  0
VERTEX
  8
0
 62
7
 10
-1.11470219E+02
 20
4.91772416E+01
  0
VERTEX
  8
0
 62
7
 10
-1.11358693E+02
 20
4.89716949E+01
  0
VERTEX
  8
0
 62
7
 10
-1.11234924E+02
 20
4.87806767E+01
  0
VERTEX
  8
0
 62
7
 10
-1.11099854E+02
 20
4.86056408E+01
  0
VERTEX
  8
0
 62
7
 10
-1.10954511E+02
 20
4.84479192E+01
  0
VERTEX
  8
0
 62
7
 10
-1.10800000E+02
 20
4.83087125E+01
  0
VERTEX
  8
0
 62
7
 10
-1.10637498E+02
 20
4.81890799E+01
  0
VERTEX
  8
0
 62
7
 10
-1.10468242E+02
 20
4.80899320E+01
  0
VERTEX
  8
0
 62
7
 10
-1.10293520E+02
 20
4.80120234E+01
  0
VERTEX
  8
0
 62
7
 10
-1.10114661E+02
 20
4.79559469E+01
  0
VERTEX
  8
0
 62
7
 10
-1.09933027E+02
 20
4.79221294E+01
  0
VERTEX
  8
0
 62
7
 10
-1.09750000E+02
 20
4.79108282E+01
  0
SEQEND
  8
0
  0
LINE
  8
0
  6
CENTER
 62
2
 10
-1.17750000E+02
 20
5.53180870E+01
 11
-1.17750000E+02
 21
4.65846636E+01
  0
LINE
  8
0
 62
7
 10
-1.68250000E+02
 20
4.05338297E+01
 11
-1.68250000E+02
 21
8.54108437E+00
  0
CIRCLE
  8
0
 62
7
 10
-1.59254048E+02
 20
1.80464097E+01
 40
3.79999924E+00
  0
CIRCLE
  8
0
 62
7
 10
-1.59254048E+02
 20
3.20464097E+01
 40
3.79999924E+00
  0
CIRCLE
  8
0
 62
7
 10
-1.59254048E+02
 20
1.80464097E+01
 40
2.25000000E+00
  0
CIRCLE
  8
0
 62
7
 10
-1.59254048E+02
 20
3.20464097E+01
 40
2.25000000E+00
  0
LINE
  8
0
  6
CENTER
 62
2
 10
-1.64311794E+02
 20
1.80410844E+01
 11
-1.54365868E+02
 21
1.80410844E+01
  0
LINE
  8
0
  6
CENTER
 62
2
 10
-1.64311794E+02
 20
3.20410844E+01
 11
-1.54365868E+02
 21
3.20410844E+01
  0
LINE
  8
0
  6
CENTER
 62
2
 10
-1.59250000E+02
 20
1.18910844E+01
 11
-1.59250000E+02
 21
3.81910844E+01
  0
LINE
  8
0
 62
7
 10
-9.82500000E+01
 20
8.54108437E+00
 11
-9.82500000E+01
 21
5.11268708E+01
  0
LINE
  8
0
  6
CENTER
 62
2
 10
-1.86697311E+02
 20
2.50410844E+01
 11
-9.32289177E+01
 21
2.50410844E+01
  0
LINE
  8
0
 62
7
 10
-1.00250000E+02
 20
4.33410844E+01
 11
-9.82500000E+01
 21
4.33410844E+01
  0
LINE
  8
0
 62
7
 10
-9.82500000E+01
 20
5.11268708E+01
 11
-1.00250000E+02
 21
5.11268708E+01
  0
LINE
  8
0
  6
CENTER
 62
2
 10
-1.57250000E+02
 20
5.84978809E+01
 11
-1.57250000E+02
 21
4.17816485E+01
  0
LINE
  8
0
  6
CENTER
 62
6
 10
-1.47250000E+02
 20
5.84978809E+01
 11
-1.47250000E+02
 21
4.17816485E+01
  0
LINE
  8
0
  6
CENTER
 62
6
 10
-1.32250000E+02
 20
5.84978809E+01
 11
-1.32250000E+02
 21
4.16244191E+01
  0
LINE
  8
0
 62
7
 10
-1.00250000E+02
 20
5.95338297E+01
 11
-1.74250000E+02
 21
5.95338297E+01
  0
LINE
  8
0
 62
7
 10
-9.82500000E+01
 20
2.21410844E+01
 11
-9.60800000E+01
 21
2.21410844E+01
  0
LINE
  8
0
 62
7
 10
-9.82500000E+01
 20
2.79410844E+01
 11
-9.60800000E+01
 21
2.79410844E+01
  0
LINE
  8
0
 62
7
 10
-9.82500000E+01
 20
2.36010844E+01
 11
-9.60800000E+01
 21
2.36010844E+01
  0
LINE
  8
0
 62
7
 10
-9.82500000E+01
 20
2.64810844E+01
 11
-9.60800000E+01
 21
2.64810844E+01
  0
ARC
  8
0
 62
7
 10
-1.00471948E+02
 20
2.50553507E+01
 40
4.61756702E+00
 50
6.03826034E+00
 51
1.79846964E+01
  0
ARC
  8
0
 62
7
 10
-1.00474148E+02
 20
2.50272860E+01
 40
4.61980348E+00
 50
3.42018206E+02
 51
3.53958837E+02
  0
ARC
  8
0
 62
7
 10
-9.71079767E+01
 20
2.72110844E+01
 40
1.26080775E+00
 50
3.24620190E+02
 51
3.53798103E+01
  0
ARC
  8
0
 62
7
 10
-9.71079651E+01
 20
2.28710844E+01
 40
1.26079824E+00
 50
3.24619883E+02
 51
3.53801169E+01
  0
LINE
  8
0
 62
7
 10
-9.58500000E+01
 20
2.45410844E+01
 11
-9.58500000E+01
 21
2.25410844E+01
  0
LINE
  8
0
 62
7
 10
-9.63500000E+01
 20
2.55410844E+01
 11
-9.63500000E+01
 21
2.45410844E+01
  0
LINE
  8
0
 62
7
 10
-9.63500000E+01
 20
2.45410844E+01
 11
-9.58500000E+01
 21
2.45410844E+01
  0
LINE
  8
0
 62
7
 10
-9.63500000E+01
 20
2.55410844E+01
 11
-9.58500000E+01
 21
2.55410844E+01
  0
LINE
  8
0
 62
7
 10
-9.60800000E+01
 20
2.21410844E+01
 11
-9.58500000E+01
 21
2.25410844E+01
  0
LINE
  8
0
 62
7
 10
-9.60800000E+01
 20
2.79410844E+01
 11
-9.58500000E+01
 21
2.75410844E+01
  0
LINE
  8
0
 62
7
 10
-9.58500000E+01
 20
2.75410844E+01
 11
-9.58500000E+01
 21
2.55410844E+01
  0
LINE
  8
0
 62
7
 10
-1.00250000E+02
 20
4.05338297E+01
 11
-1.74250000E+02
 21
4.05338297E+01
  0
LINE
  8
0
 62
7
 10
-2.41245961E+02
 20
2.27263580E+01
 11
-2.37245961E+02
 21
2.04169569E+01
  0
LINE
  8
0
 62
7
 10
-2.37245961E+02
 20
2.96545612E+01
 11
-2.33245961E+02
 21
2.73451601E+01
  0
LINE
  8
0
 62
7
 10
-2.37245961E+02
 20
2.04169569E+01
 11
-2.33245961E+02
 21
2.27263580E+01
  0
LINE
  8
0
 62
7
 10
-2.41245961E+02
 20
2.73451601E+01
 11
-2.37245961E+02
 21
2.96545612E+01
  0
LINE
  8
0
  6
CENTER
 62
2
 10
-2.37250000E+02
 20
6.17649559E+01
 11
-2.37250000E+02
 21
6.53571954E+00
  0
ARC
  8
0
 62
7
 10
-2.46750000E+02
 20
5.01268708E+01
 40
1.00000000E+00
 50
1.23463041E+02
 51
1.80000000E+02
  0
LINE
  8
0
 62
7
 10
-2.27250000E+02
 20
3.95410844E+01
 11
-2.26750000E+02
 21
3.90410844E+01
  0
LINE
  8
0
 62
7
 10
-2.26750000E+02
 20
3.57410844E+01
 11
-2.27250000E+02
 21
3.57410844E+01
  0
LINE
  8
0
 62
7
 10
-2.27050000E+02
 20
3.25410844E+01
 11
-2.27250000E+02
 21
3.25410844E+01
  0
LINE
  8
0
 62
7
 10
-2.26750000E+02
 20
3.90410844E+01
 11
-2.26750000E+02
 21
3.57410844E+01
  0
LINE
  8
0
 62
7
 10
-2.27050000E+02
 20
1.75410844E+01
 11
-2.27250000E+02
 21
1.75410844E+01
  0
LINE
  8
0
 62
7
 10
-2.27050000E+02
 20
3.25410844E+01
 11
-2.27050000E+02
 21
1.75410844E+01
  0
LINE
  8
0
 62
7
 10
-2.26750000E+02
 20
1.43410844E+01
 11
-2.26750000E+02
 21
8.54108437E+00
  0
LINE
  8
0
 62
7
 10
-2.26750000E+02
 20
1.43410844E+01
 11
-2.27250000E+02
 21
1.43410844E+01
  0
LINE
  8
0
 62
7
 10
-2.47750000E+02
 20
1.43410844E+01
 11
-2.47750000E+02
 21
8.54108437E+00
  0
LINE
  8
0
 62
7
 10
-2.47750000E+02
 20
1.43410844E+01
 11
-2.47250000E+02
 21
1.43410844E+01
  0
LINE
  8
0
 62
7
 10
-2.47450000E+02
 20
1.75410844E+01
 11
-2.47250000E+02
 21
1.75410844E+01
  0
LINE
  8
0
 62
7
 10
-2.26750000E+02
 20
8.54108437E+00
 11
-2.47750000E+02
 21
8.54108437E+00
  0
LINE
  8
0
 62
7
 10
-2.47750000E+02
 20
3.57410844E+01
 11
-2.47250000E+02
 21
3.57410844E+01
  0
LINE
  8
0
 62
7
 10
-2.47450000E+02
 20
3.25410844E+01
 11
-2.47250000E+02
 21
3.25410844E+01
  0
LINE
  8
0
 62
7
 10
-2.47750000E+02
 20
5.01268708E+01
 11
-2.47750000E+02
 21
3.57410844E+01
  0
LINE
  8
0
 62
7
 10
-2.47450000E+02
 20
3.25410844E+01
 11
-2.47450000E+02
 21
1.75410844E+01
  0
ARC
  8
0
 62
7
 10
-2.46950000E+02
 20
5.92338297E+01
 40
3.00000000E-01
 50
9.00000002E+01
 51
1.80000000E+02
  0
ARC
  8
0
 62
7
 10
-2.27550000E+02
 20
5.92338297E+01
 40
3.00000000E-01
 50
0.00000000E+00
 51
9.00000002E+01
  0
LINE
  8
0
 62
7
 10
-2.46950000E+02
 20
5.95338297E+01
 11
-2.27550000E+02
 21
5.95338297E+01
  0
LINE
  8
0
 62
7
 10
-2.47250000E+02
 20
5.92338297E+01
 11
-2.47250000E+02
 21
1.05410844E+01
  0
LINE
  8
0
 62
7
 10
-2.27250000E+02
 20
5.92338297E+01
 11
-2.27250000E+02
 21
1.05410844E+01
  0
LINE
  8
0
  6
CENTER
 62
2
 10
-2.25450000E+02
 20
2.50410844E+01
 11
-2.49080000E+02
 21
2.50410844E+01
  0
LINE
  8
0
 62
7
 10
-2.27250000E+02
 20
5.90410844E+01
 11
-2.47250000E+02
 21
5.90410844E+01
  0
LINE
  8
0
 62
7
 10
-2.27250000E+02
 20
1.05410844E+01
 11
-2.47250000E+02
 21
1.05410844E+01
  0
CIRCLE
  8
0
 62
2
 10
-2.32254039E+02
 20
1.50464097E+01
 40
2.00000000E+00
  0
CIRCLE
  8
0
 62
7
 10
-2.32254039E+02
 20
1.50464097E+01
 40
1.64999962E+00
  0
CIRCLE
  8
0
 62
7
 10
-2.32254039E+02
 20
3.50464097E+01
 40
1.64999962E+00
  0
CIRCLE
  8
0
 62
7
 10
-2.42254039E+02
 20
3.50464097E+01
 40
1.64999962E+00
  0
CIRCLE
  8
0
 62
7
 10
-2.42254039E+02
 20
1.50464097E+01
 40
1.64999962E+00
  0
CIRCLE
  8
0
 62
2
 10
-2.42254039E+02
 20
1.50464097E+01
 40
2.00000000E+00
  0
CIRCLE
  8
0
 62
2
 10
-2.32254039E+02
 20
3.50464097E+01
 40
2.00000000E+00
  0
CIRCLE
  8
0
 62
2
 10
-2.42254039E+02
 20
3.50464097E+01
 40
2.00000000E+00
  0
CIRCLE
  8
0
 62
7
 10
-2.37250000E+02
 20
2.50410844E+01
 40
4.00000000E+00
  0
CIRCLE
  8
0
 62
2
 10
-2.37250000E+02
 20
2.50410844E+01
 40
2.09999943E+00
  0
CIRCLE
  8
0
 62
7
 10
-2.37250000E+02
 20
2.50410844E+01
 40
2.50000000E+00
  0
LINE
  8
0
 62
7
 10
-2.33245961E+02
 20
2.73451601E+01
 11
-2.33245961E+02
 21
2.27257591E+01
  0
LINE
  8
0
 62
7
 10
-2.41245961E+02
 20
2.73451602E+01
 11
-2.41245961E+02
 21
2.27263580E+01
  0
CIRCLE
  8
0
 62
7
 10
-2.37250000E+02
 20
2.50410844E+01
 40
7.50000000E+00
  0
CIRCLE
  8
0
 62
7
 10
-2.37250000E+02
 20
2.50410844E+01
 40
8.00000000E+00
  0
LINE
  8
0
  6
CENTER
 62
2
 10
-2.46020000E+02
 20
1.50410844E+01
 11
-2.28984484E+02
 21
1.50410844E+01
  0
LINE
  8
0
  6
CENTER
 62
2
 10
-2.46020000E+02
 20
3.50410844E+01
 11
-2.28984484E+02
 21
3.50410844E+01
  0
LINE
  8
0
  6
CENTER
 62
2
 10
-2.42250000E+02
 20
3.81110844E+01
 11
-2.42250000E+02
 21
1.19503957E+01
  0
LINE
  8
0
  6
CENTER
 62
2
 10
-2.32250000E+02
 20
3.81110844E+01
 11
-2.32250000E+02
 21
1.19503957E+01
  0
CIRCLE
  8
0
 62
7
 10
-2.42254039E+02
 20
5.47464097E+01
 40
3.50000000E+00
  0
CIRCLE
  8
0
 62
7
 10
-2.42254039E+02
 20
5.47464097E+01
 40
3.79999924E+00
  0
LINE
  8
0
  6
CENTER
 62
2
 10
-2.42250000E+02
 20
5.98838967E+01
 11
-2.42250000E+02
 21
4.93175871E+01
  0
LINE
  8
0
  6
CENTER
 62
2
 10
-2.47068857E+02
 20
5.47410844E+01
 11
-2.37578764E+02
 21
5.47410844E+01
  0
LINE
  8
0
 62
7
 10
-2.42250000E+02
 20
5.64610844E+01
 11
-2.40760000E+02
 21
5.56010844E+01
  0
LINE
  8
0
 62
7
 10
-2.40760000E+02
 20
5.56010844E+01
 11
-2.40760000E+02
 21
5.38810844E+01
  0
LINE
  8
0
 62
7
 10
-2.42250000E+02
 20
5.30210844E+01
 11
-2.43740000E+02
 21
5.38810844E+01
  0
LINE
  8
0
 62
7
 10
-2.40760000E+02
 20
5.38810844E+01
 11
-2.42250000E+02
 21
5.30210844E+01
  0
LINE
  8
0
 62
7
 10
-2.43740000E+02
 20
5.56010844E+01
 11
-2.43740000E+02
 21
5.38810844E+01
  0
LINE
  8
0
 62
7
 10
-2.42250000E+02
 20
5.64610844E+01
 11
-2.43740000E+02
 21
5.56010844E+01
  0
CIRCLE
  8
0
 62
7
 10
-2.32254039E+02
 20
4.62464097E+01
 40
3.50000000E+00
  0
CIRCLE
  8
0
 62
7
 10
-2.32254039E+02
 20
4.62464097E+01
 40
3.79999924E+00
  0
LINE
  8
0
  6
CENTER
 62
2
 10
-2.32250000E+02
 20
5.13838967E+01
 11
-2.32250000E+02
 21
4.08175871E+01
  0
LINE
  8
0
  6
CENTER
 62
2
 10
-2.37068857E+02
 20
4.62410844E+01
 11
-2.27578764E+02
 21
4.62410844E+01
  0
LINE
  8
0
 62
7
 10
-2.32250000E+02
 20
4.79610844E+01
 11
-2.30760000E+02
 21
4.71010844E+01
  0
LINE
  8
0
 62
7
 10
-2.30760000E+02
 20
4.71010844E+01
 11
-2.30760000E+02
 21
4.53810844E+01
  0
LINE
  8
0
 62
7
 10
-2.32250000E+02
 20
4.45210844E+01
 11
-2.33740000E+02
 21
4.53810844E+01
  0
LINE
  8
0
 62
7
 10
-2.30760000E+02
 20
4.53810844E+01
 11
-2.32250000E+02
 21
4.45210844E+01
  0
LINE
  8
0
 62
7
 10
-2.33740000E+02
 20
4.71010844E+01
 11
-2.33740000E+02
 21
4.53810844E+01
  0
LINE
  8
0
 62
7
 10
-2.32250000E+02
 20
4.79610844E+01
 11
-2.33740000E+02
 21
4.71010844E+01
  0
LINE
  8
0
 62
7
 10
-4.45070022E+01
 20
3.95410844E+01
 11
-3.69500000E+01
 21
3.95410844E+01
  0
LINE
  8
0
 62
7
 10
-2.44500000E+01
 20
1.75410844E+01
 11
-2.44500000E+01
 21
1.43410844E+01
  0
LINE
  8
0
 62
7
 10
-4.44500000E+01
 20
1.75410844E+01
 11
-4.44500000E+01
 21
1.43410844E+01
  0
LINE
  8
0
 62
7
 10
-2.44500000E+01
 20
3.57410844E+01
 11
-2.44500000E+01
 21
3.25410844E+01
  0
LINE
  8
0
 62
7
 10
-4.44500000E+01
 20
3.57410844E+01
 11
-4.44500000E+01
 21
3.25410844E+01
  0
ARC
  8
0
 62
7
 10
-4.41500000E+01
 20
5.92338297E+01
 40
3.00000000E-01
 50
9.00000002E+01
 51
1.80000000E+02
  0
ARC
  8
0
 62
7
 10
-2.47500000E+01
 20
5.92338297E+01
 40
3.00000000E-01
 50
0.00000000E+00
 51
9.00000002E+01
  0
LINE
  8
0
  6
CENTER
 62
2
 10
-4.62500000E+01
 20
1.59410844E+01
 11
-2.26200000E+01
 21
1.59410844E+01
  0
LINE
  8
0
  6
CENTER
 62
2
 10
-4.62500000E+01
 20
3.41410844E+01
 11
-2.26200000E+01
 21
3.41410844E+01
  0
CIRCLE
  8
0
 62
7
 10
-3.84500000E+01
 20
5.35338297E+01
 40
1.75000000E+00
  0
LINE
  8
0
  6
CENTER
 62
2
 10
-3.84500000E+01
 20
5.64592105E+01
 11
-3.84500000E+01
 21
5.04064105E+01
  0
LINE
  8
0
  6
CENTER
 62
2
 10
-3.55853361E+01
 20
5.35338297E+01
 11
-4.16424790E+01
 21
5.35338297E+01
  0
LINE
  8
0
 62
7
 10
-3.59647186E+01
 20
4.60988008E+01
 11
-3.10149712E+01
 21
5.10485483E+01
  0
LINE
  8
0
 62
7
 10
-4.18337049E+01
 20
4.48967193E+01
 11
-3.72375108E+01
 21
4.03005252E+01
  0
LINE
  8
0
 62
7
 10
-2.98128896E+01
 20
5.69175346E+01
 11
-2.52166956E+01
 21
5.23213405E+01
  0
LINE
  8
0
 62
7
 10
-3.10149712E+01
 20
5.10485483E+01
 11
-2.76915693E+01
 21
4.77251464E+01
  0
LINE
  8
0
 62
7
 10
-3.59647186E+01
 20
4.60988008E+01
 11
-3.26413168E+01
 21
4.27753989E+01
  0
LINE
  8
0
  6
CENTER
 62
2
 10
-3.44500000E+01
 20
6.17844191E+01
 11
-3.44500000E+01
 21
6.65397759E+00
  0
LINE
  8
0
  6
CENTER
 62
2
 10
-4.62500000E+01
 20
2.50410844E+01
 11
-2.26200000E+01
 21
2.50410844E+01
  0
LINE
  8
0
 62
7
 10
-3.70070022E+01
 20
3.95410844E+01
 11
-3.32070022E+01
 21
4.33410844E+01
  0
ARC
  8
0
 62
7
 10
-2.49500000E+01
 20
5.01268708E+01
 40
1.00000000E+00
 50
0.00000000E+00
 51
5.89046387E+01
  0
LINE
  8
0
 62
7
 10
-3.25843146E+01
 20
4.27753989E+01
 11
-3.31500000E+01
 21
4.33410844E+01
  0
LINE
  8
0
 62
7
 10
-3.26413168E+01
 20
4.27753989E+01
 11
-2.44335360E+01
 21
5.09831797E+01
  0
LINE
  8
0
 62
7
 10
-4.44500000E+01
 20
3.95410844E+01
 11
-4.49500000E+01
 21
3.90410844E+01
  0
LINE
  8
0
 62
7
 10
-2.39500000E+01
 20
5.01268708E+01
 11
-2.39500000E+01
 21
3.57410844E+01
  0
LINE
  8
0
 62
7
 10
-2.49500000E+01
 20
1.80410844E+01
 11
-2.44500000E+01
 21
1.75410844E+01
  0
LINE
  8
0
 62
7
 10
-2.42500000E+01
 20
1.75410844E+01
 11
-2.44500000E+01
 21
1.75410844E+01
  0
LINE
  8
0
 62
7
 10
-2.49500000E+01
 20
1.80410844E+01
 11
-2.65500000E+01
 21
1.80410844E+01
  0
LINE
  8
0
 62
7
 10
-2.39500000E+01
 20
1.43410844E+01
 11
-2.44500000E+01
 21
1.43410844E+01
  0
LINE
  8
0
 62
7
 10
-2.49500000E+01
 20
1.38410844E+01
 11
-2.44500000E+01
 21
1.43410844E+01
  0
LINE
  8
0
 62
7
 10
-2.49500000E+01
 20
1.38410844E+01
 11
-2.65500000E+01
 21
1.38410844E+01
  0
ARC
  8
0
 62
7
 10
-2.65500000E+01
 20
1.59410844E+01
 40
2.10000002E+00
 50
9.00000002E+01
 51
2.70000000E+02
  0
LINE
  8
0
 62
7
 10
-2.42500000E+01
 20
3.25410844E+01
 11
-2.44500000E+01
 21
3.25410844E+01
  0
LINE
  8
0
 62
7
 10
-2.49500000E+01
 20
3.20410844E+01
 11
-2.44500000E+01
 21
3.25410844E+01
  0
LINE
  8
0
 62
7
 10
-2.49500000E+01
 20
3.20410844E+01
 11
-2.65500000E+01
 21
3.20410844E+01
  0
LINE
  8
0
 62
7
 10
-2.49500000E+01
 20
3.62410844E+01
 11
-2.65500000E+01
 21
3.62410844E+01
  0
LINE
  8
0
 62
7
 10
-2.49500000E+01
 20
3.62410844E+01
 11
-2.44500000E+01
 21
3.57410844E+01
  0
LINE
  8
0
 62
7
 10
-2.39500000E+01
 20
3.57410844E+01
 11
-2.44500000E+01
 21
3.57410844E+01
  0
ARC
  8
0
 62
7
 10
-2.65500000E+01
 20
3.41410844E+01
 40
2.10000002E+00
 50
9.00000002E+01
 51
2.70000000E+02
  0
LINE
  8
0
 62
7
 10
-4.46500000E+01
 20
1.75410844E+01
 11
-4.44500000E+01
 21
1.75410844E+01
  0
LINE
  8
0
 62
7
 10
-4.39500000E+01
 20
1.80410844E+01
 11
-4.44500000E+01
 21
1.75410844E+01
  0
LINE
  8
0
 62
7
 10
-4.39500000E+01
 20
1.80410844E+01
 11
-4.23500000E+01
 21
1.80410844E+01
  0
LINE
  8
0
 62
7
 10
-4.39500000E+01
 20
1.38410844E+01
 11
-4.23500000E+01
 21
1.38410844E+01
  0
LINE
  8
0
 62
7
 10
-4.39500000E+01
 20
1.38410844E+01
 11
-4.44500000E+01
 21
1.43410844E+01
  0
ARC
  8
0
 62
7
 10
-4.23500000E+01
 20
1.59410844E+01
 40
2.10000009E+00
 50
2.70000000E+02
 51
9.00000002E+01
  0
LINE
  8
0
 62
7
 10
-4.49500000E+01
 20
1.43410844E+01
 11
-4.44500000E+01
 21
1.43410844E+01
  0
LINE
  8
0
 62
7
 10
-4.46500000E+01
 20
3.25410844E+01
 11
-4.44500000E+01
 21
3.25410844E+01
  0
LINE
  8
0
 62
7
 10
-4.39500000E+01
 20
3.20410844E+01
 11
-4.44500000E+01
 21
3.25410844E+01
  0
LINE
  8
0
 62
7
 10
-4.39500000E+01
 20
3.20410844E+01
 11
-4.23500000E+01
 21
3.20410844E+01
  0
ARC
  8
0
 62
7
 10
-4.23500000E+01
 20
3.41410844E+01
 40
2.10000009E+00
 50
2.70000000E+02
 51
9.00000002E+01
  0
LINE
  8
0
 62
7
 10
-4.39500000E+01
 20
3.62410844E+01
 11
-4.23500000E+01
 21
3.62410844E+01
  0
LINE
  8
0
 62
7
 10
-4.39500000E+01
 20
3.62410844E+01
 11
-4.44500000E+01
 21
3.57410844E+01
  0
LINE
  8
0
 62
7
 10
-4.49500000E+01
 20
3.57410844E+01
 11
-4.44500000E+01
 21
3.57410844E+01
  0
LINE
  8
0
 62
7
 10
-4.49500000E+01
 20
3.90410844E+01
 11
-4.49500000E+01
 21
3.57410844E+01
  0
LINE
  8
0
 62
7
 10
-4.46500000E+01
 20
3.25410844E+01
 11
-4.46500000E+01
 21
1.75410844E+01
  0
LINE
  8
0
 62
7
 10
-4.49500000E+01
 20
1.43410844E+01
 11
-4.49500000E+01
 21
8.54108437E+00
  0
LINE
  8
0
 62
7
 10
-2.39500000E+01
 20
1.43410844E+01
 11
-2.39500000E+01
 21
8.54108437E+00
  0
LINE
  8
0
 62
7
 10
-2.42500000E+01
 20
3.25410844E+01
 11
-2.42500000E+01
 21
1.75410844E+01
  0
LINE
  8
0
 62
7
 10
-4.49500000E+01
 20
8.54108437E+00
 11
-2.39500000E+01
 21
8.54108437E+00
  0
LINE
  8
0
 62
7
 10
-2.53581169E+01
 20
5.31698686E+01
 11
-2.94593362E+01
 21
5.72710880E+01
  0
LINE
  8
0
 62
7
 10
-3.81779221E+01
 20
4.05338297E+01
 11
-4.21872583E+01
 21
4.45431659E+01
  0
ARC
  8
0
 62
7
 10
-4.41500000E+01
 20
4.08338297E+01
 40
3.00000000E-01
 50
1.80000000E+02
 51
2.70000000E+02
  0
LINE
  8
0
 62
7
 10
-4.21872583E+01
 20
4.45431659E+01
 11
-2.94593362E+01
 21
5.72710880E+01
  0
LINE
  8
0
 62
7
 10
-3.79941559E+01
 20
4.05338297E+01
 11
-4.41500000E+01
 21
4.05338297E+01
  0
LINE
  8
0
 62
7
 10
-4.44500000E+01
 20
5.92338297E+01
 11
-4.44500000E+01
 21
3.95410844E+01
  0
LINE
  8
0
 62
7
 10
-2.44500000E+01
 20
5.92338297E+01
 11
-2.44500000E+01
 21
5.09667157E+01
  0
LINE
  8
0
 62
7
 10
-2.47500000E+01
 20
5.95338297E+01
 11
-4.41500000E+01
 21
5.95338297E+01
  0
LINE
  8
0
 62
7
 10
-3.79941559E+01
 20
4.05338297E+01
 11
-3.77513779E+01
 21
4.07766076E+01
  0
LINE
  8
0
 62
7
 10
-2.52166956E+01
 20
5.23213405E+01
 11
-2.87522295E+01
 21
4.87858066E+01
  0
LINE
  8
0
 62
7
 10
-3.37019769E+01
 20
4.38360591E+01
 11
-3.72375108E+01
 21
4.03005252E+01
  0
LINE
  8
0
 62
7
 10
-2.57116703E+01
 20
5.28163152E+01
 11
-2.44995383E+01
 21
5.40284473E+01
  0
CIRCLE
  8
0
 62
2
 10
-3.44504620E+01
 20
1.25464097E+01
 40
2.00000000E+00
  0
CIRCLE
  8
0
 62
7
 10
-3.44504620E+01
 20
1.25464097E+01
 40
1.64999962E+00
  0
CIRCLE
  8
0
 62
7
 10
-3.44504620E+01
 20
3.75464097E+01
 40
1.64999962E+00
  0
CIRCLE
  8
0
 62
2
 10
-3.44504620E+01
 20
3.75464097E+01
 40
2.00000000E+00
  0
ARC
  8
0
 62
7
 10
-3.44550000E+01
 20
2.50464088E+01
 40
1.03977631E+01
 50
5.56417823E+01
 51
1.24277852E+02
  0
ARC
  8
0
 62
7
 10
-3.44550000E+01
 20
2.50464105E+01
 40
1.03983197E+01
 50
2.35704210E+02
 51
3.04376598E+02
  0
CIRCLE
  8
0
 62
7
 10
-3.44504620E+01
 20
2.50464097E+01
 40
8.25000000E+00
  0
CIRCLE
  8
0
 62
7
 10
-3.44504620E+01
 20
2.50464097E+01
 40
9.30000019E+00
  0
CIRCLE
  8
0
 62
7
 10
-3.44504620E+01
 20
2.50464097E+01
 40
7.75000000E+00
  0
ARC
  8
0
 62
7
 10
-3.44500000E+01
 20
2.50464097E+01
 40
2.50157024E+00
 50
1.91654128E+02
 51
3.48345872E+02
  0
ARC
  8
0
 62
7
 10
-3.44500000E+01
 20
2.50464097E+01
 40
2.49944055E+00
 50
1.14150116E+01
 51
1.68584989E+02
  0
LINE
  8
0
 62
7
 10
-3.44500000E+01
 20
2.79310844E+01
 11
-3.19500000E+01
 21
2.64810844E+01
  0
LINE
  8
0
 62
7
 10
-3.19500000E+01
 20
2.64810844E+01
 11
-3.19500000E+01
 21
2.36010844E+01
  0
LINE
  8
0
 62
7
 10
-3.19500000E+01
 20
2.36010844E+01
 11
-3.44500000E+01
 21
2.21510844E+01
  0
LINE
  8
0
 62
7
 10
-3.44500000E+01
 20
2.21510844E+01
 11
-3.69500000E+01
 21
2.36010844E+01
  0
LINE
  8
0
 62
7
 10
-3.69500000E+01
 20
2.64810844E+01
 11
-3.69500000E+01
 21
2.36010844E+01
  0
LINE
  8
0
 62
7
 10
-3.44500000E+01
 20
2.79310844E+01
 11
-3.69500000E+01
 21
2.64810844E+01
  0
LINE
  8
0
 62
7
 10
-3.69500000E+01
 20
2.45410844E+01
 11
-3.19500000E+01
 21
2.45410844E+01
  0
LINE
  8
0
 62
7
 10
-3.69500000E+01
 20
2.55410844E+01
 11
-3.19500000E+01
 21
2.55410844E+01
  0
LINE
  8
0
  6
CENTER
 62
2
 10
-3.79541572E+01
 20
3.75410844E+01
 11
-3.08628358E+01
 21
3.75410844E+01
  0
LINE
  8
0
  6
CENTER
 62
2
 10
-3.79541572E+01
 20
1.25410844E+01
 11
-3.08628358E+01
 21
1.25410844E+01
  0
LINE
  8
0
  6
PHANTOM
 10
-1.25050000E+02
 20
8.85191902E+01
 11
-1.25050000E+02
 21
1.48038803E+02
  0
LINE
  8
0
 62
7
 10
-1.75250000E+02
 20
1.29041084E+02
 11
-1.82250000E+02
 21
1.29041084E+02
  0
LINE
  8
0
 62
7
 10
-1.75250000E+02
 20
1.09041084E+02
 11
-1.82250000E+02
 21
1.09041084E+02
  0
LINE
  8
0
  6
CENTER
 62
2
 10
-1.17750000E+02
 20
1.13756827E+02
 11
-1.17750000E+02
 21
1.22490250E+02
  0
POLYLINE
  8
0
 62
7
 66
1
  0
VERTEX
  8
0
 62
7
 10
-1.09750000E+02
 20
1.21164085E+02
  0
VERTEX
  8
0
 62
7
 10
-1.09933027E+02
 20
1.21152784E+02
  0
VERTEX
  8
0
 62
7
 10
-1.10114661E+02
 20
1.21118967E+02
  0
VERTEX
  8
0
 62
7
 10
-1.10293520E+02
 20
1.21062890E+02
  0
VERTEX
  8
0
 62
7
 10
-1.10468242E+02
 20
1.20984982E+02
  0
VERTEX
  8
0
 62
7
 10
-1.10637498E+02
 20
1.20885834E+02
  0
VERTEX
  8
0
 62
7
 10
-1.10800000E+02
 20
1.20766201E+02
  0
VERTEX
  8
0
 62
7
 10
-1.10954511E+02
 20
1.20626994E+02
  0
VERTEX
  8
0
 62
7
 10
-1.11099854E+02
 20
1.20469273E+02
  0
VERTEX
  8
0
 62
7
 10
-1.11234924E+02
 20
1.20294237E+02
  0
VERTEX
  8
0
 62
7
 10
-1.11358693E+02
 20
1.20103219E+02
  0
VERTEX
  8
0
 62
7
 10
-1.11470219E+02
 20
1.19897672E+02
  0
VERTEX
  8
0
 62
7
 10
-1.11568653E+02
 20
1.19679161E+02
  0
VERTEX
  8
0
 62
7
 10
-1.11653246E+02
 20
1.19449349E+02
  0
VERTEX
  8
0
 62
7
 10
-1.11723355E+02
 20
1.19209985E+02
  0
VERTEX
  8
0
 62
7
 10
-1.11778444E+02
 20
1.18962890E+02
  0
VERTEX
  8
0
 62
7
 10
-1.11818096E+02
 20
1.18709946E+02
  0
VERTEX
  8
0
 62
7
 10
-1.11842009E+02
 20
1.18453076E+02
  0
VERTEX
  8
0
 62
7
 10
-1.11850000E+02
 20
1.18194237E+02
  0
VERTEX
  8
0
 62
7
 10
-1.11842009E+02
 20
1.17935398E+02
  0
VERTEX
  8
0
 62
7
 10
-1.11818096E+02
 20
1.17678528E+02
  0
VERTEX
  8
0
 62
7
 10
-1.11778444E+02
 20
1.17425584E+02
  0
VERTEX
  8
0
 62
7
 10
-1.11723354E+02
 20
1.17178489E+02
  0
VERTEX
  8
0
 62
7
 10
-1.11653246E+02
 20
1.16939125E+02
  0
VERTEX
  8
0
 62
7
 10
-1.11568653E+02
 20
1.16709313E+02
  0
VERTEX
  8
0
 62
7
 10
-1.11470219E+02
 20
1.16490802E+02
  0
VERTEX
  8
0
 62
7
 10
-1.11358693E+02
 20
1.16285255E+02
  0
VERTEX
  8
0
 62
7
 10
-1.11234924E+02
 20
1.16094237E+02
  0
VERTEX
  8
0
 62
7
 10
-1.11099854E+02
 20
1.15919201E+02
  0
VERTEX
  8
0
 62
7
 10
-1.10954511E+02
 20
1.15761480E+02
  0
VERTEX
  8
0
 62
7
 10
-1.10800000E+02
 20
1.15622273E+02
  0
VERTEX
  8
0
 62
7
 10
-1.10637498E+02
 20
1.15502640E+02
  0
VERTEX
  8
0
 62
7
 10
-1.10468242E+02
 20
1.15403492E+02
  0
VERTEX
  8
0
 62
7
 10
-1.10293520E+02
 20
1.15325584E+02
  0
VERTEX
  8
0
 62
7
 10
-1.10114661E+02
 20
1.15269507E+02
  0
VERTEX
  8
0
 62
7
 10
-1.09933027E+02
 20
1.15235690E+02
  0
VERTEX
  8
0
 62
7
 10
-1.09750000E+02
 20
1.15224389E+02
  0
VERTEX
  8
0
 62
7
 10
-1.09566973E+02
 20
1.15235690E+02
  0
VERTEX
  8
0
 62
7
 10
-1.09385339E+02
 20
1.15269507E+02
  0
VERTEX
  8
0
 62
7
 10
-1.09206480E+02
 20
1.15325584E+02
  0
VERTEX
  8
0
 62
7
 10
-1.09031758E+02
 20
1.15403492E+02
  0
VERTEX
  8
0
 62
7
 10
-1.08862502E+02
 20
1.15502640E+02
  0
VERTEX
  8
0
 62
7
 10
-1.08700000E+02
 20
1.15622273E+02
  0
VERTEX
  8
0
 62
7
 10
-1.08545489E+02
 20
1.15761480E+02
  0
VERTEX
  8
0
 62
7
 10
-1.08400146E+02
 20
1.15919201E+02
  0
VERTEX
  8
0
 62
7
 10
-1.08265076E+02
 20
1.16094237E+02
  0
VERTEX
  8
0
 62
7
 10
-1.08141307E+02
 20
1.16285255E+02
  0
VERTEX
  8
0
 62
7
 10
-1.08029781E+02
 20
1.16490802E+02
  0
VERTEX
  8
0
 62
7
 10
-1.07931347E+02
 20
1.16709313E+02
  0
VERTEX
  8
0
 62
7
 10
-1.07846754E+02
 20
1.16939125E+02
  0
VERTEX
  8
0
 62
7
 10
-1.07776645E+02
 20
1.17178489E+02
  0
VERTEX
  8
0
 62
7
 10
-1.07721556E+02
 20
1.17425584E+02
  0
VERTEX
  8
0
 62
7
 10
-1.07681904E+02
 20
1.17678528E+02
  0
VERTEX
  8
0
 62
7
 10
-1.07657991E+02
 20
1.17935398E+02
  0
VERTEX
  8
0
 62
7
 10
-1.07650000E+02
 20
1.18194237E+02
  0
VERTEX
  8
0
 62
7
 10
-1.07657991E+02
 20
1.18453076E+02
  0
VERTEX
  8
0
 62
7
 10
-1.07681904E+02
 20
1.18709946E+02
  0
VERTEX
  8
0
 62
7
 10
-1.07721556E+02
 20
1.18962890E+02
  0
VERTEX
  8
0
 62
7
 10
-1.07776646E+02
 20
1.19209985E+02
  0
VERTEX
  8
0
 62
7
 10
-1.07846754E+02
 20
1.19449349E+02
  0
VERTEX
  8
0
 62
7
 10
-1.07931347E+02
 20
1.19679161E+02
  0
VERTEX
  8
0
 62
7
 10
-1.08029781E+02
 20
1.19897672E+02
  0
VERTEX
  8
0
 62
7
 10
-1.08141307E+02
 20
1.20103219E+02
  0
VERTEX
  8
0
 62
7
 10
-1.08265076E+02
 20
1.20294237E+02
  0
VERTEX
  8
0
 62
7
 10
-1.08400146E+02
 20
1.20469273E+02
  0
VERTEX
  8
0
 62
7
 10
-1.08545489E+02
 20
1.20626994E+02
  0
VERTEX
  8
0
 62
7
 10
-1.08700000E+02
 20
1.20766201E+02
  0
VERTEX
  8
0
 62
7
 10
-1.08862502E+02
 20
1.20885834E+02
  0
VERTEX
  8
0
 62
7
 10
-1.09031758E+02
 20
1.20984982E+02
  0
VERTEX
  8
0
 62
7
 10
-1.09206480E+02
 20
1.21062890E+02
  0
VERTEX
  8
0
 62
7
 10
-1.09385339E+02
 20
1.21118967E+02
  0
VERTEX
  8
0
 62
7
 10
-1.09566973E+02
 20
1.21152784E+02
  0
VERTEX
  8
0
 62
7
 10
-1.09750000E+02
 20
1.21164085E+02
  0
SEQEND
  8
0
  0
POLYLINE
  8
0
 62
7
 66
1
  0
VERTEX
  8
0
 62
7
 10
-1.17750000E+02
 20
1.21164085E+02
  0
VERTEX
  8
0
 62
7
 10
-1.17933027E+02
 20
1.21152784E+02
  0
VERTEX
  8
0
 62
7
 10
-1.18114661E+02
 20
1.21118967E+02
  0
VERTEX
  8
0
 62
7
 10
-1.18293520E+02
 20
1.21062890E+02
  0
VERTEX
  8
0
 62
7
 10
-1.18468242E+02
 20
1.20984982E+02
  0
VERTEX
  8
0
 62
7
 10
-1.18637498E+02
 20
1.20885834E+02
  0
VERTEX
  8
0
 62
7
 10
-1.18800000E+02
 20
1.20766201E+02
  0
VERTEX
  8
0
 62
7
 10
-1.18954511E+02
 20
1.20626994E+02
  0
VERTEX
  8
0
 62
7
 10
-1.19099854E+02
 20
1.20469273E+02
  0
VERTEX
  8
0
 62
7
 10
-1.19234924E+02
 20
1.20294237E+02
  0
VERTEX
  8
0
 62
7
 10
-1.19358693E+02
 20
1.20103219E+02
  0
VERTEX
  8
0
 62
7
 10
-1.19470219E+02
 20
1.19897672E+02
  0
VERTEX
  8
0
 62
7
 10
-1.19568653E+02
 20
1.19679161E+02
  0
VERTEX
  8
0
 62
7
 10
-1.19653246E+02
 20
1.19449349E+02
  0
VERTEX
  8
0
 62
7
 10
-1.19723355E+02
 20
1.19209985E+02
  0
VERTEX
  8
0
 62
7
 10
-1.19778444E+02
 20
1.18962890E+02
  0
VERTEX
  8
0
 62
7
 10
-1.19818096E+02
 20
1.18709946E+02
  0
VERTEX
  8
0
 62
7
 10
-1.19842009E+02
 20
1.18453076E+02
  0
VERTEX
  8
0
 62
7
 10
-1.19850000E+02
 20
1.18194237E+02
  0
VERTEX
  8
0
 62
7
 10
-1.19842009E+02
 20
1.17935398E+02
  0
VERTEX
  8
0
 62
7
 10
-1.19818096E+02
 20
1.17678528E+02
  0
VERTEX
  8
0
 62
7
 10
-1.19778444E+02
 20
1.17425584E+02
  0
VERTEX
  8
0
 62
7
 10
-1.19723354E+02
 20
1.17178489E+02
  0
VERTEX
  8
0
 62
7
 10
-1.19653246E+02
 20
1.16939125E+02
  0
VERTEX
  8
0
 62
7
 10
-1.19568653E+02
 20
1.16709313E+02
  0
VERTEX
  8
0
 62
7
 10
-1.19470219E+02
 20
1.16490802E+02
  0
VERTEX
  8
0
 62
7
 10
-1.19358693E+02
 20
1.16285255E+02
  0
VERTEX
  8
0
 62
7
 10
-1.19234924E+02
 20
1.16094237E+02
  0
VERTEX
  8
0
 62
7
 10
-1.19099854E+02
 20
1.15919201E+02
  0
VERTEX
  8
0
 62
7
 10
-1.18954511E+02
 20
1.15761480E+02
  0
VERTEX
  8
0
 62
7
 10
-1.18800000E+02
 20
1.15622273E+02
  0
VERTEX
  8
0
 62
7
 10
-1.18637498E+02
 20
1.15502640E+02
  0
VERTEX
  8
0
 62
7
 10
-1.18468242E+02
 20
1.15403492E+02
  0
VERTEX
  8
0
 62
7
 10
-1.18293520E+02
 20
1.15325584E+02
  0
VERTEX
  8
0
 62
7
 10
-1.18114661E+02
 20
1.15269507E+02
  0
VERTEX
  8
0
 62
7
 10
-1.17933027E+02
 20
1.15235690E+02
  0
VERTEX
  8
0
 62
7
 10
-1.17750000E+02
 20
1.15224389E+02
  0
VERTEX
  8
0
 62
7
 10
-1.17566973E+02
 20
1.15235690E+02
  0
VERTEX
  8
0
 62
7
 10
-1.17385339E+02
 20
1.15269507E+02
  0
VERTEX
  8
0
 62
7
 10
-1.17206480E+02
 20
1.15325584E+02
  0
VERTEX
  8
0
 62
7
 10
-1.17031758E+02
 20
1.15403492E+02
  0
VERTEX
  8
0
 62
7
 10
-1.16862502E+02
 20
1.15502640E+02
  0
VERTEX
  8
0
 62
7
 10
-1.16700000E+02
 20
1.15622273E+02
  0
VERTEX
  8
0
 62
7
 10
-1.16545489E+02
 20
1.15761480E+02
  0
VERTEX
  8
0
 62
7
 10
-1.16400146E+02
 20
1.15919201E+02
  0
VERTEX
  8
0
 62
7
 10
-1.16265076E+02
 20
1.16094237E+02
  0
VERTEX
  8
0
 62
7
 10
-1.16141307E+02
 20
1.16285255E+02
  0
VERTEX
  8
0
 62
7
 10
-1.16029781E+02
 20
1.16490802E+02
  0
VERTEX
  8
0
 62
7
 10
-1.15931347E+02
 20
1.16709313E+02
  0
VERTEX
  8
0
 62
7
 10
-1.15846754E+02
 20
1.16939125E+02
  0
VERTEX
  8
0
 62
7
 10
-1.15776645E+02
 20
1.17178489E+02
  0
VERTEX
  8
0
 62
7
 10
-1.15721556E+02
 20
1.17425584E+02
  0
VERTEX
  8
0
 62
7
 10
-1.15681904E+02
 20
1.17678528E+02
  0
VERTEX
  8
0
 62
7
 10
-1.15657991E+02
 20
1.17935398E+02
  0
VERTEX
  8
0
 62
7
 10
-1.15650000E+02
 20
1.18194237E+02
  0
VERTEX
  8
0
 62
7
 10
-1.15657991E+02
 20
1.18453076E+02
  0
VERTEX
  8
0
 62
7
 10
-1.15681904E+02
 20
1.18709946E+02
  0
VERTEX
  8
0
 62
7
 10
-1.15721556E+02
 20
1.18962890E+02
  0
VERTEX
  8
0
 62
7
 10
-1.15776646E+02
 20
1.19209985E+02
  0
VERTEX
  8
0
 62
7
 10
-1.15846754E+02
 20
1.19449349E+02
  0
VERTEX
  8
0
 62
7
 10
-1.15931347E+02
 20
1.19679161E+02
  0
VERTEX
  8
0
 62
7
 10
-1.16029781E+02
 20
1.19897672E+02
  0
VERTEX
  8
0
 62
7
 10
-1.16141307E+02
 20
1.20103219E+02
  0
VERTEX
  8
0
 62
7
 10
-1.16265076E+02
 20
1.20294237E+02
  0
VERTEX
  8
0
 62
7
 10
-1.16400146E+02
 20
1.20469273E+02
  0
VERTEX
  8
0
 62
7
 10
-1.16545489E+02
 20
1.20626994E+02
  0
VERTEX
  8
0
 62
7
 10
-1.16700000E+02
 20
1.20766201E+02
  0
VERTEX
  8
0
 62
7
 10
-1.16862502E+02
 20
1.20885834E+02
  0
VERTEX
  8
0
 62
7
 10
-1.17031758E+02
 20
1.20984982E+02
  0
VERTEX
  8
0
 62
7
 10
-1.17206480E+02
 20
1.21062890E+02
  0
VERTEX
  8
0
 62
7
 10
-1.17385339E+02
 20
1.21118967E+02
  0
VERTEX
  8
0
 62
7
 10
-1.17566973E+02
 20
1.21152784E+02
  0
VERTEX
  8
0
 62
7
 10
-1.17750000E+02
 20
1.21164085E+02
  0
SEQEND
  8
0
  0
POLYLINE
  8
0
 62
7
 66
1
  0
VERTEX
  8
0
 62
7
 10
-1.11641774E+02
 20
1.19483571E+02
  0
VERTEX
  8
0
 62
7
 10
-1.11618397E+02
 20
1.19364430E+02
  0
VERTEX
  8
0
 62
7
 10
-1.11580044E+02
 20
1.19247246E+02
  0
VERTEX
  8
0
 62
7
 10
-1.11527023E+02
 20
1.19132957E+02
  0
VERTEX
  8
0
 62
7
 10
-1.11459758E+02
 20
1.19022479E+02
  0
VERTEX
  8
0
 62
7
 10
-1.11378789E+02
 20
1.18916698E+02
  0
VERTEX
  8
0
 62
7
 10
-1.11284765E+02
 20
1.18816461E+02
  0
VERTEX
  8
0
 62
7
 10
-1.11178439E+02
 20
1.18722573E+02
  0
VERTEX
  8
0
 62
7
 10
-1.11060664E+02
 20
1.18635785E+02
  0
VERTEX
  8
0
 62
7
 10
-1.10932384E+02
 20
1.18556793E+02
  0
VERTEX
  8
0
 62
7
 10
-1.10794626E+02
 20
1.18486231E+02
  0
VERTEX
  8
0
 62
7
 10
-1.10648495E+02
 20
1.18424663E+02
  0
VERTEX
  8
0
 62
7
 10
-1.10495163E+02
 20
1.18372584E+02
  0
VERTEX
  8
0
 62
7
 10
-1.10335857E+02
 20
1.18330411E+02
  0
VERTEX
  8
0
 62
7
 10
-1.10171856E+02
 20
1.18298482E+02
  0
VERTEX
  8
0
 62
7
 10
-1.10004474E+02
 20
1.18277053E+02
  0
VERTEX
  8
0
 62
7
 10
-1.09835052E+02
 20
1.18266295E+02
  0
VERTEX
  8
0
 62
7
 10
-1.09664948E+02
 20
1.18266295E+02
  0
VERTEX
  8
0
 62
7
 10
-1.09495526E+02
 20
1.18277053E+02
  0
VERTEX
  8
0
 62
7
 10
-1.09328144E+02
 20
1.18298482E+02
  0
VERTEX
  8
0
 62
7
 10
-1.09164143E+02
 20
1.18330411E+02
  0
VERTEX
  8
0
 62
7
 10
-1.09004837E+02
 20
1.18372584E+02
  0
VERTEX
  8
0
 62
7
 10
-1.08851505E+02
 20
1.18424663E+02
  0
VERTEX
  8
0
 62
7
 10
-1.08705374E+02
 20
1.18486231E+02
  0
VERTEX
  8
0
 62
7
 10
-1.08567616E+02
 20
1.18556793E+02
  0
VERTEX
  8
0
 62
7
 10
-1.08439336E+02
 20
1.18635785E+02
  0
VERTEX
  8
0
 62
7
 10
-1.08321561E+02
 20
1.18722573E+02
  0
VERTEX
  8
0
 62
7
 10
-1.08215235E+02
 20
1.18816461E+02
  0
VERTEX
  8
0
 62
7
 10
-1.08121211E+02
 20
1.18916698E+02
  0
VERTEX
  8
0
 62
7
 10
-1.08040242E+02
 20
1.19022479E+02
  0
VERTEX
  8
0
 62
7
 10
-1.07972977E+02
 20
1.19132957E+02
  0
VERTEX
  8
0
 62
7
 10
-1.07919956E+02
 20
1.19247246E+02
  0
VERTEX
  8
0
 62
7
 10
-1.07881603E+02
 20
1.19364430E+02
  0
VERTEX
  8
0
 62
7
 10
-1.07858226E+02
 20
1.19483571E+02
  0
SEQEND
  8
0
  0
POLYLINE
  8
0
 62
7
 66
1
  0
VERTEX
  8
0
 62
7
 10
-1.19641774E+02
 20
1.19483571E+02
  0
VERTEX
  8
0
 62
7
 10
-1.19618397E+02
 20
1.19364430E+02
  0
VERTEX
  8
0
 62
7
 10
-1.19580044E+02
 20
1.19247246E+02
  0
VERTEX
  8
0
 62
7
 10
-1.19527023E+02
 20
1.19132957E+02
  0
VERTEX
  8
0
 62
7
 10
-1.19459758E+02
 20
1.19022479E+02
  0
VERTEX
  8
0
 62
7
 10
-1.19378789E+02
 20
1.18916698E+02
  0
VERTEX
  8
0
 62
7
 10
-1.19284765E+02
 20
1.18816461E+02
  0
VERTEX
  8
0
 62
7
 10
-1.19178439E+02
 20
1.18722573E+02
  0
VERTEX
  8
0
 62
7
 10
-1.19060664E+02
 20
1.18635785E+02
  0
VERTEX
  8
0
 62
7
 10
-1.18932384E+02
 20
1.18556793E+02
  0
VERTEX
  8
0
 62
7
 10
-1.18794626E+02
 20
1.18486231E+02
  0
VERTEX
  8
0
 62
7
 10
-1.18648495E+02
 20
1.18424663E+02
  0
VERTEX
  8
0
 62
7
 10
-1.18495163E+02
 20
1.18372584E+02
  0
VERTEX
  8
0
 62
7
 10
-1.18335857E+02
 20
1.18330411E+02
  0
VERTEX
  8
0
 62
7
 10
-1.18171856E+02
 20
1.18298482E+02
  0
VERTEX
  8
0
 62
7
 10
-1.18004474E+02
 20
1.18277053E+02
  0
VERTEX
  8
0
 62
7
 10
-1.17835052E+02
 20
1.18266295E+02
  0
VERTEX
  8
0
 62
7
 10
-1.17664948E+02
 20
1.18266295E+02
  0
VERTEX
  8
0
 62
7
 10
-1.17495526E+02
 20
1.18277053E+02
  0
VERTEX
  8
0
 62
7
 10
-1.17328144E+02
 20
1.18298482E+02
  0
VERTEX
  8
0
 62
7
 10
-1.17164143E+02
 20
1.18330411E+02
  0
VERTEX
  8
0
 62
7
 10
-1.17004837E+02
 20
1.18372584E+02
  0
VERTEX
  8
0
 62
7
 10
-1.16851505E+02
 20
1.18424663E+02
  0
VERTEX
  8
0
 62
7
 10
-1.16705374E+02
 20
1.18486231E+02
  0
VERTEX
  8
0
 62
7
 10
-1.16567616E+02
 20
1.18556793E+02
  0
VERTEX
  8
0
 62
7
 10
-1.16439336E+02
 20
1.18635785E+02
  0
VERTEX
  8
0
 62
7
 10
-1.16321561E+02
 20
1.18722573E+02
  0
VERTEX
  8
0
 62
7
 10
-1.16215235E+02
 20
1.18816461E+02
  0
VERTEX
  8
0
 62
7
 10
-1.16121211E+02
 20
1.18916698E+02
  0
VERTEX
  8
0
 62
7
 10
-1.16040242E+02
 20
1.19022479E+02
  0
VERTEX
  8
0
 62
7
 10
-1.15972977E+02
 20
1.19132957E+02
  0
VERTEX
  8
0
 62
7
 10
-1.15919956E+02
 20
1.19247246E+02
  0
VERTEX
  8
0
 62
7
 10
-1.15881603E+02
 20
1.19364430E+02
  0
VERTEX
  8
0
 62
7
 10
-1.15858226E+02
 20
1.19483571E+02
  0
SEQEND
  8
0
  0
POLYLINE
  8
0
 62
7
 66
1
  0
VERTEX
  8
0
 62
7
 10
-1.08596709E+02
 20
1.20676140E+02
  0
VERTEX
  8
0
 62
7
 10
-1.08742209E+02
 20
1.20747388E+02
  0
VERTEX
  8
0
 62
7
 10
-1.08896452E+02
 20
1.20808754E+02
  0
VERTEX
  8
0
 62
7
 10
-1.09058101E+02
 20
1.20859706E+02
  0
VERTEX
  8
0
 62
7
 10
-1.09225753E+02
 20
1.20899800E+02
  0
VERTEX
  8
0
 62
7
 10
-1.09397955E+02
 20
1.20928690E+02
  0
VERTEX
  8
0
 62
7
 10
-1.09573210E+02
 20
1.20946125E+02
  0
VERTEX
  8
0
 62
7
 10
-1.09750000E+02
 20
1.20951954E+02
  0
VERTEX
  8
0
 62
7
 10
-1.09926790E+02
 20
1.20946125E+02
  0
VERTEX
  8
0
 62
7
 10
-1.10102045E+02
 20
1.20928690E+02
  0
VERTEX
  8
0
 62
7
 10
-1.10274247E+02
 20
1.20899800E+02
  0
VERTEX
  8
0
 62
7
 10
-1.10441899E+02
 20
1.20859706E+02
  0
VERTEX
  8
0
 62
7
 10
-1.10603548E+02
 20
1.20808754E+02
  0
VERTEX
  8
0
 62
7
 10
-1.10757791E+02
 20
1.20747388E+02
  0
VERTEX
  8
0
 62
7
 10
-1.10903291E+02
 20
1.20676140E+02
  0
SEQEND
  8
0
  0
POLYLINE
  8
0
 62
7
 66
1
  0
VERTEX
  8
0
 62
7
 10
-1.16596709E+02
 20
1.20676140E+02
  0
VERTEX
  8
0
 62
7
 10
-1.16742209E+02
 20
1.20747388E+02
  0
VERTEX
  8
0
 62
7
 10
-1.16896452E+02
 20
1.20808754E+02
  0
VERTEX
  8
0
 62
7
 10
-1.17058101E+02
 20
1.20859706E+02
  0
VERTEX
  8
0
 62
7
 10
-1.17225753E+02
 20
1.20899800E+02
  0
VERTEX
  8
0
 62
7
 10
-1.17397955E+02
 20
1.20928690E+02
  0
VERTEX
  8
0
 62
7
 10
-1.17573210E+02
 20
1.20946125E+02
  0
VERTEX
  8
0
 62
7
 10
-1.17750000E+02
 20
1.20951954E+02
  0
VERTEX
  8
0
 62
7
 10
-1.17926790E+02
 20
1.20946125E+02
  0
VERTEX
  8
0
 62
7
 10
-1.18102045E+02
 20
1.20928690E+02
  0
VERTEX
  8
0
 62
7
 10
-1.18274247E+02
 20
1.20899800E+02
  0
VERTEX
  8
0
 62
7
 10
-1.18441899E+02
 20
1.20859706E+02
  0
VERTEX
  8
0
 62
7
 10
-1.18603548E+02
 20
1.20808754E+02
  0
VERTEX
  8
0
 62
7
 10
-1.18757791E+02
 20
1.20747388E+02
  0
VERTEX
  8
0
 62
7
 10
-1.18903291E+02
 20
1.20676140E+02
  0
SEQEND
  8
0
  0
LINE
  8
0
 62
7
 10
-1.08970000E+02
 20
1.19290017E+02
 11
-1.08970000E+02
 21
1.19926885E+02
  0
LINE
  8
0
 62
7
 10
-1.09750000E+02
 20
1.18971584E+02
 11
-1.08970000E+02
 21
1.19290017E+02
  0
LINE
  8
0
 62
7
 10
-1.09750000E+02
 20
1.20245318E+02
 11
-1.08970000E+02
 21
1.19926885E+02
  0
LINE
  8
0
 62
7
 10
-1.09750000E+02
 20
1.20245318E+02
 11
-1.10530000E+02
 21
1.19926885E+02
  0
LINE
  8
0
 62
7
 10
-1.10530000E+02
 20
1.19290017E+02
 11
-1.10530000E+02
 21
1.19926885E+02
  0
LINE
  8
0
 62
7
 10
-1.09750000E+02
 20
1.18971584E+02
 11
-1.10530000E+02
 21
1.19290017E+02
  0
LINE
  8
0
 62
7
 10
-1.17750000E+02
 20
1.20245318E+02
 11
-1.18530000E+02
 21
1.19926885E+02
  0
LINE
  8
0
 62
7
 10
-1.18530000E+02
 20
1.19290017E+02
 11
-1.18530000E+02
 21
1.19926885E+02
  0
LINE
  8
0
 62
7
 10
-1.17750000E+02
 20
1.18971584E+02
 11
-1.18530000E+02
 21
1.19290017E+02
  0
LINE
  8
0
 62
7
 10
-1.17750000E+02
 20
1.18971584E+02
 11
-1.16970000E+02
 21
1.19290017E+02
  0
LINE
  8
0
 62
7
 10
-1.16970000E+02
 20
1.19290017E+02
 11
-1.16970000E+02
 21
1.19926885E+02
  0
LINE
  8
0
 62
7
 10
-1.17750000E+02
 20
1.20245318E+02
 11
-1.16970000E+02
 21
1.19926885E+02
  0
LINE
  8
0
  6
CENTER
 62
2
 10
-1.09750000E+02
 20
1.13756827E+02
 11
-1.09750000E+02
 21
1.22490250E+02
  0
LINE
  8
0
  6
CENTER
 62
2
 10
-1.06704085E+02
 20
1.19608451E+02
 11
-1.21385386E+02
 21
1.19608451E+02
  0
LINE
  8
0
 62
7
 10
-1.00250000E+02
 20
1.09041084E+02
 11
-1.00250000E+02
 21
1.29041084E+02
  0
CIRCLE
  8
0
 62
4
 10
-1.37244054E+02
 20
1.14035759E+02
 40
1.64999962E+00
  0
CIRCLE
  8
0
 62
7
 10
-1.52244048E+02
 20
1.14035759E+02
 40
1.64999962E+00
  0
CIRCLE
  8
0
 62
7
 10
-1.62254048E+02
 20
1.14035759E+02
 40
1.64999962E+00
  0
CIRCLE
  8
0
 62
6
 10
-1.37244054E+02
 20
1.14035759E+02
 40
2.00000000E+00
  0
CIRCLE
  8
0
 62
2
 10
-1.52244048E+02
 20
1.14035759E+02
 40
2.00000000E+00
  0
CIRCLE
  8
0
 62
2
 10
-1.62254048E+02
 20
1.14035759E+02
 40
2.00000000E+00
  0
LINE
  8
0
  6
CENTER
 62
2
 10
-1.65994139E+02
 20
1.14041084E+02
 11
-1.33147251E+02
 21
1.14041084E+02
  0
LINE
  8
0
  6
CENTER
 62
2
 10
-1.65994139E+02
 20
1.24041084E+02
 11
-1.33147251E+02
 21
1.24041084E+02
  0
LINE
  8
0
 62
7
 10
-1.82250000E+02
 20
1.09041084E+02
 11
-1.82250000E+02
 21
1.29041084E+02
  0
LINE
  8
0
 62
7
 10
-1.75250000E+02
 20
1.09041084E+02
 11
-1.75250000E+02
 21
1.29041084E+02
  0
CIRCLE
  8
0
 62
4
 10
-1.37244054E+02
 20
1.24046410E+02
 40
1.64999962E+00
  0
CIRCLE
  8
0
 62
7
 10
-1.52244048E+02
 20
1.24046410E+02
 40
1.64999962E+00
  0
CIRCLE
  8
0
 62
7
 10
-1.62254048E+02
 20
1.24046410E+02
 40
1.64999962E+00
  0
CIRCLE
  8
0
 62
6
 10
-1.37244054E+02
 20
1.24046410E+02
 40
2.00000000E+00
  0
CIRCLE
  8
0
 62
2
 10
-1.52244048E+02
 20
1.24046410E+02
 40
2.00000000E+00
  0
CIRCLE
  8
0
 62
2
 10
-1.62254048E+02
 20
1.24046410E+02
 40
2.00000000E+00
  0
LINE
  8
0
  6
CENTER
 62
6
 10
-1.37250000E+02
 20
1.27828587E+02
 11
-1.37250000E+02
 21
1.11155599E+02
  0
LINE
  8
0
  6
CENTER
 62
2
 10
-1.52250000E+02
 20
1.27828587E+02
 11
-1.52250000E+02
 21
1.11155599E+02
  0
LINE
  8
0
  6
CENTER
 62
2
 10
-1.62250000E+02
 20
1.27828587E+02
 11
-1.62250000E+02
 21
1.11155599E+02
  0
LINE
  8
0
  6
CENTER
 62
2
 10
-1.85134048E+02
 20
1.19041084E+02
 11
-9.32670130E+01
 21
1.19041084E+02
  0
LINE
  8
0
 62
7
 10
-1.75250000E+02
 20
1.29041084E+02
 11
-1.00250000E+02
 21
1.29041084E+02
  0
LINE
  8
0
 62
7
 10
-1.75250000E+02
 20
1.09041084E+02
 11
-1.00250000E+02
 21
1.09041084E+02
  0
LINE
  8
0
 62
7
 10
-1.68250000E+02
 20
1.29541084E+02
 11
-9.82500000E+01
 21
1.29541084E+02
  0
LINE
  8
0
 62
7
 10
-1.68250000E+02
 20
1.08541084E+02
 11
-9.82500000E+01
 21
1.08541084E+02
  0
LINE
  8
0
 62
7
 10
-1.68250000E+02
 20
1.08541084E+02
 11
-1.68250000E+02
 21
1.09041084E+02
  0
LINE
  8
0
 62
7
 10
-9.82500000E+01
 20
1.08541084E+02
 11
-9.82500000E+01
 21
1.29541084E+02
  0
LINE
  8
0
 62
7
 10
-1.68250000E+02
 20
1.29041084E+02
 11
-1.68250000E+02
 21
1.29577640E+02
  0
LINE
  8
0
 62
7
 10
-9.82500000E+01
 20
1.20341084E+02
 11
-1.00250000E+02
 21
1.20341084E+02
  0
LINE
  8
0
 62
7
 10
-9.82500000E+01
 20
1.16541084E+02
 11
-1.00250000E+02
 21
1.16541084E+02
  0
LINE
  8
0
 62
7
 10
-9.82500000E+01
 20
1.21541084E+02
 11
-9.60800000E+01
 21
1.21541084E+02
  0
LINE
  8
0
 62
7
 10
-9.82500000E+01
 20
1.16541084E+02
 11
-9.60800000E+01
 21
1.16541084E+02
  0
LINE
  8
0
 62
7
 10
-9.82500000E+01
 20
1.19041084E+02
 11
-9.60800000E+01
 21
1.19041084E+02
  0
ARC
  8
0
 62
7
 10
-9.93425227E+01
 20
1.17791084E+02
 40
3.49378798E+00
 50
3.39036210E+02
 51
2.09637896E+01
  0
ARC
  8
0
 62
7
 10
-9.93425227E+01
 20
1.20291084E+02
 40
3.49378798E+00
 50
3.39036210E+02
 51
2.09637896E+01
  0
LINE
  8
0
 62
7
 10
-9.60800000E+01
 20
1.21541084E+02
 11
-9.58500000E+01
 21
1.21141084E+02
  0
LINE
  8
0
 62
7
 10
-9.60800000E+01
 20
1.16541084E+02
 11
-9.58500000E+01
 21
1.16941084E+02
  0
LINE
  8
0
 62
7
 10
-9.58500000E+01
 20
1.21141084E+02
 11
-9.58500000E+01
 21
1.16941084E+02
  0
LINE
  8
0
  6
PHANTOM
 10
-1.25050000E+02
 20
-7.42548547E+01
 11
-1.25050000E+02
 21
-1.80700206E+01
  0
LINE
  8
0
 62
7
 10
-1.74250000E+02
 20
-5.89489156E+01
 11
-1.82250000E+02
 21
-5.89489156E+01
  0
LINE
  8
0
 62
7
 10
-1.74250000E+02
 20
-3.89489156E+01
 11
-1.82250000E+02
 21
-3.89489156E+01
  0
LINE
  8
0
 62
7
 10
-1.69250000E+02
 20
-5.14489156E+01
 11
-1.69250000E+02
 21
-4.64489156E+01
  0
LINE
  8
0
 62
2
 10
-1.69250000E+02
 20
-4.69489156E+01
 11
-1.68380000E+02
 21
-4.64489156E+01
  0
LINE
  8
0
 62
2
 10
-1.69250000E+02
 20
-5.09489156E+01
 11
-1.68380000E+02
 21
-5.14489156E+01
  0
LINE
  8
0
 62
7
 10
-1.70050000E+02
 20
-4.64489156E+01
 11
-1.68250000E+02
 21
-4.64489156E+01
  0
LINE
  8
0
 62
2
 10
-1.70050000E+02
 20
-4.68489156E+01
 11
-1.69250000E+02
 21
-4.68489156E+01
  0
LINE
  8
0
 62
2
 10
-1.70050000E+02
 20
-5.10489156E+01
 11
-1.69250000E+02
 21
-5.10489156E+01
  0
LINE
  8
0
 62
7
 10
-1.70050000E+02
 20
-5.14489156E+01
 11
-1.68250000E+02
 21
-5.14489156E+01
  0
LINE
  8
0
 62
7
 10
-1.73250000E+02
 20
-4.09489156E+01
 11
-1.73250000E+02
 21
-5.69489156E+01
  0
LINE
  8
0
 62
7
 10
-1.72800000E+02
 20
-5.29489156E+01
 11
-1.73250000E+02
 21
-5.21589156E+01
  0
LINE
  8
0
 62
7
 10
-1.70500000E+02
 20
-5.29489156E+01
 11
-1.72800000E+02
 21
-5.29489156E+01
  0
LINE
  8
0
 62
7
 10
-1.70050000E+02
 20
-5.21589156E+01
 11
-1.70500000E+02
 21
-5.29489156E+01
  0
LINE
  8
0
 62
7
 10
-1.70050000E+02
 20
-4.57389156E+01
 11
-1.70050000E+02
 21
-5.21589156E+01
  0
LINE
  8
0
 62
7
 10
-1.70050000E+02
 20
-4.57389156E+01
 11
-1.70500000E+02
 21
-4.49489156E+01
  0
LINE
  8
0
 62
7
 10
-1.70500000E+02
 20
-4.49489156E+01
 11
-1.72800000E+02
 21
-4.49489156E+01
  0
LINE
  8
0
 62
7
 10
-1.72800000E+02
 20
-4.49489156E+01
 11
-1.73250000E+02
 21
-4.57389156E+01
  0
LINE
  8
0
 62
7
 10
-1.70500000E+02
 20
-4.89489156E+01
 11
-1.72800000E+02
 21
-4.89489156E+01
  0
LINE
  8
0
 62
7
 10
-1.82250000E+02
 20
-3.89489156E+01
 11
-1.82250000E+02
 21
-5.89489156E+01
  0
LINE
  8
0
 62
7
 10
-1.74250000E+02
 20
-3.89489156E+01
 11
-1.74250000E+02
 21
-5.89489156E+01
  0
LINE
  8
0
 62
7
 10
-1.74250000E+02
 20
-4.09489156E+01
 11
-1.73250000E+02
 21
-4.09489156E+01
  0
LINE
  8
0
 62
7
 10
-1.74250000E+02
 20
-5.69489156E+01
 11
-1.73250000E+02
 21
-5.69489156E+01
  0
ARC
  8
0
 62
7
 10
-1.68618403E+02
 20
-4.69489156E+01
 40
4.63527266E+00
 50
1.54438855E+02
 51
2.05561145E+02
  0
ARC
  8
0
 62
7
 10
-1.74689679E+02
 20
-4.69489156E+01
 40
4.64256526E+00
 50
3.34481893E+02
 51
2.55181068E+01
  0
ARC
  8
0
 62
7
 10
-1.74689679E+02
 20
-5.09489156E+01
 40
4.64256526E+00
 50
3.34481893E+02
 51
2.55181068E+01
  0
ARC
  8
0
 62
7
 10
-1.68618403E+02
 20
-5.09489156E+01
 40
4.63527266E+00
 50
1.54438855E+02
 51
2.05561145E+02
  0
CIRCLE
  8
0
 62
2
 10
-1.63254048E+02
 20
-5.49535903E+01
 40
2.00000000E+00
  0
CIRCLE
  8
0
 62
7
 10
-1.63254048E+02
 20
-5.49535903E+01
 40
1.64999962E+00
  0
CIRCLE
  8
0
 62
7
 10
-1.03244054E+02
 20
-4.29535903E+01
 40
1.64999962E+00
  0
CIRCLE
  8
0
 62
2
 10
-1.03244054E+02
 20
-4.29535903E+01
 40
2.00000000E+00
  0
ARC
  8
0
 62
7
 10
-1.08144060E+02
 20
-4.89489156E+01
 40
5.04329304E-01
 50
9.75127809E+01
 51
2.62487219E+02
  0
CIRCLE
  8
0
 62
7
 10
-1.48244048E+02
 20
-4.89535903E+01
 40
5.00000000E-01
  0
CIRCLE
  8
0
 62
2
 10
-1.48244048E+02
 20
-4.89535903E+01
 40
2.50000000E+00
  0
CIRCLE
  8
0
 62
7
 10
-1.48244048E+02
 20
-4.89535903E+01
 40
2.09999943E+00
  0
CIRCLE
  8
0
 62
7
 10
-1.10244054E+02
 20
-4.89535903E+01
 40
2.09999943E+00
  0
CIRCLE
  8
0
 62
2
 10
-1.10244054E+02
 20
-4.89535903E+01
 40
2.50000000E+00
  0
LINE
  8
0
  6
CENTER
 62
2
 10
-1.06551878E+02
 20
-4.29489156E+01
 11
-9.99900000E+01
 21
-4.29489156E+01
  0
LINE
  8
0
  6
CENTER
 62
2
 10
-1.66335867E+02
 20
-5.49489156E+01
 11
-1.60320000E+02
 21
-5.49489156E+01
  0
LINE
  8
0
  6
CENTER
 62
2
 10
-1.03250000E+02
 20
-3.99389156E+01
 11
-1.03250000E+02
 21
-4.61948721E+01
  0
LINE
  8
0
  6
CENTER
 62
2
 10
-1.63250000E+02
 20
-5.18589156E+01
 11
-1.63250000E+02
 21
-5.89489156E+01
  0
LINE
  8
0
  6
CENTER
 62
2
 10
-1.10250000E+02
 20
-4.56289156E+01
 11
-1.10250000E+02
 21
-5.22889156E+01
  0
LINE
  8
0
  6
CENTER
 62
2
 10
-1.48250000E+02
 20
-4.50199534E+01
 11
-1.48250000E+02
 21
-5.22889156E+01
  0
LINE
  8
0
 62
7
 10
-9.82500000E+01
 20
-3.84489156E+01
 11
-9.82500000E+01
 21
-5.94489156E+01
  0
LINE
  8
0
 62
7
 10
-1.68250000E+02
 20
-3.84489156E+01
 11
-1.68250000E+02
 21
-5.94489156E+01
  0
LINE
  8
0
  6
CENTER
 62
2
 10
-1.86094048E+02
 20
-4.89489156E+01
 11
-9.43500000E+01
 21
-4.89489156E+01
  0
LINE
  8
0
 62
7
 10
-1.74250000E+02
 20
-3.89489156E+01
 11
-1.68250000E+02
 21
-3.89489156E+01
  0
LINE
  8
0
 62
7
 10
-1.74250000E+02
 20
-5.89489156E+01
 11
-1.68250000E+02
 21
-5.89489156E+01
  0
LINE
  8
0
 62
7
 10
-1.68250000E+02
 20
-3.84489156E+01
 11
-9.82500000E+01
 21
-3.84489156E+01
  0
LINE
  8
0
 62
7
 10
-1.68250000E+02
 20
-5.94489156E+01
 11
-9.82500000E+01
 21
-5.94489156E+01
  0
ARC
  8
0
 62
7
 10
-9.93425227E+01
 20
-5.01989156E+01
 40
3.49378798E+00
 50
3.39036210E+02
 51
2.09637896E+01
  0
ARC
  8
0
 62
7
 10
-9.93425227E+01
 20
-4.76989156E+01
 40
3.49378798E+00
 50
3.39036210E+02
 51
2.09637896E+01
  0
LINE
  8
0
 62
7
 10
-9.82500000E+01
 20
-4.89489156E+01
 11
-9.60800000E+01
 21
-4.89489156E+01
  0
LINE
  8
0
 62
7
 10
-9.60800000E+01
 20
-4.64489156E+01
 11
-9.58500000E+01
 21
-4.68489156E+01
  0
LINE
  8
0
 62
7
 10
-9.60800000E+01
 20
-5.14489156E+01
 11
-9.58500000E+01
 21
-5.10489156E+01
  0
LINE
  8
0
 62
7
 10
-9.82500000E+01
 20
-5.14489156E+01
 11
-9.60800000E+01
 21
-5.14489156E+01
  0
LINE
  8
0
 62
7
 10
-9.82500000E+01
 20
-4.64489156E+01
 11
-9.60800000E+01
 21
-4.64489156E+01
  0
LINE
  8
0
 62
7
 10
-9.58500000E+01
 20
-4.68489156E+01
 11
-9.58500000E+01
 21
-5.10489156E+01
  0
LINE
  8
0
  6
CENTER
 10
1.56624927E+02
 20
-1.80700206E+01
 11
1.56624927E+02
 21
8.85191902E+01
  0
LINE
  8
0
  6
DASHED
 62
6
 10
1.03674927E+02
 20
4.14108437E+00
 11
1.11174927E+02
 21
4.14108437E+00
  0
LINE
  8
0
  6
DASHED
 62
6
 10
1.11174927E+02
 20
4.14108437E+00
 11
1.11174927E+02
 21
8.54108437E+00
  0
LINE
  8
0
  6
DASHED
 62
6
 10
1.03674927E+02
 20
4.14108437E+00
 11
1.03674927E+02
 21
8.54108437E+00
  0
LINE
  8
0
  6
DASHED
 62
6
 10
1.09674927E+02
 20
-2.45891563E+00
 11
1.09674927E+02
 21
4.14108437E+00
  0
LINE
  8
0
  6
DASHED
 62
6
 10
1.05174927E+02
 20
-2.45891563E+00
 11
1.05174927E+02
 21
4.14108437E+00
  0
LINE
  8
0
  6
DASHED
 62
6
 10
1.90674927E+02
 20
-2.45891563E+00
 11
1.90674927E+02
 21
8.54108437E+00
  0
LINE
  8
0
  6
DASHED
 62
6
 10
1.86174927E+02
 20
-2.45891563E+00
 11
1.86174927E+02
 21
8.54108437E+00
  0
LINE
  8
0
  6
CENTER
 62
6
 10
1.07424927E+02
 20
-3.94124958E+00
 11
1.07424927E+02
 21
1.01878298E+01
  0
LINE
  8
0
  6
CENTER
 62
6
 10
1.88424927E+02
 20
-3.94124958E+00
 11
1.88424927E+02
 21
1.01878298E+01
  0
LINE
  8
0
 62
4
 10
1.01424927E+02
 20
8.54108437E+00
 11
1.01424927E+02
 21
-2.45891563E+00
  0
LINE
  8
0
 62
4
 10
1.01424927E+02
 20
-2.45891563E+00
 11
1.92424927E+02
 21
-2.45891563E+00
  0
LINE
  8
0
 62
4
 10
1.92424927E+02
 20
8.54108437E+00
 11
1.92424927E+02
 21
-2.45891563E+00
  0
LINE
  8
0
 62
7
 10
1.21577932E+02
 20
1.43410844E+01
 11
1.13424927E+02
 21
1.43410844E+01
  0
LINE
  8
0
 62
7
 10
1.18654628E+02
 20
1.75410844E+01
 11
1.13424927E+02
 21
1.75410844E+01
  0
LINE
  8
0
 62
7
 10
1.18653215E+02
 20
3.25410844E+01
 11
1.13424927E+02
 21
3.25410844E+01
  0
LINE
  8
0
 62
7
 10
1.21532412E+02
 20
3.57410844E+01
 11
1.13424927E+02
 21
3.57410844E+01
  0
LINE
  8
0
 62
7
 10
1.83414927E+02
 20
1.43410844E+01
 11
1.23263825E+02
 21
1.43410844E+01
  0
LINE
  8
0
 62
7
 10
1.83414927E+02
 20
1.75410844E+01
 11
1.26187129E+02
 21
1.75410844E+01
  0
LINE
  8
0
 62
7
 10
1.83414927E+02
 20
3.25410844E+01
 11
1.26188542E+02
 21
3.25410844E+01
  0
LINE
  8
0
 62
7
 10
1.83414927E+02
 20
3.57410844E+01
 11
1.23309345E+02
 21
3.57410844E+01
  0
CIRCLE
  8
0
 62
4
 10
1.49424927E+02
 20
4.50338297E+01
 40
1.65000000E+00
  0
CIRCLE
  8
0
 62
6
 10
1.49424927E+02
 20
4.50338297E+01
 40
2.00000000E+00
  0
CIRCLE
  8
0
 62
4
 10
1.34424927E+02
 20
4.50338297E+01
 40
1.65000000E+00
  0
CIRCLE
  8
0
 62
6
 10
1.34424927E+02
 20
4.50338297E+01
 40
2.00000000E+00
  0
CIRCLE
  8
0
 62
7
 10
1.24424927E+02
 20
4.50338297E+01
 40
1.65000000E+00
  0
CIRCLE
  8
0
 62
2
 10
1.24424927E+02
 20
4.50338297E+01
 40
2.00000000E+00
  0
LINE
  8
0
 62
2
 10
1.21199926E+02
 20
4.50338297E+01
 11
1.52803043E+02
 21
4.50338297E+01
  0
LINE
  8
0
  6
CENTER
 62
2
 10
1.21199926E+02
 20
5.50338297E+01
 11
1.52803043E+02
 21
5.50338297E+01
  0
LINE
  8
0
 62
7
 10
9.94249268E+01
 20
5.90410844E+01
 11
1.07424927E+02
 21
5.90410844E+01
  0
LINE
  8
0
 62
7
 10
1.12424927E+02
 20
2.24760844E+01
 11
1.12424927E+02
 21
2.74760844E+01
  0
LINE
  8
0
 62
7
 10
1.08424927E+02
 20
3.29760844E+01
 11
1.08424927E+02
 21
1.69760844E+01
  0
LINE
  8
0
 62
2
 10
1.11624927E+02
 20
2.70760844E+01
 11
1.12424927E+02
 21
2.70760844E+01
  0
LINE
  8
0
 62
2
 10
1.11624927E+02
 20
2.28760844E+01
 11
1.12424927E+02
 21
2.28760844E+01
  0
LINE
  8
0
 62
7
 10
1.08874927E+02
 20
2.97260844E+01
 11
1.11174927E+02
 21
2.97260844E+01
  0
LINE
  8
0
 62
7
 10
1.08804927E+02
 20
2.03560844E+01
 11
1.11244927E+02
 21
2.03560844E+01
  0
LINE
  8
0
 62
7
 10
1.11624927E+02
 20
2.89460844E+01
 11
1.11624927E+02
 21
2.10160844E+01
  0
LINE
  8
0
 62
7
 10
1.08424927E+02
 20
2.89460844E+01
 11
1.08874927E+02
 21
2.97260844E+01
  0
LINE
  8
0
 62
7
 10
1.11174927E+02
 20
2.97260844E+01
 11
1.11624927E+02
 21
2.89460844E+01
  0
LINE
  8
0
 62
7
 10
1.08424927E+02
 20
2.10160844E+01
 11
1.08804927E+02
 21
2.03560844E+01
  0
LINE
  8
0
 62
7
 10
1.11244927E+02
 20
2.03460844E+01
 11
1.11624927E+02
 21
2.10160844E+01
  0
LINE
  8
0
 62
7
 10
1.08824927E+02
 20
2.72860844E+01
 11
1.11224927E+02
 21
2.72860844E+01
  0
LINE
  8
0
 62
7
 10
1.11224927E+02
 20
2.26660844E+01
 11
1.08824927E+02
 21
2.26660844E+01
  0
LINE
  8
0
 62
7
 10
9.94249268E+01
 20
1.14760844E+01
 11
1.07424927E+02
 21
1.14760844E+01
  0
LINE
  8
0
 62
7
 10
1.07424927E+02
 20
3.29760844E+01
 11
1.08424927E+02
 21
3.29760844E+01
  0
LINE
  8
0
 62
7
 10
1.07424927E+02
 20
1.69760844E+01
 11
1.08424927E+02
 21
1.69760844E+01
  0
ARC
  8
0
 62
7
 10
1.09754208E+02
 20
2.15110844E+01
 40
1.87003693E+00
 50
3.21856375E+02
 51
3.81436245E+01
  0
ARC
  8
0
 62
7
 10
1.10287547E+02
 20
2.84451190E+01
 40
1.86617778E+00
 50
1.38729217E+02
 51
2.18394612E+02
  0
ARC
  8
0
 62
7
 10
1.09754231E+02
 20
2.84449163E+01
 40
1.87238813E+00
 50
3.21763725E+02
 51
4.11124470E+01
  0
ARC
  8
0
 62
7
 10
1.10287565E+02
 20
2.15110844E+01
 40
1.86368863E+00
 50
1.41702943E+02
 51
2.18297057E+02
  0
ARC
  8
0
 62
7
 10
1.04754214E+02
 20
2.49760844E+01
 40
6.87067820E+00
 50
3.40353783E+02
 51
1.96462164E+01
  0
ARC
  8
0
 62
7
 10
1.15287545E+02
 20
2.49760844E+01
 40
6.86305611E+00
 50
1.60331066E+02
 51
1.99668934E+02
  0
LINE
  8
0
 62
7
 10
9.94249268E+01
 20
5.90410844E+01
 11
9.94249268E+01
 21
1.14760844E+01
  0
LINE
  8
0
 62
7
 10
1.07424927E+02
 20
5.95338297E+01
 11
1.07424927E+02
 21
1.14760844E+01
  0
LINE
  8
0
 62
7
 10
1.11624927E+02
 20
2.24760844E+01
 11
1.13424927E+02
 21
2.24760844E+01
  0
LINE
  8
0
 62
7
 10
1.11624927E+02
 20
2.74760844E+01
 11
1.13424927E+02
 21
2.74760844E+01
  0
LINE
  8
0
 62
2
 10
1.12424927E+02
 20
2.29760844E+01
 11
1.13294927E+02
 21
2.24760844E+01
  0
LINE
  8
0
 62
2
 10
1.12424927E+02
 20
2.69760844E+01
 11
1.13294927E+02
 21
2.74760844E+01
  0
CIRCLE
  8
0
 62
7
 10
1.24424927E+02
 20
5.50338297E+01
 40
1.65000000E+00
  0
CIRCLE
  8
0
 62
4
 10
1.34424927E+02
 20
5.50338297E+01
 40
1.65000000E+00
  0
CIRCLE
  8
0
 62
4
 10
1.49424927E+02
 20
5.50338297E+01
 40
1.65000000E+00
  0
CIRCLE
  8
0
 62
6
 10
1.49424927E+02
 20
5.50338297E+01
 40
2.00000000E+00
  0
LINE
  8
0
  6
CENTER
 62
2
 10
1.04990909E+02
 20
5.00338297E+01
 11
1.82719005E+02
 21
5.00338297E+01
  0
CIRCLE
  8
0
 62
6
 10
1.34424927E+02
 20
5.50338297E+01
 40
2.00000000E+00
  0
CIRCLE
  8
0
 62
2
 10
1.24424927E+02
 20
5.50338297E+01
 40
2.00000000E+00
  0
LINE
  8
0
  6
CENTER
 62
2
 10
1.71924927E+02
 20
5.53180870E+01
 11
1.71924927E+02
 21
4.65846636E+01
  0
LINE
  8
0
 62
7
 10
1.81424927E+02
 20
5.95338297E+01
 11
1.81424927E+02
 21
4.05338297E+01
  0
LINE
  8
0
 62
7
 10
1.83414927E+02
 20
3.95410844E+01
 11
1.13424927E+02
 21
3.95410844E+01
  0
LINE
  8
0
 62
7
 10
1.83414927E+02
 20
3.90410844E+01
 11
1.13424927E+02
 21
3.90410844E+01
  0
LINE
  8
0
 62
7
 10
1.63924927E+02
 20
4.88295958E+01
 11
1.64704927E+02
 21
4.91480295E+01
  0
LINE
  8
0
 62
7
 10
1.64704927E+02
 20
4.97848968E+01
 11
1.64704927E+02
 21
4.91480295E+01
  0
LINE
  8
0
 62
7
 10
1.63924927E+02
 20
5.01033305E+01
 11
1.64704927E+02
 21
4.97848968E+01
  0
LINE
  8
0
 62
7
 10
1.63924927E+02
 20
5.01033305E+01
 11
1.63144927E+02
 21
4.97848968E+01
  0
LINE
  8
0
 62
7
 10
1.63144927E+02
 20
4.97848968E+01
 11
1.63144927E+02
 21
4.91480295E+01
  0
LINE
  8
0
 62
7
 10
1.63924927E+02
 20
4.88295958E+01
 11
1.63144927E+02
 21
4.91480295E+01
  0
LINE
  8
0
 62
7
 10
1.71924927E+02
 20
5.01033305E+01
 11
1.71144927E+02
 21
4.97848968E+01
  0
LINE
  8
0
 62
7
 10
1.71144927E+02
 20
4.97848968E+01
 11
1.71144927E+02
 21
4.91480295E+01
  0
LINE
  8
0
 62
7
 10
1.71924927E+02
 20
4.88295958E+01
 11
1.71144927E+02
 21
4.91480295E+01
  0
LINE
  8
0
 62
7
 10
1.71924927E+02
 20
4.88295958E+01
 11
1.72704927E+02
 21
4.91480295E+01
  0
LINE
  8
0
 62
7
 10
1.71924927E+02
 20
5.01033305E+01
 11
1.72704927E+02
 21
4.97848968E+01
  0
LINE
  8
0
 62
7
 10
1.72704927E+02
 20
4.97848968E+01
 11
1.72704927E+02
 21
4.91480295E+01
  0
LINE
  8
0
 62
4
 10
1.01424927E+02
 20
8.54108437E+00
 11
1.92424927E+02
 21
8.54108437E+00
  0
POLYLINE
  8
0
 62
7
 66
1
  0
VERTEX
  8
0
 62
7
 10
1.62771636E+02
 20
4.83987739E+01
  0
VERTEX
  8
0
 62
7
 10
1.62917136E+02
 20
4.83275259E+01
  0
VERTEX
  8
0
 62
7
 10
1.63071379E+02
 20
4.82661600E+01
  0
VERTEX
  8
0
 62
7
 10
1.63233028E+02
 20
4.82152087E+01
  0
VERTEX
  8
0
 62
7
 10
1.63400680E+02
 20
4.81751140E+01
  0
VERTEX
  8
0
 62
7
 10
1.63572882E+02
 20
4.81462238E+01
  0
VERTEX
  8
0
 62
7
 10
1.63748137E+02
 20
4.81287888E+01
  0
VERTEX
  8
0
 62
7
 10
1.63924927E+02
 20
4.81229603E+01
  0
VERTEX
  8
0
 62
7
 10
1.64101717E+02
 20
4.81287888E+01
  0
VERTEX
  8
0
 62
7
 10
1.64276972E+02
 20
4.81462238E+01
  0
VERTEX
  8
0
 62
7
 10
1.64449174E+02
 20
4.81751140E+01
  0
VERTEX
  8
0
 62
7
 10
1.64616826E+02
 20
4.82152087E+01
  0
VERTEX
  8
0
 62
7
 10
1.64778475E+02
 20
4.82661600E+01
  0
VERTEX
  8
0
 62
7
 10
1.64932718E+02
 20
4.83275259E+01
  0
VERTEX
  8
0
 62
7
 10
1.65078218E+02
 20
4.83987739E+01
  0
SEQEND
  8
0
  0
POLYLINE
  8
0
 62
7
 66
1
  0
VERTEX
  8
0
 62
7
 10
1.70771636E+02
 20
4.83987739E+01
  0
VERTEX
  8
0
 62
7
 10
1.70917136E+02
 20
4.83275259E+01
  0
VERTEX
  8
0
 62
7
 10
1.71071379E+02
 20
4.82661600E+01
  0
VERTEX
  8
0
 62
7
 10
1.71233028E+02
 20
4.82152087E+01
  0
VERTEX
  8
0
 62
7
 10
1.71400680E+02
 20
4.81751140E+01
  0
VERTEX
  8
0
 62
7
 10
1.71572882E+02
 20
4.81462238E+01
  0
VERTEX
  8
0
 62
7
 10
1.71748137E+02
 20
4.81287888E+01
  0
VERTEX
  8
0
 62
7
 10
1.71924927E+02
 20
4.81229603E+01
  0
VERTEX
  8
0
 62
7
 10
1.72101717E+02
 20
4.81287888E+01
  0
VERTEX
  8
0
 62
7
 10
1.72276972E+02
 20
4.81462238E+01
  0
VERTEX
  8
0
 62
7
 10
1.72449174E+02
 20
4.81751140E+01
  0
VERTEX
  8
0
 62
7
 10
1.72616826E+02
 20
4.82152087E+01
  0
VERTEX
  8
0
 62
7
 10
1.72778475E+02
 20
4.82661600E+01
  0
VERTEX
  8
0
 62
7
 10
1.72932718E+02
 20
4.83275259E+01
  0
VERTEX
  8
0
 62
7
 10
1.73078218E+02
 20
4.83987739E+01
  0
SEQEND
  8
0
  0
POLYLINE
  8
0
 62
7
 66
1
  0
VERTEX
  8
0
 62
7
 10
1.65816701E+02
 20
4.95913435E+01
  0
VERTEX
  8
0
 62
7
 10
1.65793324E+02
 20
4.97104837E+01
  0
VERTEX
  8
0
 62
7
 10
1.65754971E+02
 20
4.98276681E+01
  0
VERTEX
  8
0
 62
7
 10
1.65701950E+02
 20
4.99419573E+01
  0
VERTEX
  8
0
 62
7
 10
1.65634685E+02
 20
5.00524352E+01
  0
VERTEX
  8
0
 62
7
 10
1.65553716E+02
 20
5.01582164E+01
  0
VERTEX
  8
0
 62
7
 10
1.65459692E+02
 20
5.02584530E+01
  0
VERTEX
  8
0
 62
7
 10
1.65353366E+02
 20
5.03523415E+01
  0
VERTEX
  8
0
 62
7
 10
1.65235591E+02
 20
5.04391295E+01
  0
VERTEX
  8
0
 62
7
 10
1.65107311E+02
 20
5.05181212E+01
  0
VERTEX
  8
0
 62
7
 10
1.64969553E+02
 20
5.05886835E+01
  0
VERTEX
  8
0
 62
7
 10
1.64823422E+02
 20
5.06502509E+01
  0
VERTEX
  8
0
 62
7
 10
1.64670090E+02
 20
5.07023298E+01
  0
VERTEX
  8
0
 62
7
 10
1.64510784E+02
 20
5.07445029E+01
  0
VERTEX
  8
0
 62
7
 10
1.64346783E+02
 20
5.07764321E+01
  0
VERTEX
  8
0
 62
7
 10
1.64179401E+02
 20
5.07978615E+01
  0
VERTEX
  8
0
 62
7
 10
1.64009979E+02
 20
5.08086193E+01
  0
VERTEX
  8
0
 62
7
 10
1.63839875E+02
 20
5.08086193E+01
  0
VERTEX
  8
0
 62
7
 10
1.63670453E+02
 20
5.07978615E+01
  0
VERTEX
  8
0
 62
7
 10
1.63503071E+02
 20
5.07764321E+01
  0
VERTEX
  8
0
 62
7
 10
1.63339070E+02
 20
5.07445029E+01
  0
VERTEX
  8
0
 62
7
 10
1.63179764E+02
 20
5.07023298E+01
  0
VERTEX
  8
0
 62
7
 10
1.63026432E+02
 20
5.06502509E+01
  0
VERTEX
  8
0
 62
7
 10
1.62880301E+02
 20
5.05886835E+01
  0
VERTEX
  8
0
 62
7
 10
1.62742543E+02
 20
5.05181212E+01
  0
VERTEX
  8
0
 62
7
 10
1.62614263E+02
 20
5.04391295E+01
  0
VERTEX
  8
0
 62
7
 10
1.62496488E+02
 20
5.03523415E+01
  0
VERTEX
  8
0
 62
7
 10
1.62390162E+02
 20
5.02584530E+01
  0
VERTEX
  8
0
 62
7
 10
1.62296138E+02
 20
5.01582164E+01
  0
VERTEX
  8
0
 62
7
 10
1.62215169E+02
 20
5.00524352E+01
  0
VERTEX
  8
0
 62
7
 10
1.62147904E+02
 20
4.99419573E+01
  0
VERTEX
  8
0
 62
7
 10
1.62094883E+02
 20
4.98276681E+01
  0
VERTEX
  8
0
 62
7
 10
1.62056530E+02
 20
4.97104837E+01
  0
VERTEX
  8
0
 62
7
 10
1.62033153E+02
 20
4.95913435E+01
  0
SEQEND
  8
0
  0
POLYLINE
  8
0
 62
7
 66
1
  0
VERTEX
  8
0
 62
7
 10
1.73816701E+02
 20
4.95913435E+01
  0
VERTEX
  8
0
 62
7
 10
1.73793324E+02
 20
4.97104837E+01
  0
VERTEX
  8
0
 62
7
 10
1.73754971E+02
 20
4.98276681E+01
  0
VERTEX
  8
0
 62
7
 10
1.73701950E+02
 20
4.99419573E+01
  0
VERTEX
  8
0
 62
7
 10
1.73634685E+02
 20
5.00524352E+01
  0
VERTEX
  8
0
 62
7
 10
1.73553716E+02
 20
5.01582164E+01
  0
VERTEX
  8
0
 62
7
 10
1.73459692E+02
 20
5.02584530E+01
  0
VERTEX
  8
0
 62
7
 10
1.73353366E+02
 20
5.03523415E+01
  0
VERTEX
  8
0
 62
7
 10
1.73235591E+02
 20
5.04391295E+01
  0
VERTEX
  8
0
 62
7
 10
1.73107311E+02
 20
5.05181212E+01
  0
VERTEX
  8
0
 62
7
 10
1.72969553E+02
 20
5.05886835E+01
  0
VERTEX
  8
0
 62
7
 10
1.72823422E+02
 20
5.06502509E+01
  0
VERTEX
  8
0
 62
7
 10
1.72670090E+02
 20
5.07023298E+01
  0
VERTEX
  8
0
 62
7
 10
1.72510784E+02
 20
5.07445029E+01
  0
VERTEX
  8
0
 62
7
 10
1.72346783E+02
 20
5.07764321E+01
  0
VERTEX
  8
0
 62
7
 10
1.72179401E+02
 20
5.07978615E+01
  0
VERTEX
  8
0
 62
7
 10
1.72009979E+02
 20
5.08086193E+01
  0
VERTEX
  8
0
 62
7
 10
1.71839875E+02
 20
5.08086193E+01
  0
VERTEX
  8
0
 62
7
 10
1.71670453E+02
 20
5.07978615E+01
  0
VERTEX
  8
0
 62
7
 10
1.71503071E+02
 20
5.07764321E+01
  0
VERTEX
  8
0
 62
7
 10
1.71339070E+02
 20
5.07445029E+01
  0
VERTEX
  8
0
 62
7
 10
1.71179764E+02
 20
5.07023298E+01
  0
VERTEX
  8
0
 62
7
 10
1.71026432E+02
 20
5.06502509E+01
  0
VERTEX
  8
0
 62
7
 10
1.70880301E+02
 20
5.05886835E+01
  0
VERTEX
  8
0
 62
7
 10
1.70742543E+02
 20
5.05181212E+01
  0
VERTEX
  8
0
 62
7
 10
1.70614263E+02
 20
5.04391295E+01
  0
VERTEX
  8
0
 62
7
 10
1.70496488E+02
 20
5.03523415E+01
  0
VERTEX
  8
0
 62
7
 10
1.70390162E+02
 20
5.02584530E+01
  0
VERTEX
  8
0
 62
7
 10
1.70296138E+02
 20
5.01582164E+01
  0
VERTEX
  8
0
 62
7
 10
1.70215169E+02
 20
5.00524352E+01
  0
VERTEX
  8
0
 62
7
 10
1.70147904E+02
 20
4.99419573E+01
  0
VERTEX
  8
0
 62
7
 10
1.70094883E+02
 20
4.98276681E+01
  0
VERTEX
  8
0
 62
7
 10
1.70056530E+02
 20
4.97104837E+01
  0
VERTEX
  8
0
 62
7
 10
1.70033153E+02
 20
4.95913435E+01
  0
SEQEND
  8
0
  0
LINE
  8
0
  6
CENTER
 62
2
 10
1.74970842E+02
 20
4.94664632E+01
 11
1.60289541E+02
 21
4.94664632E+01
  0
POLYLINE
  8
0
 62
7
 66
1
  0
VERTEX
  8
0
 62
7
 10
1.63924927E+02
 20
4.79108282E+01
  0
VERTEX
  8
0
 62
7
 10
1.64107954E+02
 20
4.79221294E+01
  0
VERTEX
  8
0
 62
7
 10
1.64289588E+02
 20
4.79559469E+01
  0
VERTEX
  8
0
 62
7
 10
1.64468447E+02
 20
4.80120234E+01
  0
VERTEX
  8
0
 62
7
 10
1.64643169E+02
 20
4.80899320E+01
  0
VERTEX
  8
0
 62
7
 10
1.64812425E+02
 20
4.81890799E+01
  0
VERTEX
  8
0
 62
7
 10
1.64974927E+02
 20
4.83087125E+01
  0
VERTEX
  8
0
 62
7
 10
1.65129438E+02
 20
4.84479192E+01
  0
VERTEX
  8
0
 62
7
 10
1.65274781E+02
 20
4.86056408E+01
  0
VERTEX
  8
0
 62
7
 10
1.65409851E+02
 20
4.87806767E+01
  0
VERTEX
  8
0
 62
7
 10
1.65533620E+02
 20
4.89716949E+01
  0
VERTEX
  8
0
 62
7
 10
1.65645146E+02
 20
4.91772416E+01
  0
VERTEX
  8
0
 62
7
 10
1.65743580E+02
 20
4.93957525E+01
  0
VERTEX
  8
0
 62
7
 10
1.65828173E+02
 20
4.96255645E+01
  0
VERTEX
  8
0
 62
7
 10
1.65898282E+02
 20
4.98649287E+01
  0
VERTEX
  8
0
 62
7
 10
1.65953371E+02
 20
5.01120234E+01
  0
VERTEX
  8
0
 62
7
 10
1.65993023E+02
 20
5.03649679E+01
  0
VERTEX
  8
0
 62
7
 10
1.66016936E+02
 20
5.06218374E+01
  0
VERTEX
  8
0
 62
7
 10
1.66024927E+02
 20
5.08806767E+01
  0
VERTEX
  8
0
 62
7
 10
1.66016936E+02
 20
5.11395161E+01
  0
VERTEX
  8
0
 62
7
 10
1.65993023E+02
 20
5.13963855E+01
  0
VERTEX
  8
0
 62
7
 10
1.65953371E+02
 20
5.16493300E+01
  0
VERTEX
  8
0
 62
7
 10
1.65898282E+02
 20
5.18964247E+01
  0
VERTEX
  8
0
 62
7
 10
1.65828173E+02
 20
5.21357889E+01
  0
VERTEX
  8
0
 62
7
 10
1.65743580E+02
 20
5.23656009E+01
  0
VERTEX
  8
0
 62
7
 10
1.65645146E+02
 20
5.25841118E+01
  0
VERTEX
  8
0
 62
7
 10
1.65533620E+02
 20
5.27896585E+01
  0
VERTEX
  8
0
 62
7
 10
1.65409851E+02
 20
5.29806767E+01
  0
VERTEX
  8
0
 62
7
 10
1.65274781E+02
 20
5.31557126E+01
  0
VERTEX
  8
0
 62
7
 10
1.65129438E+02
 20
5.33134342E+01
  0
VERTEX
  8
0
 62
7
 10
1.64974927E+02
 20
5.34526409E+01
  0
VERTEX
  8
0
 62
7
 10
1.64812425E+02
 20
5.35722735E+01
  0
VERTEX
  8
0
 62
7
 10
1.64643169E+02
 20
5.36714214E+01
  0
VERTEX
  8
0
 62
7
 10
1.64468447E+02
 20
5.37493300E+01
  0
VERTEX
  8
0
 62
7
 10
1.64289588E+02
 20
5.38054065E+01
  0
VERTEX
  8
0
 62
7
 10
1.64107954E+02
 20
5.38392240E+01
  0
VERTEX
  8
0
 62
7
 10
1.63924927E+02
 20
5.38505252E+01
  0
VERTEX
  8
0
 62
7
 10
1.63741900E+02
 20
5.38392240E+01
  0
VERTEX
  8
0
 62
7
 10
1.63560266E+02
 20
5.38054065E+01
  0
VERTEX
  8
0
 62
7
 10
1.63381407E+02
 20
5.37493300E+01
  0
VERTEX
  8
0
 62
7
 10
1.63206685E+02
 20
5.36714214E+01
  0
VERTEX
  8
0
 62
7
 10
1.63037429E+02
 20
5.35722735E+01
  0
VERTEX
  8
0
 62
7
 10
1.62874927E+02
 20
5.34526409E+01
  0
VERTEX
  8
0
 62
7
 10
1.62720416E+02
 20
5.33134342E+01
  0
VERTEX
  8
0
 62
7
 10
1.62575073E+02
 20
5.31557126E+01
  0
VERTEX
  8
0
 62
7
 10
1.62440003E+02
 20
5.29806767E+01
  0
VERTEX
  8
0
 62
7
 10
1.62316234E+02
 20
5.27896585E+01
  0
VERTEX
  8
0
 62
7
 10
1.62204708E+02
 20
5.25841118E+01
  0
VERTEX
  8
0
 62
7
 10
1.62106274E+02
 20
5.23656009E+01
  0
VERTEX
  8
0
 62
7
 10
1.62021681E+02
 20
5.21357889E+01
  0
VERTEX
  8
0
 62
7
 10
1.61951572E+02
 20
5.18964247E+01
  0
VERTEX
  8
0
 62
7
 10
1.61896483E+02
 20
5.16493300E+01
  0
VERTEX
  8
0
 62
7
 10
1.61856831E+02
 20
5.13963855E+01
  0
VERTEX
  8
0
 62
7
 10
1.61832918E+02
 20
5.11395160E+01
  0
VERTEX
  8
0
 62
7
 10
1.61824927E+02
 20
5.08806767E+01
  0
VERTEX
  8
0
 62
7
 10
1.61832918E+02
 20
5.06218373E+01
  0
VERTEX
  8
0
 62
7
 10
1.61856831E+02
 20
5.03649679E+01
  0
VERTEX
  8
0
 62
7
 10
1.61896483E+02
 20
5.01120233E+01
  0
VERTEX
  8
0
 62
7
 10
1.61951572E+02
 20
4.98649287E+01
  0
VERTEX
  8
0
 62
7
 10
1.62021681E+02
 20
4.96255645E+01
  0
VERTEX
  8
0
 62
7
 10
1.62106274E+02
 20
4.93957525E+01
  0
VERTEX
  8
0
 62
7
 10
1.62204708E+02
 20
4.91772416E+01
  0
VERTEX
  8
0
 62
7
 10
1.62316234E+02
 20
4.89716949E+01
  0
VERTEX
  8
0
 62
7
 10
1.62440003E+02
 20
4.87806767E+01
  0
VERTEX
  8
0
 62
7
 10
1.62575073E+02
 20
4.86056408E+01
  0
VERTEX
  8
0
 62
7
 10
1.62720416E+02
 20
4.84479192E+01
  0
VERTEX
  8
0
 62
7
 10
1.62874927E+02
 20
4.83087125E+01
  0
VERTEX
  8
0
 62
7
 10
1.63037429E+02
 20
4.81890799E+01
  0
VERTEX
  8
0
 62
7
 10
1.63206685E+02
 20
4.80899320E+01
  0
VERTEX
  8
0
 62
7
 10
1.63381407E+02
 20
4.80120234E+01
  0
VERTEX
  8
0
 62
7
 10
1.63560266E+02
 20
4.79559469E+01
  0
VERTEX
  8
0
 62
7
 10
1.63741900E+02
 20
4.79221294E+01
  0
VERTEX
  8
0
 62
7
 10
1.63924927E+02
 20
4.79108282E+01
  0
SEQEND
  8
0
  0
POLYLINE
  8
0
 62
7
 66
1
  0
VERTEX
  8
0
 62
7
 10
1.71924927E+02
 20
4.79108282E+01
  0
VERTEX
  8
0
 62
7
 10
1.72107954E+02
 20
4.79221294E+01
  0
VERTEX
  8
0
 62
7
 10
1.72289588E+02
 20
4.79559469E+01
  0
VERTEX
  8
0
 62
7
 10
1.72468447E+02
 20
4.80120234E+01
  0
VERTEX
  8
0
 62
7
 10
1.72643169E+02
 20
4.80899320E+01
  0
VERTEX
  8
0
 62
7
 10
1.72812425E+02
 20
4.81890799E+01
  0
VERTEX
  8
0
 62
7
 10
1.72974927E+02
 20
4.83087125E+01
  0
VERTEX
  8
0
 62
7
 10
1.73129438E+02
 20
4.84479192E+01
  0
VERTEX
  8
0
 62
7
 10
1.73274781E+02
 20
4.86056408E+01
  0
VERTEX
  8
0
 62
7
 10
1.73409851E+02
 20
4.87806767E+01
  0
VERTEX
  8
0
 62
7
 10
1.73533620E+02
 20
4.89716949E+01
  0
VERTEX
  8
0
 62
7
 10
1.73645146E+02
 20
4.91772416E+01
  0
VERTEX
  8
0
 62
7
 10
1.73743580E+02
 20
4.93957525E+01
  0
VERTEX
  8
0
 62
7
 10
1.73828173E+02
 20
4.96255645E+01
  0
VERTEX
  8
0
 62
7
 10
1.73898282E+02
 20
4.98649287E+01
  0
VERTEX
  8
0
 62
7
 10
1.73953371E+02
 20
5.01120234E+01
  0
VERTEX
  8
0
 62
7
 10
1.73993023E+02
 20
5.03649679E+01
  0
VERTEX
  8
0
 62
7
 10
1.74016936E+02
 20
5.06218374E+01
  0
VERTEX
  8
0
 62
7
 10
1.74024927E+02
 20
5.08806767E+01
  0
VERTEX
  8
0
 62
7
 10
1.74016936E+02
 20
5.11395161E+01
  0
VERTEX
  8
0
 62
7
 10
1.73993023E+02
 20
5.13963855E+01
  0
VERTEX
  8
0
 62
7
 10
1.73953371E+02
 20
5.16493300E+01
  0
VERTEX
  8
0
 62
7
 10
1.73898282E+02
 20
5.18964247E+01
  0
VERTEX
  8
0
 62
7
 10
1.73828173E+02
 20
5.21357889E+01
  0
VERTEX
  8
0
 62
7
 10
1.73743580E+02
 20
5.23656009E+01
  0
VERTEX
  8
0
 62
7
 10
1.73645146E+02
 20
5.25841118E+01
  0
VERTEX
  8
0
 62
7
 10
1.73533620E+02
 20
5.27896585E+01
  0
VERTEX
  8
0
 62
7
 10
1.73409851E+02
 20
5.29806767E+01
  0
VERTEX
  8
0
 62
7
 10
1.73274781E+02
 20
5.31557126E+01
  0
VERTEX
  8
0
 62
7
 10
1.73129438E+02
 20
5.33134342E+01
  0
VERTEX
  8
0
 62
7
 10
1.72974927E+02
 20
5.34526409E+01
  0
VERTEX
  8
0
 62
7
 10
1.72812425E+02
 20
5.35722735E+01
  0
VERTEX
  8
0
 62
7
 10
1.72643169E+02
 20
5.36714214E+01
  0
VERTEX
  8
0
 62
7
 10
1.72468447E+02
 20
5.37493300E+01
  0
VERTEX
  8
0
 62
7
 10
1.72289588E+02
 20
5.38054065E+01
  0
VERTEX
  8
0
 62
7
 10
1.72107954E+02
 20
5.38392240E+01
  0
VERTEX
  8
0
 62
7
 10
1.71924927E+02
 20
5.38505252E+01
  0
VERTEX
  8
0
 62
7
 10
1.71741900E+02
 20
5.38392240E+01
  0
VERTEX
  8
0
 62
7
 10
1.71560266E+02
 20
5.38054065E+01
  0
VERTEX
  8
0
 62
7
 10
1.71381407E+02
 20
5.37493300E+01
  0
VERTEX
  8
0
 62
7
 10
1.71206685E+02
 20
5.36714214E+01
  0
VERTEX
  8
0
 62
7
 10
1.71037429E+02
 20
5.35722735E+01
  0
VERTEX
  8
0
 62
7
 10
1.70874927E+02
 20
5.34526409E+01
  0
VERTEX
  8
0
 62
7
 10
1.70720416E+02
 20
5.33134342E+01
  0
VERTEX
  8
0
 62
7
 10
1.70575073E+02
 20
5.31557126E+01
  0
VERTEX
  8
0
 62
7
 10
1.70440003E+02
 20
5.29806767E+01
  0
VERTEX
  8
0
 62
7
 10
1.70316234E+02
 20
5.27896585E+01
  0
VERTEX
  8
0
 62
7
 10
1.70204708E+02
 20
5.25841118E+01
  0
VERTEX
  8
0
 62
7
 10
1.70106274E+02
 20
5.23656009E+01
  0
VERTEX
  8
0
 62
7
 10
1.70021681E+02
 20
5.21357889E+01
  0
VERTEX
  8
0
 62
7
 10
1.69951572E+02
 20
5.18964247E+01
  0
VERTEX
  8
0
 62
7
 10
1.69896483E+02
 20
5.16493300E+01
  0
VERTEX
  8
0
 62
7
 10
1.69856831E+02
 20
5.13963855E+01
  0
VERTEX
  8
0
 62
7
 10
1.69832918E+02
 20
5.11395160E+01
  0
VERTEX
  8
0
 62
7
 10
1.69824927E+02
 20
5.08806767E+01
  0
VERTEX
  8
0
 62
7
 10
1.69832918E+02
 20
5.06218373E+01
  0
VERTEX
  8
0
 62
7
 10
1.69856831E+02
 20
5.03649679E+01
  0
VERTEX
  8
0
 62
7
 10
1.69896483E+02
 20
5.01120233E+01
  0
VERTEX
  8
0
 62
7
 10
1.69951572E+02
 20
4.98649287E+01
  0
VERTEX
  8
0
 62
7
 10
1.70021681E+02
 20
4.96255645E+01
  0
VERTEX
  8
0
 62
7
 10
1.70106274E+02
 20
4.93957525E+01
  0
VERTEX
  8
0
 62
7
 10
1.70204708E+02
 20
4.91772416E+01
  0
VERTEX
  8
0
 62
7
 10
1.70316234E+02
 20
4.89716949E+01
  0
VERTEX
  8
0
 62
7
 10
1.70440003E+02
 20
4.87806767E+01
  0
VERTEX
  8
0
 62
7
 10
1.70575073E+02
 20
4.86056408E+01
  0
VERTEX
  8
0
 62
7
 10
1.70720416E+02
 20
4.84479192E+01
  0
VERTEX
  8
0
 62
7
 10
1.70874927E+02
 20
4.83087125E+01
  0
VERTEX
  8
0
 62
7
 10
1.71037429E+02
 20
4.81890799E+01
  0
VERTEX
  8
0
 62
7
 10
1.71206685E+02
 20
4.80899320E+01
  0
VERTEX
  8
0
 62
7
 10
1.71381407E+02
 20
4.80120234E+01
  0
VERTEX
  8
0
 62
7
 10
1.71560266E+02
 20
4.79559469E+01
  0
VERTEX
  8
0
 62
7
 10
1.71741900E+02
 20
4.79221294E+01
  0
VERTEX
  8
0
 62
7
 10
1.71924927E+02
 20
4.79108282E+01
  0
SEQEND
  8
0
  0
LINE
  8
0
  6
CENTER
 62
2
 10
1.63924927E+02
 20
5.53180870E+01
 11
1.63924927E+02
 21
4.65846636E+01
  0
LINE
  8
0
 62
7
 10
1.13424927E+02
 20
4.05338297E+01
 11
1.13424927E+02
 21
8.54108437E+00
  0
CIRCLE
  8
0
 62
7
 10
1.22420879E+02
 20
1.80464097E+01
 40
3.79999924E+00
  0
CIRCLE
  8
0
 62
7
 10
1.22420879E+02
 20
3.20464097E+01
 40
3.79999924E+00
  0
CIRCLE
  8
0
 62
7
 10
1.22420879E+02
 20
3.20464097E+01
 40
2.25000000E+00
  0
CIRCLE
  8
0
 62
7
 10
1.22420879E+02
 20
1.80464097E+01
 40
2.25000000E+00
  0
LINE
  8
0
  6
CENTER
 62
2
 10
1.17363133E+02
 20
1.80410844E+01
 11
1.27309059E+02
 21
1.80410844E+01
  0
LINE
  8
0
  6
CENTER
 62
2
 10
1.17363133E+02
 20
3.20410844E+01
 11
1.27309059E+02
 21
3.20410844E+01
  0
LINE
  8
0
  6
CENTER
 62
2
 10
1.22424927E+02
 20
1.18910844E+01
 11
1.22424927E+02
 21
3.81910844E+01
  0
LINE
  8
0
 62
7
 10
1.83414927E+02
 20
8.54108437E+00
 11
1.83414927E+02
 21
5.11268708E+01
  0
LINE
  8
0
  6
CENTER
 62
2
 10
9.49776157E+01
 20
2.50410844E+01
 11
1.88436009E+02
 21
2.50410844E+01
  0
LINE
  8
0
 62
7
 10
1.81424927E+02
 20
4.33410844E+01
 11
1.83414927E+02
 21
4.33410844E+01
  0
LINE
  8
0
 62
7
 10
1.83414927E+02
 20
5.11268708E+01
 11
1.81424927E+02
 21
5.11268708E+01
  0
LINE
  8
0
  6
CENTER
 62
2
 10
1.24424927E+02
 20
5.86038532E+01
 11
1.24424927E+02
 21
4.17816485E+01
  0
LINE
  8
0
  6
CENTER
 62
6
 10
1.34424927E+02
 20
5.86038532E+01
 11
1.34424927E+02
 21
4.17816485E+01
  0
LINE
  8
0
  6
CENTER
 62
6
 10
1.49424927E+02
 20
5.86038532E+01
 11
1.49424927E+02
 21
4.16244191E+01
  0
LINE
  8
0
 62
7
 10
1.81424927E+02
 20
5.95338297E+01
 11
1.07424927E+02
 21
5.95338297E+01
  0
LINE
  8
0
 62
7
 10
1.81424927E+02
 20
4.05338297E+01
 11
1.07424927E+02
 21
4.05338297E+01
  0
CIRCLE
  8
0
 62
4
 10
4.44249268E+01
 20
4.54108437E+00
 40
1.50000000E+00
  0
LINE
  8
0
  6
CENTER
 62
6
 10
4.73808785E+01
 20
4.54108437E+00
 11
4.12281513E+01
 21
4.54108437E+00
  0
LINE
  8
0
 62
4
 10
5.49249268E+01
 20
-2.45891563E+00
 11
3.39249268E+01
 21
-2.45891563E+00
  0
LINE
  8
0
 62
4
 10
3.39249268E+01
 20
8.54108437E+00
 11
3.39249268E+01
 21
-2.45891563E+00
  0
LINE
  8
0
 62
4
 10
5.49249268E+01
 20
8.54108437E+00
 11
5.49249268E+01
 21
-2.45891563E+00
  0
LINE
  8
0
  6
CENTER
 62
2
 10
4.44249268E+01
 20
6.17649559E+01
 11
4.44249268E+01
 21
-5.56134834E+00
  0
ARC
  8
0
 62
7
 10
3.49249268E+01
 20
5.01268708E+01
 40
1.00000000E+00
 50
1.23463041E+02
 51
1.80000000E+02
  0
LINE
  8
0
 62
7
 10
5.44249268E+01
 20
3.95410844E+01
 11
5.49249268E+01
 21
3.90410844E+01
  0
LINE
  8
0
 62
7
 10
5.49249268E+01
 20
3.57410844E+01
 11
5.44249268E+01
 21
3.57410844E+01
  0
LINE
  8
0
 62
7
 10
5.46249268E+01
 20
3.25410844E+01
 11
5.44249268E+01
 21
3.25410844E+01
  0
LINE
  8
0
 62
7
 10
5.49249268E+01
 20
3.90410844E+01
 11
5.49249268E+01
 21
3.57410844E+01
  0
LINE
  8
0
 62
7
 10
5.46249268E+01
 20
1.75410844E+01
 11
5.44249268E+01
 21
1.75410844E+01
  0
LINE
  8
0
 62
7
 10
5.46249268E+01
 20
3.25410844E+01
 11
5.46249268E+01
 21
1.75410844E+01
  0
LINE
  8
0
 62
7
 10
5.49249268E+01
 20
1.43410844E+01
 11
5.49249268E+01
 21
8.54108437E+00
  0
LINE
  8
0
 62
7
 10
5.49249268E+01
 20
1.43410844E+01
 11
5.44249268E+01
 21
1.43410844E+01
  0
LINE
  8
0
 62
7
 10
3.39249268E+01
 20
1.43410844E+01
 11
3.39249268E+01
 21
8.54108437E+00
  0
LINE
  8
0
 62
7
 10
3.39249268E+01
 20
1.43410844E+01
 11
3.44249268E+01
 21
1.43410844E+01
  0
LINE
  8
0
 62
7
 10
3.42249268E+01
 20
1.75410844E+01
 11
3.44249268E+01
 21
1.75410844E+01
  0
LINE
  8
0
 62
7
 10
5.49249268E+01
 20
8.54108437E+00
 11
3.39249268E+01
 21
8.54108437E+00
  0
LINE
  8
0
 62
7
 10
3.39249268E+01
 20
3.57410844E+01
 11
3.44249268E+01
 21
3.57410844E+01
  0
LINE
  8
0
 62
7
 10
3.42249268E+01
 20
3.25410844E+01
 11
3.44249268E+01
 21
3.25410844E+01
  0
LINE
  8
0
 62
7
 10
3.39249268E+01
 20
5.01268708E+01
 11
3.39249268E+01
 21
3.57410844E+01
  0
LINE
  8
0
 62
7
 10
3.42249268E+01
 20
3.25410844E+01
 11
3.42249268E+01
 21
1.75410844E+01
  0
ARC
  8
0
 62
7
 10
3.47249268E+01
 20
5.92338297E+01
 40
3.00000000E-01
 50
9.00000002E+01
 51
1.80000000E+02
  0
ARC
  8
0
 62
7
 10
5.41249268E+01
 20
5.92338297E+01
 40
3.00000000E-01
 50
0.00000000E+00
 51
9.00000002E+01
  0
LINE
  8
0
 62
7
 10
3.47249268E+01
 20
5.95338297E+01
 11
5.41249268E+01
 21
5.95338297E+01
  0
LINE
  8
0
 62
7
 10
3.44249268E+01
 20
5.92338297E+01
 11
3.44249268E+01
 21
1.05410844E+01
  0
LINE
  8
0
 62
7
 10
5.44249268E+01
 20
5.92338297E+01
 11
5.44249268E+01
 21
1.05410844E+01
  0
LINE
  8
0
  6
CENTER
 62
2
 10
5.62249268E+01
 20
2.50410844E+01
 11
3.25949268E+01
 21
2.50410844E+01
  0
LINE
  8
0
 62
7
 10
5.44249268E+01
 20
5.90410844E+01
 11
3.44249268E+01
 21
5.90410844E+01
  0
LINE
  8
0
 62
7
 10
5.44249268E+01
 20
1.05410844E+01
 11
3.44249268E+01
 21
1.05410844E+01
  0
CIRCLE
  8
0
 62
2
 10
4.94208881E+01
 20
1.50464097E+01
 40
2.00000000E+00
  0
CIRCLE
  8
0
 62
7
 10
4.94208881E+01
 20
1.50464097E+01
 40
1.64999962E+00
  0
CIRCLE
  8
0
 62
7
 10
4.94208881E+01
 20
3.50464097E+01
 40
1.64999962E+00
  0
CIRCLE
  8
0
 62
7
 10
3.94208881E+01
 20
3.50464097E+01
 40
1.64999962E+00
  0
CIRCLE
  8
0
 62
7
 10
3.94208881E+01
 20
1.50464097E+01
 40
1.64999962E+00
  0
CIRCLE
  8
0
 62
2
 10
3.94208881E+01
 20
1.50464097E+01
 40
2.00000000E+00
  0
CIRCLE
  8
0
 62
2
 10
4.94208881E+01
 20
3.50464097E+01
 40
2.00000000E+00
  0
CIRCLE
  8
0
 62
2
 10
3.94208881E+01
 20
3.50464097E+01
 40
2.00000000E+00
  0
LINE
  8
0
 62
7
 10
4.04249268E+01
 20
2.73510844E+01
 11
4.44249268E+01
 21
2.96610844E+01
  0
LINE
  8
0
 62
7
 10
4.04249268E+01
 20
2.27310844E+01
 11
4.44249268E+01
 21
2.04210844E+01
  0
CIRCLE
  8
0
 62
7
 10
4.44208881E+01
 20
2.50464097E+01
 40
4.00000000E+00
  0
CIRCLE
  8
0
 62
2
 10
4.44208881E+01
 20
2.50464097E+01
 40
2.09999943E+00
  0
CIRCLE
  8
0
 62
7
 10
4.44208881E+01
 20
2.50464097E+01
 40
2.50000000E+00
  0
LINE
  8
0
 62
7
 10
4.44249268E+01
 20
2.04210844E+01
 11
4.84249268E+01
 21
2.27310844E+01
  0
LINE
  8
0
 62
7
 10
4.44249268E+01
 20
2.96610844E+01
 11
4.84249268E+01
 21
2.73510844E+01
  0
LINE
  8
0
 62
7
 10
4.84249268E+01
 20
2.73510844E+01
 11
4.84249268E+01
 21
2.27310844E+01
  0
LINE
  8
0
 62
7
 10
4.04249268E+01
 20
2.73510844E+01
 11
4.04249268E+01
 21
2.27310844E+01
  0
CIRCLE
  8
0
 62
7
 10
4.44249268E+01
 20
2.50410844E+01
 40
7.50000000E+00
  0
CIRCLE
  8
0
 62
7
 10
4.44249268E+01
 20
2.50410844E+01
 40
8.00000000E+00
  0
LINE
  8
0
  6
CENTER
 62
2
 10
3.56549268E+01
 20
1.50410844E+01
 11
5.26904430E+01
 21
1.50410844E+01
  0
LINE
  8
0
  6
CENTER
 62
2
 10
3.56549268E+01
 20
3.50410844E+01
 11
5.26904430E+01
 21
3.50410844E+01
  0
LINE
  8
0
  6
CENTER
 62
2
 10
3.94249268E+01
 20
3.81110844E+01
 11
3.94249268E+01
 21
1.19503957E+01
  0
LINE
  8
0
  6
CENTER
 62
2
 10
4.94249268E+01
 20
3.81110844E+01
 11
4.94249268E+01
 21
1.19503957E+01
  0
CIRCLE
  8
0
 62
7
 10
3.94208881E+01
 20
5.47464097E+01
 40
3.50000000E+00
  0
CIRCLE
  8
0
 62
7
 10
3.94208881E+01
 20
5.47464097E+01
 40
3.79999924E+00
  0
LINE
  8
0
  6
CENTER
 62
2
 10
3.94249268E+01
 20
5.98838967E+01
 11
3.94249268E+01
 21
4.93175871E+01
  0
LINE
  8
0
  6
CENTER
 62
2
 10
3.46060693E+01
 20
5.47410844E+01
 11
4.40961625E+01
 21
5.47410844E+01
  0
LINE
  8
0
 62
7
 10
3.94249268E+01
 20
5.64610844E+01
 11
4.09149268E+01
 21
5.56010844E+01
  0
LINE
  8
0
 62
7
 10
4.09149268E+01
 20
5.56010844E+01
 11
4.09149268E+01
 21
5.38810844E+01
  0
LINE
  8
0
 62
7
 10
3.94249268E+01
 20
5.30210844E+01
 11
3.79349268E+01
 21
5.38810844E+01
  0
LINE
  8
0
 62
7
 10
4.09149268E+01
 20
5.38810844E+01
 11
3.94249268E+01
 21
5.30210844E+01
  0
LINE
  8
0
 62
7
 10
3.79349268E+01
 20
5.56010844E+01
 11
3.79349268E+01
 21
5.38810844E+01
  0
LINE
  8
0
 62
7
 10
3.94249268E+01
 20
5.64610844E+01
 11
3.79349268E+01
 21
5.56010844E+01
  0
CIRCLE
  8
0
 62
7
 10
4.94208881E+01
 20
4.62464097E+01
 40
3.50000000E+00
  0
CIRCLE
  8
0
 62
7
 10
4.94208881E+01
 20
4.62464097E+01
 40
3.79999924E+00
  0
LINE
  8
0
  6
CENTER
 62
2
 10
4.94249268E+01
 20
5.13838967E+01
 11
4.94249268E+01
 21
4.08175871E+01
  0
LINE
  8
0
  6
CENTER
 62
2
 10
4.46060693E+01
 20
4.62410844E+01
 11
5.40961625E+01
 21
4.62410844E+01
  0
LINE
  8
0
 62
7
 10
4.94249268E+01
 20
4.79610844E+01
 11
5.09149268E+01
 21
4.71010844E+01
  0
LINE
  8
0
 62
7
 10
5.09149268E+01
 20
4.71010844E+01
 11
5.09149268E+01
 21
4.53810844E+01
  0
LINE
  8
0
 62
7
 10
4.94249268E+01
 20
4.45210844E+01
 11
4.79349268E+01
 21
4.53810844E+01
  0
LINE
  8
0
 62
7
 10
5.09149268E+01
 20
4.53810844E+01
 11
4.94249268E+01
 21
4.45210844E+01
  0
LINE
  8
0
 62
7
 10
4.79349268E+01
 20
4.71010844E+01
 11
4.79349268E+01
 21
4.53810844E+01
  0
LINE
  8
0
 62
7
 10
4.94249268E+01
 20
4.79610844E+01
 11
4.79349268E+01
 21
4.71010844E+01
  0
LINE
  8
0
  6
CENTER
 62
2
 10
2.37024927E+02
 20
6.17844191E+01
 11
2.37024927E+02
 21
-5.14614366E+00
  0
CIRCLE
  8
0
 62
4
 10
2.37024927E+02
 20
4.54108437E+00
 40
1.25000000E+00
  0
CIRCLE
  8
0
 62
6
 10
2.37024927E+02
 20
4.54108437E+00
 40
1.50000000E+00
  0
LINE
  8
0
  6
CENTER
 62
6
 10
2.34500534E+02
 20
4.54108437E+00
 11
2.39496662E+02
 21
4.54108437E+00
  0
LINE
  8
0
 62
4
 10
2.26524927E+02
 20
-2.45891563E+00
 11
2.47524927E+02
 21
-2.45891563E+00
  0
LINE
  8
0
 62
4
 10
2.26524927E+02
 20
8.54108437E+00
 11
2.26524927E+02
 21
-2.45891563E+00
  0
LINE
  8
0
 62
4
 10
2.47524927E+02
 20
8.54108437E+00
 11
2.47524927E+02
 21
-2.45891563E+00
  0
CIRCLE
  8
0
 62
7
 10
2.37024927E+02
 20
2.50410844E+01
 40
1.25000000E+00
  0
CIRCLE
  8
0
 62
2
 10
2.37024927E+02
 20
2.50410844E+01
 40
1.50000000E+00
  0
LINE
  8
0
 62
7
 10
2.47024927E+02
 20
1.75410844E+01
 11
2.47024927E+02
 21
1.43410844E+01
  0
LINE
  8
0
 62
7
 10
2.27024927E+02
 20
1.75410844E+01
 11
2.27024927E+02
 21
1.43410844E+01
  0
LINE
  8
0
 62
7
 10
2.47024927E+02
 20
3.57410844E+01
 11
2.47024927E+02
 21
3.25410844E+01
  0
LINE
  8
0
 62
7
 10
2.27024927E+02
 20
3.57410844E+01
 11
2.27024927E+02
 21
3.25410844E+01
  0
ARC
  8
0
 62
7
 10
2.27324927E+02
 20
5.92338297E+01
 40
3.00000000E-01
 50
9.00000002E+01
 51
1.80000000E+02
  0
ARC
  8
0
 62
7
 10
2.46724927E+02
 20
5.92338297E+01
 40
3.00000000E-01
 50
0.00000000E+00
 51
9.00000002E+01
  0
LINE
  8
0
  6
CENTER
 62
2
 10
2.25224927E+02
 20
1.59410844E+01
 11
2.48854927E+02
 21
1.59410844E+01
  0
LINE
  8
0
  6
CENTER
 62
2
 10
2.25224927E+02
 20
3.41410844E+01
 11
2.48854927E+02
 21
3.41410844E+01
  0
CIRCLE
  8
0
 62
7
 10
2.33024927E+02
 20
5.35338297E+01
 40
1.75000000E+00
  0
LINE
  8
0
  6
CENTER
 62
2
 10
2.33024927E+02
 20
5.64592105E+01
 11
2.33024927E+02
 21
5.04064105E+01
  0
LINE
  8
0
  6
CENTER
 62
2
 10
2.35889591E+02
 20
5.35338297E+01
 11
2.29832448E+02
 21
5.35338297E+01
  0
LINE
  8
0
 62
7
 10
2.35510208E+02
 20
4.60988008E+01
 11
2.40459956E+02
 21
5.10485483E+01
  0
LINE
  8
0
 62
7
 10
2.29641222E+02
 20
4.48967193E+01
 11
2.34237416E+02
 21
4.03005252E+01
  0
LINE
  8
0
 62
7
 10
2.41662037E+02
 20
5.69175346E+01
 11
2.46258231E+02
 21
5.23213405E+01
  0
LINE
  8
0
 62
7
 10
2.40459956E+02
 20
5.10485483E+01
 11
2.43783357E+02
 21
4.77251464E+01
  0
LINE
  8
0
 62
7
 10
2.35510208E+02
 20
4.60988008E+01
 11
2.38833610E+02
 21
4.27753989E+01
  0
LINE
  8
0
  6
CENTER
 62
2
 10
2.25224927E+02
 20
2.50410844E+01
 11
2.48854927E+02
 21
2.50410844E+01
  0
LINE
  8
0
 62
7
 10
2.34467925E+02
 20
3.95410844E+01
 11
2.38267925E+02
 21
4.33410844E+01
  0
ARC
  8
0
 62
7
 10
2.46524927E+02
 20
5.01268708E+01
 40
1.00000000E+00
 50
0.00000000E+00
 51
5.89046387E+01
  0
LINE
  8
0
 62
7
 10
2.38890612E+02
 20
4.27753989E+01
 11
2.38324927E+02
 21
4.33410844E+01
  0
LINE
  8
0
 62
7
 10
2.38833610E+02
 20
4.27753989E+01
 11
2.47041391E+02
 21
5.09831797E+01
  0
LINE
  8
0
 62
7
 10
2.27024927E+02
 20
3.95410844E+01
 11
2.26524927E+02
 21
3.90410844E+01
  0
LINE
  8
0
 62
7
 10
2.47524927E+02
 20
5.01268708E+01
 11
2.47524927E+02
 21
3.57410844E+01
  0
LINE
  8
0
 62
7
 10
2.46524927E+02
 20
1.80410844E+01
 11
2.47024927E+02
 21
1.75410844E+01
  0
LINE
  8
0
 62
7
 10
2.47224927E+02
 20
1.75410844E+01
 11
2.47024927E+02
 21
1.75410844E+01
  0
LINE
  8
0
 62
7
 10
2.46524927E+02
 20
1.80410844E+01
 11
2.44924927E+02
 21
1.80410844E+01
  0
LINE
  8
0
 62
7
 10
2.47524927E+02
 20
1.43410844E+01
 11
2.47024927E+02
 21
1.43410844E+01
  0
LINE
  8
0
 62
7
 10
2.46524927E+02
 20
1.38410844E+01
 11
2.47024927E+02
 21
1.43410844E+01
  0
LINE
  8
0
 62
7
 10
2.46524927E+02
 20
1.38410844E+01
 11
2.44924927E+02
 21
1.38410844E+01
  0
ARC
  8
0
 62
7
 10
2.44924927E+02
 20
1.59410844E+01
 40
2.10000002E+00
 50
9.00000002E+01
 51
2.70000000E+02
  0
LINE
  8
0
 62
7
 10
2.47224927E+02
 20
3.25410844E+01
 11
2.47024927E+02
 21
3.25410844E+01
  0
LINE
  8
0
 62
7
 10
2.46524927E+02
 20
3.20410844E+01
 11
2.47024927E+02
 21
3.25410844E+01
  0
LINE
  8
0
 62
7
 10
2.46524927E+02
 20
3.20410844E+01
 11
2.44924927E+02
 21
3.20410844E+01
  0
LINE
  8
0
 62
7
 10
2.46524927E+02
 20
3.62410844E+01
 11
2.44924927E+02
 21
3.62410844E+01
  0
LINE
  8
0
 62
7
 10
2.46524927E+02
 20
3.62410844E+01
 11
2.47024927E+02
 21
3.57410844E+01
  0
LINE
  8
0
 62
7
 10
2.47524927E+02
 20
3.57410844E+01
 11
2.47024927E+02
 21
3.57410844E+01
  0
ARC
  8
0
 62
7
 10
2.44924927E+02
 20
3.41410844E+01
 40
2.10000002E+00
 50
9.00000002E+01
 51
2.70000000E+02
  0
LINE
  8
0
 62
7
 10
2.26824927E+02
 20
1.75410844E+01
 11
2.27024927E+02
 21
1.75410844E+01
  0
LINE
  8
0
 62
7
 10
2.27524927E+02
 20
1.80410844E+01
 11
2.27024927E+02
 21
1.75410844E+01
  0
LINE
  8
0
 62
7
 10
2.27524927E+02
 20
1.80410844E+01
 11
2.29124927E+02
 21
1.80410844E+01
  0
LINE
  8
0
 62
7
 10
2.27524927E+02
 20
1.38410844E+01
 11
2.29124927E+02
 21
1.38410844E+01
  0
LINE
  8
0
 62
7
 10
2.27524927E+02
 20
1.38410844E+01
 11
2.27024927E+02
 21
1.43410844E+01
  0
ARC
  8
0
 62
7
 10
2.29124927E+02
 20
1.59410844E+01
 40
2.10000009E+00
 50
2.70000000E+02
 51
9.00000002E+01
  0
LINE
  8
0
 62
7
 10
2.26524927E+02
 20
1.43410844E+01
 11
2.27024927E+02
 21
1.43410844E+01
  0
LINE
  8
0
 62
7
 10
2.26824927E+02
 20
3.25410844E+01
 11
2.27024927E+02
 21
3.25410844E+01
  0
LINE
  8
0
 62
7
 10
2.27524927E+02
 20
3.20410844E+01
 11
2.27024927E+02
 21
3.25410844E+01
  0
LINE
  8
0
 62
7
 10
2.27524927E+02
 20
3.20410844E+01
 11
2.29124927E+02
 21
3.20410844E+01
  0
ARC
  8
0
 62
7
 10
2.29124927E+02
 20
3.41410844E+01
 40
2.10000009E+00
 50
2.70000000E+02
 51
9.00000002E+01
  0
LINE
  8
0
 62
7
 10
2.27524927E+02
 20
3.62410844E+01
 11
2.29124927E+02
 21
3.62410844E+01
  0
LINE
  8
0
 62
7
 10
2.27524927E+02
 20
3.62410844E+01
 11
2.27024927E+02
 21
3.57410844E+01
  0
LINE
  8
0
 62
7
 10
2.26524927E+02
 20
3.57410844E+01
 11
2.27024927E+02
 21
3.57410844E+01
  0
LINE
  8
0
 62
7
 10
2.26524927E+02
 20
3.90410844E+01
 11
2.26524927E+02
 21
3.57410844E+01
  0
LINE
  8
0
 62
7
 10
2.26824927E+02
 20
3.25410844E+01
 11
2.26824927E+02
 21
1.75410844E+01
  0
LINE
  8
0
 62
7
 10
2.26524927E+02
 20
1.43410844E+01
 11
2.26524927E+02
 21
8.54108437E+00
  0
LINE
  8
0
 62
7
 10
2.47524927E+02
 20
1.43410844E+01
 11
2.47524927E+02
 21
8.54108437E+00
  0
LINE
  8
0
 62
7
 10
2.47224927E+02
 20
3.25410844E+01
 11
2.47224927E+02
 21
1.75410844E+01
  0
LINE
  8
0
 62
7
 10
2.26524927E+02
 20
8.54108437E+00
 11
2.47524927E+02
 21
8.54108437E+00
  0
LINE
  8
0
 62
7
 10
2.46116810E+02
 20
5.31698686E+01
 11
2.42015591E+02
 21
5.72710880E+01
  0
LINE
  8
0
 62
7
 10
2.33297005E+02
 20
4.05338297E+01
 11
2.29287668E+02
 21
4.45431659E+01
  0
ARC
  8
0
 62
7
 10
2.27324927E+02
 20
4.08338297E+01
 40
3.00000000E-01
 50
1.80000000E+02
 51
2.70000000E+02
  0
LINE
  8
0
 62
7
 10
2.29287668E+02
 20
4.45431659E+01
 11
2.42015591E+02
 21
5.72710880E+01
  0
LINE
  8
0
 62
7
 10
2.33480771E+02
 20
4.05338297E+01
 11
2.27324927E+02
 21
4.05338297E+01
  0
LINE
  8
0
 62
7
 10
2.27024927E+02
 20
5.92338297E+01
 11
2.27024927E+02
 21
3.95410844E+01
  0
LINE
  8
0
 62
7
 10
2.47024927E+02
 20
5.92338297E+01
 11
2.47024927E+02
 21
5.09667157E+01
  0
LINE
  8
0
 62
7
 10
2.46724927E+02
 20
5.95338297E+01
 11
2.27324927E+02
 21
5.95338297E+01
  0
LINE
  8
0
 62
7
 10
2.33480771E+02
 20
4.05338297E+01
 11
2.33723549E+02
 21
4.07766076E+01
  0
LINE
  8
0
 62
7
 10
2.46258231E+02
 20
5.23213405E+01
 11
2.42722697E+02
 21
4.87858066E+01
  0
LINE
  8
0
 62
7
 10
2.37772950E+02
 20
4.38360591E+01
 11
2.34237416E+02
 21
4.03005252E+01
  0
LINE
  8
0
 62
7
 10
2.45763256E+02
 20
5.28163152E+01
 11
2.46975388E+02
 21
5.40284473E+01
  0
CIRCLE
  8
0
 62
2
 10
2.37024465E+02
 20
1.25464097E+01
 40
2.00000000E+00
  0
CIRCLE
  8
0
 62
7
 10
2.37024465E+02
 20
1.25464097E+01
 40
1.64999962E+00
  0
CIRCLE
  8
0
 62
7
 10
2.37024465E+02
 20
3.75464097E+01
 40
1.64999962E+00
  0
CIRCLE
  8
0
 62
2
 10
2.37024465E+02
 20
3.75464097E+01
 40
2.00000000E+00
  0
ARC
  8
0
 62
7
 10
2.37019927E+02
 20
2.50464088E+01
 40
1.03977631E+01
 50
5.56417823E+01
 51
1.24277852E+02
  0
ARC
  8
0
 62
7
 10
2.37019927E+02
 20
2.50464105E+01
 40
1.03983197E+01
 50
2.35704210E+02
 51
3.04376598E+02
  0
CIRCLE
  8
0
 62
7
 10
2.37024465E+02
 20
2.50464097E+01
 40
8.25000000E+00
  0
CIRCLE
  8
0
 62
7
 10
2.37024465E+02
 20
2.50464097E+01
 40
9.30000019E+00
  0
CIRCLE
  8
0
 62
7
 10
2.37024465E+02
 20
2.50464097E+01
 40
7.75000000E+00
  0
LINE
  8
0
  6
CENTER
 62
2
 10
2.33520770E+02
 20
3.75410844E+01
 11
2.40612091E+02
 21
3.75410844E+01
  0
LINE
  8
0
  6
CENTER
 62
2
 10
2.33520770E+02
 20
1.25410844E+01
 11
2.40612091E+02
 21
1.25410844E+01
  0
LINE
  8
0
 62
7
 10
2.26967925E+02
 20
3.95410844E+01
 11
2.34524927E+02
 21
3.95410844E+01
  0
LINE
  8
0
  6
CENTER
 10
1.56624927E+02
 20
8.85191902E+01
 11
1.56624927E+02
 21
1.48038803E+02
  0
CIRCLE
  8
0
 62
4
 10
1.88424927E+02
 20
1.25041084E+02
 40
2.25000000E+00
  0
LINE
  8
0
  6
CENTER
 62
6
 10
1.88424927E+02
 20
1.21178532E+02
 11
1.88424927E+02
 21
1.28864073E+02
  0
LINE
  8
0
  6
CENTER
 62
6
 10
1.84549710E+02
 20
1.25041084E+02
 11
1.92332567E+02
 21
1.25041084E+02
  0
LINE
  8
0
 62
4
 10
1.01424927E+02
 20
1.29041084E+02
 11
1.01424927E+02
 21
1.29541084E+02
  0
LINE
  8
0
 62
4
 10
1.01424927E+02
 20
1.08541084E+02
 11
1.01424927E+02
 21
1.09041084E+02
  0
LINE
  8
0
 62
4
 10
1.83414927E+02
 20
1.08541084E+02
 11
1.92424927E+02
 21
1.08541084E+02
  0
LINE
  8
0
 62
4
 10
1.83414927E+02
 20
1.29541084E+02
 11
1.92424927E+02
 21
1.29541084E+02
  0
LINE
  8
0
 62
4
 10
1.92424927E+02
 20
1.08541084E+02
 11
1.92424927E+02
 21
1.29541084E+02
  0
LINE
  8
0
 62
7
 10
1.06424927E+02
 20
1.29041084E+02
 11
9.94249268E+01
 21
1.29041084E+02
  0
LINE
  8
0
 62
7
 10
1.06424927E+02
 20
1.09041084E+02
 11
9.94249268E+01
 21
1.09041084E+02
  0
LINE
  8
0
  6
CENTER
 62
2
 10
1.63924927E+02
 20
1.13756827E+02
 11
1.63924927E+02
 21
1.22490250E+02
  0
POLYLINE
  8
0
 62
7
 66
1
  0
VERTEX
  8
0
 62
7
 10
1.71924927E+02
 20
1.21164085E+02
  0
VERTEX
  8
0
 62
7
 10
1.71741900E+02
 20
1.21152784E+02
  0
VERTEX
  8
0
 62
7
 10
1.71560266E+02
 20
1.21118967E+02
  0
VERTEX
  8
0
 62
7
 10
1.71381407E+02
 20
1.21062890E+02
  0
VERTEX
  8
0
 62
7
 10
1.71206685E+02
 20
1.20984982E+02
  0
VERTEX
  8
0
 62
7
 10
1.71037429E+02
 20
1.20885834E+02
  0
VERTEX
  8
0
 62
7
 10
1.70874927E+02
 20
1.20766201E+02
  0
VERTEX
  8
0
 62
7
 10
1.70720416E+02
 20
1.20626994E+02
  0
VERTEX
  8
0
 62
7
 10
1.70575073E+02
 20
1.20469273E+02
  0
VERTEX
  8
0
 62
7
 10
1.70440003E+02
 20
1.20294237E+02
  0
VERTEX
  8
0
 62
7
 10
1.70316234E+02
 20
1.20103219E+02
  0
VERTEX
  8
0
 62
7
 10
1.70204708E+02
 20
1.19897672E+02
  0
VERTEX
  8
0
 62
7
 10
1.70106274E+02
 20
1.19679161E+02
  0
VERTEX
  8
0
 62
7
 10
1.70021681E+02
 20
1.19449349E+02
  0
VERTEX
  8
0
 62
7
 10
1.69951572E+02
 20
1.19209985E+02
  0
VERTEX
  8
0
 62
7
 10
1.69896483E+02
 20
1.18962890E+02
  0
VERTEX
  8
0
 62
7
 10
1.69856831E+02
 20
1.18709946E+02
  0
VERTEX
  8
0
 62
7
 10
1.69832918E+02
 20
1.18453076E+02
  0
VERTEX
  8
0
 62
7
 10
1.69824927E+02
 20
1.18194237E+02
  0
VERTEX
  8
0
 62
7
 10
1.69832918E+02
 20
1.17935398E+02
  0
VERTEX
  8
0
 62
7
 10
1.69856831E+02
 20
1.17678528E+02
  0
VERTEX
  8
0
 62
7
 10
1.69896483E+02
 20
1.17425584E+02
  0
VERTEX
  8
0
 62
7
 10
1.69951573E+02
 20
1.17178489E+02
  0
VERTEX
  8
0
 62
7
 10
1.70021681E+02
 20
1.16939125E+02
  0
VERTEX
  8
0
 62
7
 10
1.70106274E+02
 20
1.16709313E+02
  0
VERTEX
  8
0
 62
7
 10
1.70204708E+02
 20
1.16490802E+02
  0
VERTEX
  8
0
 62
7
 10
1.70316234E+02
 20
1.16285255E+02
  0
VERTEX
  8
0
 62
7
 10
1.70440003E+02
 20
1.16094237E+02
  0
VERTEX
  8
0
 62
7
 10
1.70575073E+02
 20
1.15919201E+02
  0
VERTEX
  8
0
 62
7
 10
1.70720416E+02
 20
1.15761480E+02
  0
VERTEX
  8
0
 62
7
 10
1.70874927E+02
 20
1.15622273E+02
  0
VERTEX
  8
0
 62
7
 10
1.71037429E+02
 20
1.15502640E+02
  0
VERTEX
  8
0
 62
7
 10
1.71206685E+02
 20
1.15403492E+02
  0
VERTEX
  8
0
 62
7
 10
1.71381407E+02
 20
1.15325584E+02
  0
VERTEX
  8
0
 62
7
 10
1.71560266E+02
 20
1.15269507E+02
  0
VERTEX
  8
0
 62
7
 10
1.71741900E+02
 20
1.15235690E+02
  0
VERTEX
  8
0
 62
7
 10
1.71924927E+02
 20
1.15224389E+02
  0
VERTEX
  8
0
 62
7
 10
1.72107954E+02
 20
1.15235690E+02
  0
VERTEX
  8
0
 62
7
 10
1.72289588E+02
 20
1.15269507E+02
  0
VERTEX
  8
0
 62
7
 10
1.72468447E+02
 20
1.15325584E+02
  0
VERTEX
  8
0
 62
7
 10
1.72643169E+02
 20
1.15403492E+02
  0
VERTEX
  8
0
 62
7
 10
1.72812425E+02
 20
1.15502640E+02
  0
VERTEX
  8
0
 62
7
 10
1.72974927E+02
 20
1.15622273E+02
  0
VERTEX
  8
0
 62
7
 10
1.73129438E+02
 20
1.15761480E+02
  0
VERTEX
  8
0
 62
7
 10
1.73274781E+02
 20
1.15919201E+02
  0
VERTEX
  8
0
 62
7
 10
1.73409851E+02
 20
1.16094237E+02
  0
VERTEX
  8
0
 62
7
 10
1.73533620E+02
 20
1.16285255E+02
  0
VERTEX
  8
0
 62
7
 10
1.73645146E+02
 20
1.16490802E+02
  0
VERTEX
  8
0
 62
7
 10
1.73743580E+02
 20
1.16709313E+02
  0
VERTEX
  8
0
 62
7
 10
1.73828173E+02
 20
1.16939125E+02
  0
VERTEX
  8
0
 62
7
 10
1.73898282E+02
 20
1.17178489E+02
  0
VERTEX
  8
0
 62
7
 10
1.73953371E+02
 20
1.17425584E+02
  0
VERTEX
  8
0
 62
7
 10
1.73993023E+02
 20
1.17678528E+02
  0
VERTEX
  8
0
 62
7
 10
1.74016936E+02
 20
1.17935398E+02
  0
VERTEX
  8
0
 62
7
 10
1.74024927E+02
 20
1.18194237E+02
  0
VERTEX
  8
0
 62
7
 10
1.74016936E+02
 20
1.18453076E+02
  0
VERTEX
  8
0
 62
7
 10
1.73993023E+02
 20
1.18709946E+02
  0
VERTEX
  8
0
 62
7
 10
1.73953371E+02
 20
1.18962890E+02
  0
VERTEX
  8
0
 62
7
 10
1.73898281E+02
 20
1.19209985E+02
  0
VERTEX
  8
0
 62
7
 10
1.73828173E+02
 20
1.19449349E+02
  0
VERTEX
  8
0
 62
7
 10
1.73743580E+02
 20
1.19679161E+02
  0
VERTEX
  8
0
 62
7
 10
1.73645146E+02
 20
1.19897672E+02
  0
VERTEX
  8
0
 62
7
 10
1.73533620E+02
 20
1.20103219E+02
  0
VERTEX
  8
0
 62
7
 10
1.73409851E+02
 20
1.20294237E+02
  0
VERTEX
  8
0
 62
7
 10
1.73274781E+02
 20
1.20469273E+02
  0
VERTEX
  8
0
 62
7
 10
1.73129438E+02
 20
1.20626994E+02
  0
VERTEX
  8
0
 62
7
 10
1.72974927E+02
 20
1.20766201E+02
  0
VERTEX
  8
0
 62
7
 10
1.72812425E+02
 20
1.20885834E+02
  0
VERTEX
  8
0
 62
7
 10
1.72643169E+02
 20
1.20984982E+02
  0
VERTEX
  8
0
 62
7
 10
1.72468447E+02
 20
1.21062890E+02
  0
VERTEX
  8
0
 62
7
 10
1.72289588E+02
 20
1.21118967E+02
  0
VERTEX
  8
0
 62
7
 10
1.72107954E+02
 20
1.21152784E+02
  0
VERTEX
  8
0
 62
7
 10
1.71924927E+02
 20
1.21164085E+02
  0
SEQEND
  8
0
  0
POLYLINE
  8
0
 62
7
 66
1
  0
VERTEX
  8
0
 62
7
 10
1.63924927E+02
 20
1.21164085E+02
  0
VERTEX
  8
0
 62
7
 10
1.63741900E+02
 20
1.21152784E+02
  0
VERTEX
  8
0
 62
7
 10
1.63560266E+02
 20
1.21118967E+02
  0
VERTEX
  8
0
 62
7
 10
1.63381407E+02
 20
1.21062890E+02
  0
VERTEX
  8
0
 62
7
 10
1.63206685E+02
 20
1.20984982E+02
  0
VERTEX
  8
0
 62
7
 10
1.63037429E+02
 20
1.20885834E+02
  0
VERTEX
  8
0
 62
7
 10
1.62874927E+02
 20
1.20766201E+02
  0
VERTEX
  8
0
 62
7
 10
1.62720416E+02
 20
1.20626994E+02
  0
VERTEX
  8
0
 62
7
 10
1.62575073E+02
 20
1.20469273E+02
  0
VERTEX
  8
0
 62
7
 10
1.62440003E+02
 20
1.20294237E+02
  0
VERTEX
  8
0
 62
7
 10
1.62316234E+02
 20
1.20103219E+02
  0
VERTEX
  8
0
 62
7
 10
1.62204708E+02
 20
1.19897672E+02
  0
VERTEX
  8
0
 62
7
 10
1.62106274E+02
 20
1.19679161E+02
  0
VERTEX
  8
0
 62
7
 10
1.62021681E+02
 20
1.19449349E+02
  0
VERTEX
  8
0
 62
7
 10
1.61951572E+02
 20
1.19209985E+02
  0
VERTEX
  8
0
 62
7
 10
1.61896483E+02
 20
1.18962890E+02
  0
VERTEX
  8
0
 62
7
 10
1.61856831E+02
 20
1.18709946E+02
  0
VERTEX
  8
0
 62
7
 10
1.61832918E+02
 20
1.18453076E+02
  0
VERTEX
  8
0
 62
7
 10
1.61824927E+02
 20
1.18194237E+02
  0
VERTEX
  8
0
 62
7
 10
1.61832918E+02
 20
1.17935398E+02
  0
VERTEX
  8
0
 62
7
 10
1.61856831E+02
 20
1.17678528E+02
  0
VERTEX
  8
0
 62
7
 10
1.61896483E+02
 20
1.17425584E+02
  0
VERTEX
  8
0
 62
7
 10
1.61951573E+02
 20
1.17178489E+02
  0
VERTEX
  8
0
 62
7
 10
1.62021681E+02
 20
1.16939125E+02
  0
VERTEX
  8
0
 62
7
 10
1.62106274E+02
 20
1.16709313E+02
  0
VERTEX
  8
0
 62
7
 10
1.62204708E+02
 20
1.16490802E+02
  0
VERTEX
  8
0
 62
7
 10
1.62316234E+02
 20
1.16285255E+02
  0
VERTEX
  8
0
 62
7
 10
1.62440003E+02
 20
1.16094237E+02
  0
VERTEX
  8
0
 62
7
 10
1.62575073E+02
 20
1.15919201E+02
  0
VERTEX
  8
0
 62
7
 10
1.62720416E+02
 20
1.15761480E+02
  0
VERTEX
  8
0
 62
7
 10
1.62874927E+02
 20
1.15622273E+02
  0
VERTEX
  8
0
 62
7
 10
1.63037429E+02
 20
1.15502640E+02
  0
VERTEX
  8
0
 62
7
 10
1.63206685E+02
 20
1.15403492E+02
  0
VERTEX
  8
0
 62
7
 10
1.63381407E+02
 20
1.15325584E+02
  0
VERTEX
  8
0
 62
7
 10
1.63560266E+02
 20
1.15269507E+02
  0
VERTEX
  8
0
 62
7
 10
1.63741900E+02
 20
1.15235690E+02
  0
VERTEX
  8
0
 62
7
 10
1.63924927E+02
 20
1.15224389E+02
  0
VERTEX
  8
0
 62
7
 10
1.64107954E+02
 20
1.15235690E+02
  0
VERTEX
  8
0
 62
7
 10
1.64289588E+02
 20
1.15269507E+02
  0
VERTEX
  8
0
 62
7
 10
1.64468447E+02
 20
1.15325584E+02
  0
VERTEX
  8
0
 62
7
 10
1.64643169E+02
 20
1.15403492E+02
  0
VERTEX
  8
0
 62
7
 10
1.64812425E+02
 20
1.15502640E+02
  0
VERTEX
  8
0
 62
7
 10
1.64974927E+02
 20
1.15622273E+02
  0
VERTEX
  8
0
 62
7
 10
1.65129438E+02
 20
1.15761480E+02
  0
VERTEX
  8
0
 62
7
 10
1.65274781E+02
 20
1.15919201E+02
  0
VERTEX
  8
0
 62
7
 10
1.65409851E+02
 20
1.16094237E+02
  0
VERTEX
  8
0
 62
7
 10
1.65533620E+02
 20
1.16285255E+02
  0
VERTEX
  8
0
 62
7
 10
1.65645146E+02
 20
1.16490802E+02
  0
VERTEX
  8
0
 62
7
 10
1.65743580E+02
 20
1.16709313E+02
  0
VERTEX
  8
0
 62
7
 10
1.65828173E+02
 20
1.16939125E+02
  0
VERTEX
  8
0
 62
7
 10
1.65898282E+02
 20
1.17178489E+02
  0
VERTEX
  8
0
 62
7
 10
1.65953371E+02
 20
1.17425584E+02
  0
VERTEX
  8
0
 62
7
 10
1.65993023E+02
 20
1.17678528E+02
  0
VERTEX
  8
0
 62
7
 10
1.66016936E+02
 20
1.17935398E+02
  0
VERTEX
  8
0
 62
7
 10
1.66024927E+02
 20
1.18194237E+02
  0
VERTEX
  8
0
 62
7
 10
1.66016936E+02
 20
1.18453076E+02
  0
VERTEX
  8
0
 62
7
 10
1.65993023E+02
 20
1.18709946E+02
  0
VERTEX
  8
0
 62
7
 10
1.65953371E+02
 20
1.18962890E+02
  0
VERTEX
  8
0
 62
7
 10
1.65898281E+02
 20
1.19209985E+02
  0
VERTEX
  8
0
 62
7
 10
1.65828173E+02
 20
1.19449349E+02
  0
VERTEX
  8
0
 62
7
 10
1.65743580E+02
 20
1.19679161E+02
  0
VERTEX
  8
0
 62
7
 10
1.65645146E+02
 20
1.19897672E+02
  0
VERTEX
  8
0
 62
7
 10
1.65533620E+02
 20
1.20103219E+02
  0
VERTEX
  8
0
 62
7
 10
1.65409851E+02
 20
1.20294237E+02
  0
VERTEX
  8
0
 62
7
 10
1.65274781E+02
 20
1.20469273E+02
  0
VERTEX
  8
0
 62
7
 10
1.65129438E+02
 20
1.20626994E+02
  0
VERTEX
  8
0
 62
7
 10
1.64974927E+02
 20
1.20766201E+02
  0
VERTEX
  8
0
 62
7
 10
1.64812425E+02
 20
1.20885834E+02
  0
VERTEX
  8
0
 62
7
 10
1.64643169E+02
 20
1.20984982E+02
  0
VERTEX
  8
0
 62
7
 10
1.64468447E+02
 20
1.21062890E+02
  0
VERTEX
  8
0
 62
7
 10
1.64289588E+02
 20
1.21118967E+02
  0
VERTEX
  8
0
 62
7
 10
1.64107954E+02
 20
1.21152784E+02
  0
VERTEX
  8
0
 62
7
 10
1.63924927E+02
 20
1.21164085E+02
  0
SEQEND
  8
0
  0
POLYLINE
  8
0
 62
7
 66
1
  0
VERTEX
  8
0
 62
7
 10
1.70033153E+02
 20
1.19483571E+02
  0
VERTEX
  8
0
 62
7
 10
1.70056530E+02
 20
1.19364430E+02
  0
VERTEX
  8
0
 62
7
 10
1.70094883E+02
 20
1.19247246E+02
  0
VERTEX
  8
0
 62
7
 10
1.70147904E+02
 20
1.19132957E+02
  0
VERTEX
  8
0
 62
7
 10
1.70215169E+02
 20
1.19022479E+02
  0
VERTEX
  8
0
 62
7
 10
1.70296138E+02
 20
1.18916698E+02
  0
VERTEX
  8
0
 62
7
 10
1.70390162E+02
 20
1.18816461E+02
  0
VERTEX
  8
0
 62
7
 10
1.70496488E+02
 20
1.18722573E+02
  0
VERTEX
  8
0
 62
7
 10
1.70614263E+02
 20
1.18635785E+02
  0
VERTEX
  8
0
 62
7
 10
1.70742543E+02
 20
1.18556793E+02
  0
VERTEX
  8
0
 62
7
 10
1.70880301E+02
 20
1.18486231E+02
  0
VERTEX
  8
0
 62
7
 10
1.71026432E+02
 20
1.18424663E+02
  0
VERTEX
  8
0
 62
7
 10
1.71179764E+02
 20
1.18372584E+02
  0
VERTEX
  8
0
 62
7
 10
1.71339070E+02
 20
1.18330411E+02
  0
VERTEX
  8
0
 62
7
 10
1.71503071E+02
 20
1.18298482E+02
  0
VERTEX
  8
0
 62
7
 10
1.71670453E+02
 20
1.18277053E+02
  0
VERTEX
  8
0
 62
7
 10
1.71839875E+02
 20
1.18266295E+02
  0
VERTEX
  8
0
 62
7
 10
1.72009979E+02
 20
1.18266295E+02
  0
VERTEX
  8
0
 62
7
 10
1.72179401E+02
 20
1.18277053E+02
  0
VERTEX
  8
0
 62
7
 10
1.72346783E+02
 20
1.18298482E+02
  0
VERTEX
  8
0
 62
7
 10
1.72510784E+02
 20
1.18330411E+02
  0
VERTEX
  8
0
 62
7
 10
1.72670090E+02
 20
1.18372584E+02
  0
VERTEX
  8
0
 62
7
 10
1.72823422E+02
 20
1.18424663E+02
  0
VERTEX
  8
0
 62
7
 10
1.72969553E+02
 20
1.18486231E+02
  0
VERTEX
  8
0
 62
7
 10
1.73107311E+02
 20
1.18556793E+02
  0
VERTEX
  8
0
 62
7
 10
1.73235591E+02
 20
1.18635785E+02
  0
VERTEX
  8
0
 62
7
 10
1.73353366E+02
 20
1.18722573E+02
  0
VERTEX
  8
0
 62
7
 10
1.73459692E+02
 20
1.18816461E+02
  0
VERTEX
  8
0
 62
7
 10
1.73553716E+02
 20
1.18916698E+02
  0
VERTEX
  8
0
 62
7
 10
1.73634685E+02
 20
1.19022479E+02
  0
VERTEX
  8
0
 62
7
 10
1.73701950E+02
 20
1.19132957E+02
  0
VERTEX
  8
0
 62
7
 10
1.73754971E+02
 20
1.19247246E+02
  0
VERTEX
  8
0
 62
7
 10
1.73793324E+02
 20
1.19364430E+02
  0
VERTEX
  8
0
 62
7
 10
1.73816701E+02
 20
1.19483571E+02
  0
SEQEND
  8
0
  0
POLYLINE
  8
0
 62
7
 66
1
  0
VERTEX
  8
0
 62
7
 10
1.62033153E+02
 20
1.19483571E+02
  0
VERTEX
  8
0
 62
7
 10
1.62056530E+02
 20
1.19364430E+02
  0
VERTEX
  8
0
 62
7
 10
1.62094883E+02
 20
1.19247246E+02
  0
VERTEX
  8
0
 62
7
 10
1.62147904E+02
 20
1.19132957E+02
  0
VERTEX
  8
0
 62
7
 10
1.62215169E+02
 20
1.19022479E+02
  0
VERTEX
  8
0
 62
7
 10
1.62296138E+02
 20
1.18916698E+02
  0
VERTEX
  8
0
 62
7
 10
1.62390162E+02
 20
1.18816461E+02
  0
VERTEX
  8
0
 62
7
 10
1.62496488E+02
 20
1.18722573E+02
  0
VERTEX
  8
0
 62
7
 10
1.62614263E+02
 20
1.18635785E+02
  0
VERTEX
  8
0
 62
7
 10
1.62742543E+02
 20
1.18556793E+02
  0
VERTEX
  8
0
 62
7
 10
1.62880301E+02
 20
1.18486231E+02
  0
VERTEX
  8
0
 62
7
 10
1.63026432E+02
 20
1.18424663E+02
  0
VERTEX
  8
0
 62
7
 10
1.63179764E+02
 20
1.18372584E+02
  0
VERTEX
  8
0
 62
7
 10
1.63339070E+02
 20
1.18330411E+02
  0
VERTEX
  8
0
 62
7
 10
1.63503071E+02
 20
1.18298482E+02
  0
VERTEX
  8
0
 62
7
 10
1.63670453E+02
 20
1.18277053E+02
  0
VERTEX
  8
0
 62
7
 10
1.63839875E+02
 20
1.18266295E+02
  0
VERTEX
  8
0
 62
7
 10
1.64009979E+02
 20
1.18266295E+02
  0
VERTEX
  8
0
 62
7
 10
1.64179401E+02
 20
1.18277053E+02
  0
VERTEX
  8
0
 62
7
 10
1.64346783E+02
 20
1.18298482E+02
  0
VERTEX
  8
0
 62
7
 10
1.64510784E+02
 20
1.18330411E+02
  0
VERTEX
  8
0
 62
7
 10
1.64670090E+02
 20
1.18372584E+02
  0
VERTEX
  8
0
 62
7
 10
1.64823422E+02
 20
1.18424663E+02
  0
VERTEX
  8
0
 62
7
 10
1.64969553E+02
 20
1.18486231E+02
  0
VERTEX
  8
0
 62
7
 10
1.65107311E+02
 20
1.18556793E+02
  0
VERTEX
  8
0
 62
7
 10
1.65235591E+02
 20
1.18635785E+02
  0
VERTEX
  8
0
 62
7
 10
1.65353366E+02
 20
1.18722573E+02
  0
VERTEX
  8
0
 62
7
 10
1.65459692E+02
 20
1.18816461E+02
  0
VERTEX
  8
0
 62
7
 10
1.65553716E+02
 20
1.18916698E+02
  0
VERTEX
  8
0
 62
7
 10
1.65634685E+02
 20
1.19022479E+02
  0
VERTEX
  8
0
 62
7
 10
1.65701950E+02
 20
1.19132957E+02
  0
VERTEX
  8
0
 62
7
 10
1.65754971E+02
 20
1.19247246E+02
  0
VERTEX
  8
0
 62
7
 10
1.65793324E+02
 20
1.19364430E+02
  0
VERTEX
  8
0
 62
7
 10
1.65816701E+02
 20
1.19483571E+02
  0
SEQEND
  8
0
  0
POLYLINE
  8
0
 62
7
 66
1
  0
VERTEX
  8
0
 62
7
 10
1.73078218E+02
 20
1.20676140E+02
  0
VERTEX
  8
0
 62
7
 10
1.72932718E+02
 20
1.20747388E+02
  0
VERTEX
  8
0
 62
7
 10
1.72778475E+02
 20
1.20808754E+02
  0
VERTEX
  8
0
 62
7
 10
1.72616826E+02
 20
1.20859706E+02
  0
VERTEX
  8
0
 62
7
 10
1.72449174E+02
 20
1.20899800E+02
  0
VERTEX
  8
0
 62
7
 10
1.72276972E+02
 20
1.20928690E+02
  0
VERTEX
  8
0
 62
7
 10
1.72101717E+02
 20
1.20946125E+02
  0
VERTEX
  8
0
 62
7
 10
1.71924927E+02
 20
1.20951954E+02
  0
VERTEX
  8
0
 62
7
 10
1.71748137E+02
 20
1.20946125E+02
  0
VERTEX
  8
0
 62
7
 10
1.71572882E+02
 20
1.20928690E+02
  0
VERTEX
  8
0
 62
7
 10
1.71400680E+02
 20
1.20899800E+02
  0
VERTEX
  8
0
 62
7
 10
1.71233028E+02
 20
1.20859706E+02
  0
VERTEX
  8
0
 62
7
 10
1.71071379E+02
 20
1.20808754E+02
  0
VERTEX
  8
0
 62
7
 10
1.70917136E+02
 20
1.20747388E+02
  0
VERTEX
  8
0
 62
7
 10
1.70771636E+02
 20
1.20676140E+02
  0
SEQEND
  8
0
  0
POLYLINE
  8
0
 62
7
 66
1
  0
VERTEX
  8
0
 62
7
 10
1.65078218E+02
 20
1.20676140E+02
  0
VERTEX
  8
0
 62
7
 10
1.64932718E+02
 20
1.20747388E+02
  0
VERTEX
  8
0
 62
7
 10
1.64778475E+02
 20
1.20808754E+02
  0
VERTEX
  8
0
 62
7
 10
1.64616826E+02
 20
1.20859706E+02
  0
VERTEX
  8
0
 62
7
 10
1.64449174E+02
 20
1.20899800E+02
  0
VERTEX
  8
0
 62
7
 10
1.64276972E+02
 20
1.20928690E+02
  0
VERTEX
  8
0
 62
7
 10
1.64101717E+02
 20
1.20946125E+02
  0
VERTEX
  8
0
 62
7
 10
1.63924927E+02
 20
1.20951954E+02
  0
VERTEX
  8
0
 62
7
 10
1.63748137E+02
 20
1.20946125E+02
  0
VERTEX
  8
0
 62
7
 10
1.63572882E+02
 20
1.20928690E+02
  0
VERTEX
  8
0
 62
7
 10
1.63400680E+02
 20
1.20899800E+02
  0
VERTEX
  8
0
 62
7
 10
1.63233028E+02
 20
1.20859706E+02
  0
VERTEX
  8
0
 62
7
 10
1.63071379E+02
 20
1.20808754E+02
  0
VERTEX
  8
0
 62
7
 10
1.62917136E+02
 20
1.20747388E+02
  0
VERTEX
  8
0
 62
7
 10
1.62771636E+02
 20
1.20676140E+02
  0
SEQEND
  8
0
  0
LINE
  8
0
 62
7
 10
1.72704927E+02
 20
1.19290017E+02
 11
1.72704927E+02
 21
1.19926885E+02
  0
LINE
  8
0
 62
7
 10
1.71924927E+02
 20
1.18971584E+02
 11
1.72704927E+02
 21
1.19290017E+02
  0
LINE
  8
0
 62
7
 10
1.71924927E+02
 20
1.20245318E+02
 11
1.72704927E+02
 21
1.19926885E+02
  0
LINE
  8
0
 62
7
 10
1.71924927E+02
 20
1.20245318E+02
 11
1.71144927E+02
 21
1.19926885E+02
  0
LINE
  8
0
 62
7
 10
1.71144927E+02
 20
1.19290017E+02
 11
1.71144927E+02
 21
1.19926885E+02
  0
LINE
  8
0
 62
7
 10
1.71924927E+02
 20
1.18971584E+02
 11
1.71144927E+02
 21
1.19290017E+02
  0
LINE
  8
0
 62
7
 10
1.63924927E+02
 20
1.20245318E+02
 11
1.63144927E+02
 21
1.19926885E+02
  0
LINE
  8
0
 62
7
 10
1.63144927E+02
 20
1.19290017E+02
 11
1.63144927E+02
 21
1.19926885E+02
  0
LINE
  8
0
 62
7
 10
1.63924927E+02
 20
1.18971584E+02
 11
1.63144927E+02
 21
1.19290017E+02
  0
LINE
  8
0
 62
7
 10
1.63924927E+02
 20
1.18971584E+02
 11
1.64704927E+02
 21
1.19290017E+02
  0
LINE
  8
0
 62
7
 10
1.64704927E+02
 20
1.19290017E+02
 11
1.64704927E+02
 21
1.19926885E+02
  0
LINE
  8
0
 62
7
 10
1.63924927E+02
 20
1.20245318E+02
 11
1.64704927E+02
 21
1.19926885E+02
  0
LINE
  8
0
  6
CENTER
 62
2
 10
1.71924927E+02
 20
1.13756827E+02
 11
1.71924927E+02
 21
1.22490250E+02
  0
LINE
  8
0
  6
CENTER
 62
2
 10
1.74970842E+02
 20
1.19608451E+02
 11
1.60289541E+02
 21
1.19608451E+02
  0
LINE
  8
0
 62
7
 10
1.81424927E+02
 20
1.09041084E+02
 11
1.81424927E+02
 21
1.29041084E+02
  0
CIRCLE
  8
0
 62
4
 10
1.44420873E+02
 20
1.14035759E+02
 40
1.64999962E+00
  0
CIRCLE
  8
0
 62
7
 10
1.29420879E+02
 20
1.14035759E+02
 40
1.64999962E+00
  0
CIRCLE
  8
0
 62
7
 10
1.19420879E+02
 20
1.14035759E+02
 40
1.64999962E+00
  0
CIRCLE
  8
0
 62
6
 10
1.44420873E+02
 20
1.14035759E+02
 40
2.00000000E+00
  0
CIRCLE
  8
0
 62
2
 10
1.29420879E+02
 20
1.14035759E+02
 40
2.00000000E+00
  0
CIRCLE
  8
0
 62
2
 10
1.19420879E+02
 20
1.14035759E+02
 40
2.00000000E+00
  0
LINE
  8
0
  6
CENTER
 62
2
 10
1.15670788E+02
 20
1.14041084E+02
 11
1.48517676E+02
 21
1.14041084E+02
  0
LINE
  8
0
  6
CENTER
 62
2
 10
1.15670788E+02
 20
1.24041084E+02
 11
1.48517676E+02
 21
1.24041084E+02
  0
LINE
  8
0
 62
7
 10
9.94249268E+01
 20
1.09041084E+02
 11
9.94249268E+01
 21
1.29041084E+02
  0
LINE
  8
0
 62
7
 10
1.06424927E+02
 20
1.09041084E+02
 11
1.06424927E+02
 21
1.29041084E+02
  0
CIRCLE
  8
0
 62
4
 10
1.44420873E+02
 20
1.24046410E+02
 40
1.64999962E+00
  0
CIRCLE
  8
0
 62
7
 10
1.29420879E+02
 20
1.24046410E+02
 40
1.64999962E+00
  0
CIRCLE
  8
0
 62
7
 10
1.19420879E+02
 20
1.24046410E+02
 40
1.64999962E+00
  0
CIRCLE
  8
0
 62
6
 10
1.44420873E+02
 20
1.24046410E+02
 40
2.00000000E+00
  0
CIRCLE
  8
0
 62
2
 10
1.29420879E+02
 20
1.24046410E+02
 40
2.00000000E+00
  0
CIRCLE
  8
0
 62
2
 10
1.19420879E+02
 20
1.24046410E+02
 40
2.00000000E+00
  0
LINE
  8
0
  6
CENTER
 62
6
 10
1.44414927E+02
 20
1.27828587E+02
 11
1.44414927E+02
 21
1.11155599E+02
  0
LINE
  8
0
  6
CENTER
 62
2
 10
1.29414927E+02
 20
1.27828587E+02
 11
1.29414927E+02
 21
1.11155599E+02
  0
LINE
  8
0
  6
CENTER
 62
2
 10
1.19424927E+02
 20
1.27828587E+02
 11
1.19424927E+02
 21
1.11155599E+02
  0
LINE
  8
0
  6
CENTER
 62
2
 10
9.65408785E+01
 20
1.19041084E+02
 11
1.96743303E+02
 21
1.19041084E+02
  0
LINE
  8
0
 62
7
 10
1.06424927E+02
 20
1.29041084E+02
 11
1.81424927E+02
 21
1.29041084E+02
  0
LINE
  8
0
 62
7
 10
1.06424927E+02
 20
1.09041084E+02
 11
1.81424927E+02
 21
1.09041084E+02
  0
LINE
  8
0
 62
4
 10
1.01424927E+02
 20
1.29541084E+02
 11
1.13424927E+02
 21
1.29541084E+02
  0
LINE
  8
0
 62
4
 10
1.01424927E+02
 20
1.08541084E+02
 11
1.13424927E+02
 21
1.08541084E+02
  0
LINE
  8
0
 62
7
 10
1.13424927E+02
 20
1.08541084E+02
 11
1.13424927E+02
 21
1.09041084E+02
  0
LINE
  8
0
 62
7
 10
1.83414927E+02
 20
1.08541084E+02
 11
1.83414927E+02
 21
1.29541084E+02
  0
LINE
  8
0
 62
7
 10
1.13424927E+02
 20
1.29041084E+02
 11
1.13424927E+02
 21
1.29577640E+02
  0
LINE
  8
0
 62
7
 10
1.83414927E+02
 20
1.20341084E+02
 11
1.81424927E+02
 21
1.20341084E+02
  0
LINE
  8
0
 62
7
 10
1.83414927E+02
 20
1.16541084E+02
 11
1.81424927E+02
 21
1.16541084E+02
  0
LINE
  8
0
 62
7
 10
1.13424927E+02
 20
1.29541084E+02
 11
1.83414927E+02
 21
1.29541084E+02
  0
LINE
  8
0
 62
7
 10
1.13424927E+02
 20
1.08541084E+02
 11
1.83414927E+02
 21
1.08541084E+02
  0
LINE
  8
0
  6
CENTER
 10
1.56624927E+02
 20
-7.42548547E+01
 11
1.56624927E+02
 21
-1.80700206E+01
  0
CIRCLE
  8
0
  6
DASHED
 62
6
 10
1.07424927E+02
 20
-4.29489156E+01
 40
3.75000000E+00
  0
CIRCLE
  8
0
 62
4
 10
1.07424927E+02
 20
-4.29489156E+01
 40
2.25000000E+00
  0
CIRCLE
  8
0
 62
4
 10
1.88424927E+02
 20
-5.49489156E+01
 40
2.25000000E+00
  0
LINE
  8
0
  6
CENTER
 62
6
 10
1.84659907E+02
 20
-5.49489156E+01
 11
1.92383046E+02
 21
-5.49489156E+01
  0
LINE
  8
0
  6
CENTER
 62
6
 10
1.02501321E+02
 20
-4.29489156E+01
 11
1.12690721E+02
 21
-4.29489156E+01
  0
LINE
  8
0
  6
CENTER
 62
6
 10
1.88424927E+02
 20
-5.11546068E+01
 11
1.88424927E+02
 21
-5.86472039E+01
  0
LINE
  8
0
  6
CENTER
 62
6
 10
1.07424927E+02
 20
-3.78154717E+01
 11
1.07424927E+02
 21
-4.78646505E+01
  0
LINE
  8
0
 62
4
 10
1.19924927E+02
 20
-5.40828902E+01
 11
1.18424927E+02
 21
-5.32168648E+01
  0
LINE
  8
0
 62
4
 10
1.19924927E+02
 20
-5.58149410E+01
 11
1.19924927E+02
 21
-5.40828902E+01
  0
LINE
  8
0
 62
4
 10
1.18424927E+02
 20
-5.66809664E+01
 11
1.19924927E+02
 21
-5.58149410E+01
  0
LINE
  8
0
 62
4
 10
1.16924927E+02
 20
-5.58149410E+01
 11
1.18424927E+02
 21
-5.66809664E+01
  0
LINE
  8
0
 62
4
 10
1.16924927E+02
 20
-5.40828902E+01
 11
1.16924927E+02
 21
-5.58149410E+01
  0
LINE
  8
0
 62
4
 10
1.18424927E+02
 20
-5.32168648E+01
 11
1.16924927E+02
 21
-5.40828902E+01
  0
LINE
  8
0
 62
4
 10
1.79914927E+02
 20
-4.20828902E+01
 11
1.78414927E+02
 21
-4.12168648E+01
  0
LINE
  8
0
 62
4
 10
1.79914927E+02
 20
-4.38149410E+01
 11
1.79914927E+02
 21
-4.20828902E+01
  0
LINE
  8
0
 62
4
 10
1.78414927E+02
 20
-4.46809664E+01
 11
1.79914927E+02
 21
-4.38149410E+01
  0
LINE
  8
0
 62
4
 10
1.76914927E+02
 20
-4.38149410E+01
 11
1.78414927E+02
 21
-4.46809664E+01
  0
LINE
  8
0
 62
4
 10
1.76914927E+02
 20
-4.20828902E+01
 11
1.76914927E+02
 21
-4.38149410E+01
  0
LINE
  8
0
 62
4
 10
1.78414927E+02
 20
-4.12168648E+01
 11
1.76914927E+02
 21
-4.20828902E+01
  0
CIRCLE
  8
0
 62
4
 10
1.78414927E+02
 20
-4.29489156E+01
 40
3.50000000E+00
  0
CIRCLE
  8
0
 62
4
 10
1.18424927E+02
 20
-5.49489156E+01
 40
3.50000000E+00
  0
CIRCLE
  8
0
 62
4
 10
1.78414927E+02
 20
-4.29489156E+01
 40
3.75000000E+00
  0
CIRCLE
  8
0
 62
4
 10
1.18424927E+02
 20
-5.49489156E+01
 40
3.75000000E+00
  0
LINE
  8
0
 62
4
 10
1.01424927E+02
 20
-3.84489156E+01
 11
1.01424927E+02
 21
-5.94489156E+01
  0
LINE
  8
0
 62
4
 10
1.92424927E+02
 20
-3.84489156E+01
 11
1.92424927E+02
 21
-5.94489156E+01
  0
LINE
  8
0
 62
7
 10
1.01424927E+02
 20
-5.89489156E+01
 11
9.94249268E+01
 21
-5.89489156E+01
  0
LINE
  8
0
 62
7
 10
1.01424927E+02
 20
-3.89489156E+01
 11
9.94249268E+01
 21
-3.89489156E+01
  0
LINE
  8
0
 62
7
 10
9.94249268E+01
 20
-3.89489156E+01
 11
9.94249268E+01
 21
-5.89489156E+01
  0
LINE
  8
0
  6
CENTER
 62
6
 10
1.72606941E+02
 20
-4.29489156E+01
 11
1.84005153E+02
 21
-4.29489156E+01
  0
LINE
  8
0
  6
CENTER
 62
6
 10
1.12766328E+02
 20
-5.49489156E+01
 11
1.24250890E+02
 21
-5.49489156E+01
  0
LINE
  8
0
  6
CENTER
 62
6
 10
1.78414927E+02
 20
-3.74330250E+01
 11
1.78414927E+02
 21
-4.83131364E+01
  0
LINE
  8
0
  6
CENTER
 62
6
 10
1.18424927E+02
 20
-4.95220377E+01
 11
1.18424927E+02
 21
-6.09526185E+01
  0
LINE
  8
0
  6
CENTER
 62
2
 10
9.55808785E+01
 20
-4.89489156E+01
 11
1.96021571E+02
 21
-4.89489156E+01
  0
LINE
  8
0
 62
4
 10
1.01424927E+02
 20
-3.84489156E+01
 11
1.92424927E+02
 21
-3.84489156E+01
  0
LINE
  8
0
 62
4
 10
1.01424927E+02
 20
-5.94489156E+01
 11
1.92424927E+02
 21
-5.94489156E+01
  0
LINE
  8
0
 62
4
 10
-6.78717772E+01
 20
-1.75647330E+02
 11
-4.58717772E+01
 21
-1.75647330E+02
  0
LINE
  8
0
 62
4
 10
-6.31717772E+01
 20
-1.80247330E+02
 11
-4.58717772E+01
 21
-1.80247330E+02
  0
LINE
  8
0
 62
4
 10
-4.58717772E+01
 20
-1.75647330E+02
 11
-4.58717772E+01
 21
-1.80247330E+02
  0
LINE
  8
0
 62
4
 10
-6.78717772E+01
 20
-1.77447330E+02
 11
-6.78717772E+01
 21
-1.75647330E+02
  0
LINE
  8
0
 62
4
 10
-6.31717772E+01
 20
-1.78687330E+02
 11
-6.31717772E+01
 21
-1.80247330E+02
  0
LINE
  8
0
 62
4
 10
-6.78717772E+01
 20
-1.77447330E+02
 11
-6.36217772E+01
 21
-1.77447330E+02
  0
LINE
  8
0
  6
CENTER
 62
6
 10
-6.58717772E+01
 20
-1.74847330E+02
 11
-6.58717772E+01
 21
-1.81077330E+02
  0
LINE
  8
0
 62
4
 10
-6.36217772E+01
 20
-1.77447330E+02
 11
-6.36217772E+01
 21
-1.78687330E+02
  0
LINE
  8
0
 62
4
 10
-6.38717772E+01
 20
-1.77447330E+02
 11
-6.38717772E+01
 21
-1.78247330E+02
  0
LINE
  8
0
 62
4
 10
-6.78717772E+01
 20
-1.77447330E+02
 11
-6.78717772E+01
 21
-1.78247330E+02
  0
LINE
  8
0
 62
4
 10
-6.78717772E+01
 20
-1.78247330E+02
 11
-6.38717772E+01
 21
-1.78247330E+02
  0
LINE
  8
0
 62
4
 10
-6.36717772E+01
 20
-1.77447330E+02
 11
-6.36717772E+01
 21
-1.79447330E+02
  0
LINE
  8
0
 62
4
 10
-6.36717772E+01
 20
-1.79447330E+02
 11
-6.31717772E+01
 21
-1.79447330E+02
  0
LINE
  8
0
 62
4
 10
-6.36217772E+01
 20
-1.78687330E+02
 11
-6.31717772E+01
 21
-1.78687330E+02
  0
LINE
  8
0
 62
4
 10
-3.73717772E+01
 20
-1.76647330E+02
 11
-3.73717772E+01
 21
-1.79247330E+02
  0
LINE
  8
0
  6
CENTER
 62
6
 10
-3.91017772E+01
 20
-1.77497330E+02
 11
-2.71717772E+01
 21
-1.77497330E+02
  0
LINE
  8
0
  6
CENTER
 62
6
 10
-3.90517772E+01
 20
-1.78397330E+02
 11
-2.71217772E+01
 21
-1.78397330E+02
  0
LINE
  8
0
 62
4
 10
-2.73717772E+01
 20
-1.77247330E+02
 11
-2.73717772E+01
 21
-1.77747330E+02
  0
LINE
  8
0
 62
4
 10
-2.73717772E+01
 20
-1.78147330E+02
 11
-2.73717772E+01
 21
-1.78647330E+02
  0
LINE
  8
0
 62
4
 10
-3.03717772E+01
 20
-1.77047330E+02
 11
-3.03717772E+01
 21
-1.78847330E+02
  0
LINE
  8
0
 62
4
 10
-3.73717772E+01
 20
-1.78847330E+02
 11
-3.33717772E+01
 21
-1.78847330E+02
  0
LINE
  8
0
 62
4
 10
-3.73717772E+01
 20
-1.77947330E+02
 11
-3.38917772E+01
 21
-1.77947330E+02
  0
LINE
  8
0
 62
4
 10
-3.23917772E+01
 20
-1.77947330E+02
 11
-3.03717772E+01
 21
-1.77947330E+02
  0
LINE
  8
0
 62
4
 10
-3.18717772E+01
 20
-1.78847330E+02
 11
-3.03717772E+01
 21
-1.78847330E+02
  0
LINE
  8
0
 62
4
 10
-3.73717772E+01
 20
-1.77047330E+02
 11
-3.44117772E+01
 21
-1.77047330E+02
  0
LINE
  8
0
 62
4
 10
-3.29117772E+01
 20
-1.77047330E+02
 11
-3.03717772E+01
 21
-1.77047330E+02
  0
LINE
  8
0
 62
4
 10
-3.03717772E+01
 20
-1.77247330E+02
 11
-2.73717772E+01
 21
-1.77247330E+02
  0
LINE
  8
0
 62
4
 10
-3.03717772E+01
 20
-1.77747330E+02
 11
-2.73717772E+01
 21
-1.77747330E+02
  0
LINE
  8
0
 62
4
 10
-3.03717772E+01
 20
-1.78147330E+02
 11
-2.73717772E+01
 21
-1.78147330E+02
  0
LINE
  8
0
 62
4
 10
-3.03717772E+01
 20
-1.78647330E+02
 11
-2.73717772E+01
 21
-1.78647330E+02
  0
LINE
  8
0
 62
6
 10
-3.36417772E+01
 20
-1.75777330E+02
 11
-3.11417772E+01
 21
-1.80107330E+02
  0
LINE
  8
0
  6
CENTER
 62
6
 10
-4.71917772E+01
 20
-1.77947330E+02
 11
-3.73717772E+01
 21
-1.77947330E+02
  0
LINE
  8
0
 62
6
 10
-3.51417772E+01
 20
-1.75777330E+02
 11
-3.26417772E+01
 21
-1.80107330E+02
  0
LINE
  8
0
 62
6
 10
-4.26217772E+01
 20
-1.75777330E+02
 11
-4.01217772E+01
 21
-1.80107330E+02
  0
LINE
  8
0
 62
6
 10
-4.41217772E+01
 20
-1.75777330E+02
 11
-4.16217772E+01
 21
-1.80107330E+02
  0
LINE
  8
0
 62
4
 10
-6.69017772E+01
 20
-1.79647330E+02
 11
-6.48517772E+01
 21
-1.79647330E+02
  0
LINE
  8
0
 62
4
 10
-6.48517772E+01
 20
-1.79647330E+02
 11
-6.46217772E+01
 21
-1.79417330E+02
  0
LINE
  8
0
 62
4
 10
-6.69017772E+01
 20
-1.79647330E+02
 11
-6.71217772E+01
 21
-1.79417330E+02
  0
LINE
  8
0
 62
4
 10
-6.71217772E+01
 20
-1.78237330E+02
 11
-6.71217772E+01
 21
-1.79417330E+02
  0
LINE
  8
0
 62
6
 10
-6.69017772E+01
 20
-1.78237330E+02
 11
-6.69017772E+01
 21
-1.79647330E+02
  0
LINE
  8
0
 62
6
 10
-6.48517772E+01
 20
-1.78237330E+02
 11
-6.48517772E+01
 21
-1.79647330E+02
  0
LINE
  8
0
 62
4
 10
-6.46217772E+01
 20
-1.78237330E+02
 11
-6.46217772E+01
 21
-1.79417330E+02
  0
LINE
  8
0
 62
4
 10
-6.71217772E+01
 20
-1.79417330E+02
 11
-6.46217772E+01
 21
-1.79417330E+02
  0
LINE
  8
0
 62
4
 10
-6.71217772E+01
 20
-1.75147330E+02
 11
-6.71217772E+01
 21
-1.75647330E+02
  0
LINE
  8
0
 62
6
 10
-6.69017772E+01
 20
-1.75147330E+02
 11
-6.69017772E+01
 21
-1.75647330E+02
  0
LINE
  8
0
 62
6
 10
-6.48517772E+01
 20
-1.75147330E+02
 11
-6.48517772E+01
 21
-1.75647330E+02
  0
LINE
  8
0
 62
4
 10
-6.46217772E+01
 20
-1.75147330E+02
 11
-6.46217772E+01
 21
-1.75647330E+02
  0
LINE
  8
0
 62
4
 10
-6.71217772E+01
 20
-1.75147330E+02
 11
-6.46217772E+01
 21
-1.75147330E+02
  0
LINE
  8
0
 62
4
 10
-6.78717772E+01
 20
-1.76647330E+02
 11
-4.58717772E+01
 21
-1.76647330E+02
  0
LINE
  8
0
 62
4
 10
-6.78717772E+01
 20
-1.76097330E+02
 11
-4.58717772E+01
 21
-1.76097330E+02
  0
LINE
  8
0
 62
4
 10
-4.58717772E+01
 20
-1.76647330E+02
 11
-4.36217772E+01
 21
-1.76647330E+02
  0
LINE
  8
0
 62
4
 10
-4.58717772E+01
 20
-1.79247330E+02
 11
-4.21217772E+01
 21
-1.79247330E+02
  0
LINE
  8
0
 62
4
 10
-4.21217772E+01
 20
-1.76647330E+02
 11
-3.73717772E+01
 21
-1.76647330E+02
  0
LINE
  8
0
 62
4
 10
-4.06217772E+01
 20
-1.79247330E+02
 11
-3.73717772E+01
 21
-1.79247330E+02
  0
LINE
  8
0
  6
CENTER
 62
6
 10
-1.12414502E+02
 20
-1.73597330E+02
 11
-1.12414502E+02
 21
-1.82307330E+02
  0
LINE
  8
0
 62
4
 10
-1.14464502E+02
 20
-1.76647330E+02
 11
-1.14464502E+02
 21
-1.78197330E+02
  0
LINE
  8
0
 62
4
 10
-1.14464502E+02
 20
-1.76647330E+02
 11
-1.13914502E+02
 21
-1.76097330E+02
  0
LINE
  8
0
 62
4
 10
-1.13914502E+02
 20
-1.75647330E+02
 11
-1.13914502E+02
 21
-1.76097330E+02
  0
LINE
  8
0
 62
4
 10
-1.13914502E+02
 20
-1.75647330E+02
 11
-1.10914502E+02
 21
-1.75647330E+02
  0
LINE
  8
0
 62
4
 10
-1.10914502E+02
 20
-1.75647330E+02
 11
-1.10914502E+02
 21
-1.76097330E+02
  0
LINE
  8
0
 62
4
 10
-1.10364502E+02
 20
-1.76647330E+02
 11
-1.10914502E+02
 21
-1.76097330E+02
  0
LINE
  8
0
 62
4
 10
-1.10364502E+02
 20
-1.76647330E+02
 11
-1.10364502E+02
 21
-1.78197330E+02
  0
LINE
  8
0
 62
4
 10
-1.14464502E+02
 20
-1.77447330E+02
 11
-1.10364502E+02
 21
-1.77447330E+02
  0
LINE
  8
0
 62
4
 10
-1.14464502E+02
 20
-1.78237330E+02
 11
-1.10364502E+02
 21
-1.78237330E+02
  0
LINE
  8
0
 62
4
 10
-1.13434502E+02
 20
-1.79647330E+02
 11
-1.11394502E+02
 21
-1.79647330E+02
  0
LINE
  8
0
 62
4
 10
-1.11394502E+02
 20
-1.79647330E+02
 11
-1.11164502E+02
 21
-1.79417330E+02
  0
LINE
  8
0
 62
4
 10
-1.13434502E+02
 20
-1.79647330E+02
 11
-1.13664502E+02
 21
-1.79417330E+02
  0
LINE
  8
0
 62
4
 10
-1.13664502E+02
 20
-1.78237330E+02
 11
-1.13664502E+02
 21
-1.79417330E+02
  0
LINE
  8
0
 62
6
 10
-1.13434502E+02
 20
-1.78237330E+02
 11
-1.13434502E+02
 21
-1.79647330E+02
  0
LINE
  8
0
 62
6
 10
-1.11394502E+02
 20
-1.78237330E+02
 11
-1.11394502E+02
 21
-1.79647330E+02
  0
LINE
  8
0
 62
4
 10
-1.11164502E+02
 20
-1.78237330E+02
 11
-1.11164502E+02
 21
-1.79417330E+02
  0
LINE
  8
0
 62
4
 10
-1.13664502E+02
 20
-1.79417330E+02
 11
-1.11164502E+02
 21
-1.79417330E+02
  0
LINE
  8
0
 62
4
 10
-1.13664502E+02
 20
-1.75147330E+02
 11
-1.13664502E+02
 21
-1.75647330E+02
  0
LINE
  8
0
 62
6
 10
-1.13434502E+02
 20
-1.75147330E+02
 11
-1.13434502E+02
 21
-1.75647330E+02
  0
LINE
  8
0
 62
6
 10
-1.11394502E+02
 20
-1.75147330E+02
 11
-1.11394502E+02
 21
-1.75647330E+02
  0
LINE
  8
0
 62
4
 10
-1.11164502E+02
 20
-1.75147330E+02
 11
-1.11164502E+02
 21
-1.75647330E+02
  0
LINE
  8
0
 62
4
 10
-1.13664502E+02
 20
-1.75147330E+02
 11
-1.11164502E+02
 21
-1.75147330E+02
  0
ARC
  8
0
 62
4
 10
-1.12414500E+02
 20
-1.78197327E+02
 40
2.05000229E+00
 50
1.80000064E+02
 51
2.69999936E+02
  0
ARC
  8
0
 62
4
 10
-1.12414504E+02
 20
-1.78197327E+02
 40
2.05000229E+00
 50
2.70000064E+02
 51
3.59999936E+02
  0
LINE
  8
0
  6
CENTER
 62
6
 10
-7.06717772E+01
 20
-1.33097327E+02
 11
-4.04717772E+01
 21
-1.33097327E+02
  0
LINE
  8
0
 62
4
 10
-6.78717772E+01
 20
-1.34597327E+02
 11
-4.58717772E+01
 21
-1.34597327E+02
  0
LINE
  8
0
 62
4
 10
-6.78717772E+01
 20
-1.31597327E+02
 11
-4.58717772E+01
 21
-1.31597327E+02
  0
LINE
  8
0
 62
4
 10
-6.78717772E+01
 20
-1.35147327E+02
 11
-4.58717772E+01
 21
-1.35147327E+02
  0
LINE
  8
0
 62
4
 10
-6.78717772E+01
 20
-1.31047327E+02
 11
-4.58717772E+01
 21
-1.31047327E+02
  0
LINE
  8
0
 62
4
 10
-6.78717772E+01
 20
-1.31047327E+02
 11
-6.78717772E+01
 21
-1.35147327E+02
  0
LINE
  8
0
 62
4
 10
-4.58717772E+01
 20
-1.31047327E+02
 11
-4.58717772E+01
 21
-1.35147327E+02
  0
LINE
  8
0
  6
CENTER
 62
6
 10
-6.58717772E+01
 20
-1.30267327E+02
 11
-6.58717772E+01
 21
-1.35847327E+02
  0
LINE
  8
0
 62
4
 10
-6.69217772E+01
 20
-1.33807327E+02
 11
-6.51917772E+01
 21
-1.32077327E+02
  0
LINE
  8
0
 62
4
 10
-6.65717772E+01
 20
-1.34157327E+02
 11
-6.49317772E+01
 21
-1.32537327E+02
  0
LINE
  8
0
 62
6
 10
-4.47917772E+01
 20
-1.30937327E+02
 11
-4.22917772E+01
 21
-1.35257327E+02
  0
LINE
  8
0
 62
4
 10
-4.58717772E+01
 20
-1.31797327E+02
 11
-4.42917772E+01
 21
-1.31797327E+02
  0
LINE
  8
0
 62
4
 10
-4.58717772E+01
 20
-1.34397327E+02
 11
-4.27817772E+01
 21
-1.34397327E+02
  0
CIRCLE
  8
0
 62
4
 10
-6.58717619E+01
 20
-1.33097327E+02
 40
1.25000000E+00
  0
CIRCLE
  8
0
 62
4
 10
-6.58717619E+01
 20
-1.33097327E+02
 40
1.39999962E+00
  0
LINE
  8
0
 62
4
 10
8.73032265E+01
 20
-1.79341984E+02
 11
1.03400566E+02
 21
-1.79634663E+02
  0
LINE
  8
0
 62
4
 10
9.19188273E+01
 20
-1.84026664E+02
 11
1.09215968E+02
 21
-1.84341158E+02
  0
LINE
  8
0
 62
4
 10
1.09425025E+02
 20
-1.72843058E+02
 11
1.09215968E+02
 21
-1.84341158E+02
  0
LINE
  8
0
 62
4
 10
8.72559616E+01
 20
-1.81941554E+02
 11
8.73032265E+01
 21
-1.79341984E+02
  0
LINE
  8
0
 62
4
 10
9.19482770E+01
 20
-1.82406932E+02
 11
9.19188273E+01
 21
-1.84026664E+02
  0
LINE
  8
0
  6
CENTER
 62
6
 10
8.93161665E+01
 20
-1.78648462E+02
 11
8.92089115E+01
 21
-1.84547487E+02
  0
LINE
  8
0
 62
4
 10
1.03526000E+02
 20
-1.72735803E+02
 11
1.03400566E+02
 21
-1.79634663E+02
  0
LINE
  8
0
 62
4
 10
8.72705046E+01
 20
-1.81141687E+02
 11
9.15397990E+01
 21
-1.81219310E+02
  0
LINE
  8
0
 62
4
 10
8.72559616E+01
 20
-1.81941554E+02
 11
9.12553006E+01
 21
-1.82014270E+02
  0
LINE
  8
0
 62
4
 10
9.12698436E+01
 20
-1.81214402E+02
 11
9.12553006E+01
 21
-1.82014270E+02
  0
LINE
  8
0
 62
4
 10
1.03526000E+02
 20
-1.72735803E+02
 11
1.09425025E+02
 21
-1.72843058E+02
  0
LINE
  8
0
 62
4
 10
9.14334529E+01
 20
-1.83217707E+02
 11
9.19333703E+01
 21
-1.83226797E+02
  0
LINE
  8
0
 62
4
 10
9.14698106E+01
 20
-1.81218038E+02
 11
9.14334529E+01
 21
-1.83217707E+02
  0
LINE
  8
0
 62
4
 10
9.15183480E+01
 20
-1.82399115E+02
 11
9.19482770E+01
 21
-1.82406932E+02
  0
LINE
  8
0
 62
4
 10
9.15397990E+01
 20
-1.81219310E+02
 11
9.15183480E+01
 21
-1.82399115E+02
  0
LINE
  8
0
 62
4
 10
8.72850477E+01
 20
-1.80341819E+02
 11
1.09281412E+02
 21
-1.80741753E+02
  0
LINE
  8
0
 62
4
 10
8.72950460E+01
 20
-1.79791910E+02
 11
1.09291411E+02
 21
-1.80191844E+02
  0
LINE
  8
0
 62
4
 10
1.03421472E+02
 20
-1.78484853E+02
 11
1.09320497E+02
 21
-1.78592108E+02
  0
LINE
  8
0
 62
4
 10
1.03407838E+02
 20
-1.79234729E+02
 11
1.09306863E+02
 21
-1.79341984E+02
  0
LINE
  8
0
 62
4
 10
1.03498732E+02
 20
-1.74235555E+02
 11
1.09397757E+02
 21
-1.74342810E+02
  0
LINE
  8
0
 62
4
 10
1.05680189E+02
 20
-1.64273565E+02
 11
1.08279760E+02
 21
-1.64320830E+02
  0
LINE
  8
0
  6
CENTER
 62
6
 10
1.06498599E+02
 20
-1.66018732E+02
 11
1.06715473E+02
 21
-1.54090703E+02
  0
LINE
  8
0
  6
CENTER
 62
6
 10
1.07399360E+02
 20
-1.65985101E+02
 11
1.07616233E+02
 21
-1.54057072E+02
  0
LINE
  8
0
 62
4
 10
1.06461878E+02
 20
-1.54286125E+02
 11
1.06961796E+02
 21
-1.54295215E+02
  0
LINE
  8
0
 62
4
 10
1.07361729E+02
 20
-1.54302486E+02
 11
1.07861647E+02
 21
-1.54311576E+02
  0
LINE
  8
0
 62
4
 10
1.06207375E+02
 20
-1.57281994E+02
 11
1.08007077E+02
 21
-1.57314716E+02
  0
LINE
  8
0
 62
4
 10
1.07879826E+02
 20
-1.64313559E+02
 11
1.07952541E+02
 21
-1.60314220E+02
  0
LINE
  8
0
 62
4
 10
1.06979974E+02
 20
-1.64297198E+02
 11
1.07043237E+02
 21
-1.60817773E+02
  0
LINE
  8
0
 62
4
 10
1.07070505E+02
 20
-1.59318021E+02
 11
1.07107226E+02
 21
-1.57298355E+02
  0
LINE
  8
0
 62
4
 10
1.07979809E+02
 20
-1.58814468E+02
 11
1.08007077E+02
 21
-1.57314716E+02
  0
LINE
  8
0
 62
4
 10
1.06080123E+02
 20
-1.64280837E+02
 11
1.06133932E+02
 21
-1.61321326E+02
  0
LINE
  8
0
 62
4
 10
1.06161201E+02
 20
-1.59821574E+02
 11
1.06207375E+02
 21
-1.57281994E+02
  0
LINE
  8
0
 62
4
 10
1.06407342E+02
 20
-1.57285630E+02
 11
1.06461878E+02
 21
-1.54286125E+02
  0
LINE
  8
0
 62
4
 10
1.06907259E+02
 20
-1.57294719E+02
 11
1.06961796E+02
 21
-1.54295215E+02
  0
LINE
  8
0
 62
4
 10
1.07307193E+02
 20
-1.57301990E+02
 11
1.07361729E+02
 21
-1.54302486E+02
  0
LINE
  8
0
 62
4
 10
1.07807110E+02
 20
-1.57311080E+02
 11
1.07861647E+02
 21
-1.54311576E+02
  0
LINE
  8
0
 62
6
 10
1.04888138E+02
 20
-1.60528548E+02
 11
1.09262870E+02
 21
-1.58107675E+02
  0
LINE
  8
0
  6
CENTER
 62
6
 10
1.06801458E+02
 20
-1.74115575E+02
 11
1.06979974E+02
 21
-1.64297198E+02
  0
LINE
  8
0
 62
6
 10
1.04860870E+02
 20
-1.62028300E+02
 11
1.09235602E+02
 21
-1.59607428E+02
  0
LINE
  8
0
 62
6
 10
1.04724893E+02
 20
-1.69507064E+02
 11
1.09099624E+02
 21
-1.67086192E+02
  0
LINE
  8
0
 62
6
 10
1.04697624E+02
 20
-1.71006816E+02
 11
1.09072356E+02
 21
-1.68585944E+02
  0
LINE
  8
0
 62
4
 10
8.82003509E+01
 20
-1.83358957E+02
 11
9.02500122E+01
 21
-1.83396223E+02
  0
LINE
  8
0
 62
4
 10
9.02500122E+01
 20
-1.83396223E+02
 11
9.04841553E+01
 21
-1.83170442E+02
  0
LINE
  8
0
 62
4
 10
8.82003509E+01
 20
-1.83358957E+02
 11
8.79845684E+01
 21
-1.83124995E+02
  0
LINE
  8
0
 62
4
 10
8.80058376E+01
 20
-1.81955189E+02
 11
8.79845684E+01
 21
-1.83124995E+02
  0
LINE
  8
0
 62
6
 10
8.82258013E+01
 20
-1.81959188E+02
 11
8.82003509E+01
 21
-1.83358957E+02
  0
LINE
  8
0
 62
6
 10
9.02754625E+01
 20
-1.81996455E+02
 11
9.02500122E+01
 21
-1.83396223E+02
  0
LINE
  8
0
 62
4
 10
9.05054245E+01
 20
-1.82000636E+02
 11
9.04841553E+01
 21
-1.83170442E+02
  0
LINE
  8
0
 62
4
 10
8.79845684E+01
 20
-1.83124995E+02
 11
9.04841553E+01
 21
-1.83170442E+02
  0
LINE
  8
0
 62
4
 10
8.80621920E+01
 20
-1.78855701E+02
 11
8.80531025E+01
 21
-1.79355618E+02
  0
LINE
  8
0
 62
6
 10
8.82821556E+01
 20
-1.78859700E+02
 11
8.82730662E+01
 21
-1.79359618E+02
  0
LINE
  8
0
 62
6
 10
9.03318168E+01
 20
-1.78896967E+02
 11
9.03227274E+01
 21
-1.79396884E+02
  0
LINE
  8
0
 62
4
 10
9.05617788E+01
 20
-1.78901148E+02
 11
9.05526894E+01
 21
-1.79401065E+02
  0
LINE
  8
0
 62
4
 10
8.80621920E+01
 20
-1.78855701E+02
 11
9.05617788E+01
 21
-1.78901148E+02
  0
LINE
  8
0
 62
4
 10
1.08125240E+02
 20
-1.72819426E+02
 11
1.08193410E+02
 21
-1.69070045E+02
  0
LINE
  8
0
 62
4
 10
1.05525669E+02
 20
-1.72772161E+02
 11
1.05566572E+02
 21
-1.70522533E+02
  0
LINE
  8
0
 62
4
 10
1.05593840E+02
 20
-1.69022781E+02
 11
1.05680189E+02
 21
-1.64273565E+02
  0
LINE
  8
0
 62
4
 10
1.08220678E+02
 20
-1.67570293E+02
 11
1.08279760E+02
 21
-1.64320830E+02
  0
LINE
  8
0
 62
4
 10
4.20104866E+01
 20
-1.73941969E+02
 11
4.65104866E+01
 21
-1.73941969E+02
  0
LINE
  8
0
 62
4
 10
4.20104866E+01
 20
-1.72441969E+02
 11
4.20104866E+01
 21
-1.78191969E+02
  0
LINE
  8
0
 62
4
 10
4.27604866E+01
 20
-1.78941969E+02
 11
4.20104866E+01
 21
-1.78191969E+02
  0
LINE
  8
0
 62
4
 10
4.27604866E+01
 20
-1.79791969E+02
 11
4.27604866E+01
 21
-1.78941969E+02
  0
LINE
  8
0
 62
4
 10
4.22104866E+01
 20
-1.80341969E+02
 11
4.27604866E+01
 21
-1.79791969E+02
  0
LINE
  8
0
 62
4
 10
4.22104866E+01
 20
-1.80341969E+02
 11
4.22104866E+01
 21
-1.81891969E+02
  0
LINE
  8
0
 62
4
 10
4.63104866E+01
 20
-1.80341969E+02
 11
4.63104866E+01
 21
-1.81891969E+02
  0
LINE
  8
0
 62
4
 10
4.63104866E+01
 20
-1.80341969E+02
 11
4.57604866E+01
 21
-1.79791969E+02
  0
LINE
  8
0
 62
4
 10
4.57604866E+01
 20
-1.79791969E+02
 11
4.57604866E+01
 21
-1.78941969E+02
  0
LINE
  8
0
 62
4
 10
4.57604866E+01
 20
-1.78941969E+02
 11
4.65104866E+01
 21
-1.78191969E+02
  0
LINE
  8
0
 62
4
 10
4.65104866E+01
 20
-1.72441969E+02
 11
4.65104866E+01
 21
-1.78191969E+02
  0
LINE
  8
0
  6
CENTER
 62
6
 10
4.42604866E+01
 20
-1.66781969E+02
 11
4.42604866E+01
 21
-1.85401969E+02
  0
LINE
  8
0
 62
4
 10
4.27604866E+01
 20
-1.79341969E+02
 11
4.57604866E+01
 21
-1.79341969E+02
  0
LINE
  8
0
 62
4
 10
4.22104866E+01
 20
-1.81141969E+02
 11
4.63104866E+01
 21
-1.81141969E+02
  0
LINE
  8
0
 62
4
 10
4.22104866E+01
 20
-1.81941969E+02
 11
4.63104866E+01
 21
-1.81941969E+02
  0
LINE
  8
0
 62
4
 10
4.20104866E+01
 20
-1.72441969E+02
 11
4.65104866E+01
 21
-1.72441969E+02
  0
LINE
  8
0
 62
6
 10
4.21004866E+01
 20
-1.70691969E+02
 11
4.64204866E+01
 21
-1.68191969E+02
  0
LINE
  8
0
 62
4
 10
4.32404866E+01
 20
-1.83341969E+02
 11
4.52804866E+01
 21
-1.83341969E+02
  0
LINE
  8
0
 62
4
 10
4.52804866E+01
 20
-1.83341969E+02
 11
4.55104866E+01
 21
-1.83111969E+02
  0
LINE
  8
0
 62
4
 10
4.32404866E+01
 20
-1.83341969E+02
 11
4.30104866E+01
 21
-1.83111969E+02
  0
LINE
  8
0
 62
4
 10
4.30104866E+01
 20
-1.81941969E+02
 11
4.30104866E+01
 21
-1.83111969E+02
  0
LINE
  8
0
 62
6
 10
4.32404866E+01
 20
-1.81941969E+02
 11
4.32404866E+01
 21
-1.83341969E+02
  0
LINE
  8
0
 62
6
 10
4.52804866E+01
 20
-1.81941969E+02
 11
4.52804866E+01
 21
-1.83341969E+02
  0
LINE
  8
0
 62
4
 10
4.55104866E+01
 20
-1.81941969E+02
 11
4.55104866E+01
 21
-1.83111969E+02
  0
LINE
  8
0
 62
4
 10
4.30104866E+01
 20
-1.83111969E+02
 11
4.55104866E+01
 21
-1.83111969E+02
  0
LINE
  8
0
 62
4
 10
4.30104866E+01
 20
-1.78841969E+02
 11
4.30104866E+01
 21
-1.79341969E+02
  0
LINE
  8
0
 62
6
 10
4.32404866E+01
 20
-1.78841969E+02
 11
4.32404866E+01
 21
-1.79341969E+02
  0
LINE
  8
0
 62
6
 10
4.52804866E+01
 20
-1.78841969E+02
 11
4.52804866E+01
 21
-1.79341969E+02
  0
LINE
  8
0
 62
4
 10
4.55104866E+01
 20
-1.78841969E+02
 11
4.55104866E+01
 21
-1.79341969E+02
  0
LINE
  8
0
 62
4
 10
4.30104866E+01
 20
-1.78841969E+02
 11
4.55104866E+01
 21
-1.78841969E+02
  0
LINE
  8
0
 62
4
 10
4.29604866E+01
 20
-1.70191969E+02
 11
4.29604866E+01
 21
-1.72441969E+02
  0
LINE
  8
0
 62
4
 10
4.55604866E+01
 20
-1.68691969E+02
 11
4.55604866E+01
 21
-1.72441969E+02
  0
ARC
  8
0
 62
4
 10
4.42604889E+01
 20
-1.81891967E+02
 40
2.05000229E+00
 50
1.80000064E+02
 51
2.69999936E+02
  0
ARC
  8
0
 62
4
 10
4.42652941E+01
 20
-1.81887073E+02
 40
2.04519835E+00
 50
2.70985958E+02
 51
3.59862852E+02
  0
LINE
  8
0
  6
CENTER
 62
6
 10
8.59831960E+01
 20
-1.31741963E+02
 11
1.10883196E+02
 21
-1.31741963E+02
  0
LINE
  8
0
 62
4
 10
8.73031960E+01
 20
-1.33241963E+02
 11
1.03863196E+02
 21
-1.33241963E+02
  0
LINE
  8
0
 62
4
 10
8.73031960E+01
 20
-1.30241963E+02
 11
1.03863196E+02
 21
-1.30241963E+02
  0
LINE
  8
0
 62
4
 10
8.73031960E+01
 20
-1.33791963E+02
 11
1.04213196E+02
 21
-1.33791963E+02
  0
LINE
  8
0
 62
4
 10
8.73031960E+01
 20
-1.29691963E+02
 11
1.04213196E+02
 21
-1.29691963E+02
  0
LINE
  8
0
 62
4
 10
8.73031960E+01
 20
-1.29691963E+02
 11
8.73031960E+01
 21
-1.33791963E+02
  0
LINE
  8
0
  6
CENTER
 62
6
 10
8.93031960E+01
 20
-1.28911963E+02
 11
8.93031960E+01
 21
-1.34491963E+02
  0
LINE
  8
0
 62
4
 10
1.04383196E+02
 20
-1.29491963E+02
 11
1.09303196E+02
 21
-1.29491963E+02
  0
LINE
  8
0
 62
4
 10
1.04383196E+02
 20
-1.33991963E+02
 11
1.09303196E+02
 21
-1.33991963E+02
  0
LINE
  8
0
 62
4
 10
1.09303196E+02
 20
-1.29491963E+02
 11
1.09303196E+02
 21
-1.33991963E+02
  0
LINE
  8
0
 62
4
 10
8.86531960E+01
 20
-1.32811963E+02
 11
9.03731960E+01
 21
-1.31101963E+02
  0
LINE
  8
0
 62
4
 10
8.82331960E+01
 20
-1.32381963E+02
 11
8.99431960E+01
 21
-1.30671963E+02
  0
ARC
  8
0
 62
4
 10
1.06803196E+02
 20
-1.31741963E+02
 40
3.30437589E+00
 50
1.37084793E+02
 51
2.22915207E+02
  0
CIRCLE
  8
0
 62
4
 10
8.93031960E+01
 20
-1.31741963E+02
 40
1.25000000E+00
  0
CIRCLE
  8
0
 62
4
 10
8.93031960E+01
 20
-1.31741963E+02
 40
1.39999962E+00
  0
CIRCLE
  8
0
 62
4
 10
1.06710545E+02
 20
-1.31741963E+02
 40
1.29999924E+00
  0
CIRCLE
  8
0
 62
4
 10
1.07032352E+02
 20
-1.32082966E+02
 40
4.49999988E-01
  0
CIRCLE
  8
0
 62
4
 10
1.06420475E+02
 20
-1.31423809E+02
 40
4.49999988E-01
  0
CIRCLE
  8
0
 62
4
 10
1.07032352E+02
 20
-1.32082966E+02
 40
2.50000000E-01
  0
CIRCLE
  8
0
 62
4
 10
1.06420475E+02
 20
-1.31423809E+02
 40
2.50000000E-01
  0
TEXT
  8
0
 10
-1.41557813E+02
 20
1.54523117E+02
 40
4.50000000E+00
  1
STRETCH LINE
 41
1.05263158E+00
  7
MONOTXT
  0
TEXT
  8
0
 10
1.40117115E+02
 20
1.54523117E+02
 40
4.50000000E+00
  1
STRETCH LINE
 41
1.05263158E+00
  7
MONOTXT
  0
TEXT
  8
0
 62
7
 10
-2.58150288E+02
 20
1.82350000E+02
 40
6.30000019E+00
  1
MULTI SLIDER
 41
1.05263174E+00
  7
MONOTXT
  0
TEXT
  8
0
 62
7
 10
1.69885276E+02
 20
-1.89500000E+02
 40
9.00000000E+00
  1
KOGANEI CORP.
 41
1.04838732E+00
  7
MONOTXT
  0
TEXT
  8
0
 62
7
 10
1.97799690E+02
 20
1.82350000E+02
 40
6.30000019E+00
  1
Ver. 1.0
 41
1.08108124E+00
  7
MONOTXT
  0
LINE
  8
0
 62
7
 10
-1.61250000E+02
 20
1.95500000E+02
 11
-1.61250000E+02
 21
1.75500000E+02
  0
LINE
  8
0
 62
7
 10
1.62099976E+02
 20
1.95500000E+02
 11
1.62099976E+02
 21
1.75500000E+02
  0
LINE
  8
0
 62
7
 10
-2.81250000E+02
 20
1.75500000E+02
 11
-1.61250000E+02
 21
1.75500000E+02
  0
LINE
  8
0
 62
7
 10
1.62099976E+02
 20
1.75500000E+02
 11
2.82099854E+02
 21
1.75500000E+02
  0
LINE
  8
0
 62
7
 10
1.62099976E+02
 20
-1.75000000E+02
 11
2.82099854E+02
 21
-1.75000000E+02
  0
LINE
  8
0
 62
7
 10
1.62099976E+02
 20
-1.75000000E+02
 11
1.62099976E+02
 21
-1.95000000E+02
  0
LINE
  8
0
 62
7
 10
-2.81250000E+02
 20
-1.95000000E+02
 11
2.82099854E+02
 21
-1.95000000E+02
  0
LINE
  8
0
 62
7
 10
-2.81250000E+02
 20
1.95500000E+02
 11
-2.81250000E+02
 21
-1.95000000E+02
  0
LINE
  8
0
 62
7
 10
-2.81250000E+02
 20
1.95500000E+02
 11
2.82099854E+02
 21
1.95500000E+02
  0
LINE
  8
0
 62
7
 10
2.82099854E+02
 20
1.95500000E+02
 11
2.82099854E+02
 21
-1.95000000E+02
  0
LINE
  8
0
 62
7
 10
-2.81250000E+02
 20
-1.00000000E+02
 11
2.82099854E+02
 21
-1.00000000E+02
  0
TEXT
  8
0
 62
7
 10
-2.67600562E+02
 20
1.57350000E+02
 40
6.30000019E+00
  1
MODEL:MS16*30
 41
1.00000015E+00
  7
MONOTXT
  0
TEXT
  8
0
 62
7
 10
-9.67578125E+01
 20
-7.57169733E+01
 40
4.50000000E+00
  1
(mm)
 41
1.00000000E+00
  7
MONOTXT
  0
TEXT
  8
0
 62
7
 10
-2.03757812E+02
 20
-7.66553618E+01
 40
4.50000000E+00
  1
STRETCH LIST
 41
1.05263158E+00
  7
MONOTXT
  0
LINE
  8
0
 62
7
 10
-2.76250000E+02
 20
-9.50000000E+01
 11
-7.82500000E+01
 21
-9.50000000E+01
  0
LINE
  8
0
 62
7
 10
-2.76250000E+02
 20
-8.70000000E+01
 11
-7.82500000E+01
 21
-8.70000000E+01
  0
LINE
  8
0
 62
7
 10
-2.76250000E+02
 20
-7.90000000E+01
 11
-7.82500000E+01
 21
-7.90000000E+01
  0
LINE
  8
0
 62
7
 10
-2.76250000E+02
 20
-9.50000000E+01
 11
-2.76250000E+02
 21
-7.90000000E+01
  0
LINE
  8
0
 62
7
 10
-2.40250000E+02
 20
-9.50000000E+01
 11
-2.40250000E+02
 21
-7.90000000E+01
  0
LINE
  8
0
 62
7
 10
-2.13250000E+02
 20
-9.50000000E+01
 11
-2.13250000E+02
 21
-7.90000000E+01
  0
LINE
  8
0
 62
7
 10
-1.86250000E+02
 20
-9.50000000E+01
 11
-1.86250000E+02
 21
-7.90000000E+01
  0
LINE
  8
0
 62
7
 10
-1.59250000E+02
 20
-9.50000000E+01
 11
-1.59250000E+02
 21
-7.90000000E+01
  0
LINE
  8
0
 62
7
 10
-1.32250000E+02
 20
-9.50000000E+01
 11
-1.32250000E+02
 21
-7.90000000E+01
  0
LINE
  8
0
 62
7
 10
-1.05250000E+02
 20
-9.50000000E+01
 11
-1.05250000E+02
 21
-7.90000000E+01
  0
LINE
  8
0
 62
7
 10
-7.82500000E+01
 20
-9.50000000E+01
 11
-7.82500000E+01
 21
-7.90000000E+01
  0
TEXT
  8
0
 62
7
 10
-2.71257812E+02
 20
-8.52500000E+01
 40
4.50000000E+00
  1
STROKE
 41
1.00000000E+00
  7
MONOTXT
  0
TEXT
  8
0
 62
7
 10
-2.03757812E+02
 20
-8.52500000E+01
 40
4.50000000E+00
  1
20
 41
1.00000000E+00
  7
MONOTXT
  0
TEXT
  8
0
 62
7
 10
-1.76757812E+02
 20
-8.52500000E+01
 40
4.50000000E+00
  1
30
 41
1.00000000E+00
  7
MONOTXT
  0
TEXT
  8
0
 62
7
 10
-2.73507812E+02
 20
-9.32500000E+01
 40
4.50000000E+00
  1
STRETCH
 41
1.00000000E+00
  7
MONOTXT
  0
TEXT
  8
0
 62
7
 10
-1.49757812E+02
 20
-8.52500000E+01
 40
4.50000000E+00
  1
40
 41
1.00000000E+00
  7
MONOTXT
  0
TEXT
  8
0
 62
7
 10
-1.22757812E+02
 20
-8.52500000E+01
 40
4.50000000E+00
  1
50
 41
1.00000000E+00
  7
MONOTXT
  0
TEXT
  8
0
 62
7
 10
-2.71257812E+02
 20
-8.52500000E+01
 40
4.50000000E+00
  1
STROKE
 41
1.00000000E+00
  7
MONOTXT
  0
TEXT
  8
0
 62
7
 10
-2.30757812E+02
 20
-8.52500000E+01
 40
4.50000000E+00
  1
10
 41
1.00000000E+00
  7
MONOTXT
  0
TEXT
  8
0
 62
7
 10
-2.33007812E+02
 20
-9.32500000E+01
 40
4.50000000E+00
  1
-20
 41
1.00000000E+00
  7
MONOTXT
  0
TEXT
  8
0
 62
7
 10
-2.73507812E+02
 20
-9.32500000E+01
 40
4.50000000E+00
  1
STRETCH
 41
1.00000000E+00
  7
MONOTXT
  0
TEXT
  8
0
 62
7
 10
-9.57578125E+01
 20
-8.52500000E+01
 40
4.50000000E+00
  1
60
 41
1.00000000E+00
  7
MONOTXT
  0
TEXT
  8
0
 62
7
 10
-2.06007812E+02
 20
-9.32500000E+01
 40
4.50000000E+00
  1
-10
 41
1.00000000E+00
  7
MONOTXT
  0
TEXT
  8
0
 62
7
 10
-1.74507812E+02
 20
-9.32500000E+01
 40
4.50000000E+00
  1
0
 41
1.00000000E+00
  7
MONOTXT
  0
TEXT
  8
0
 62
7
 10
-1.49757812E+02
 20
-9.32500000E+01
 40
4.50000000E+00
  1
10
 41
1.00000000E+00
  7
MONOTXT
  0
TEXT
  8
0
 62
7
 10
-1.22757812E+02
 20
-9.32500000E+01
 40
4.50000000E+00
  1
20
 41
1.00000000E+00
  7
MONOTXT
  0
TEXT
  8
0
 62
7
 10
-9.57578125E+01
 20
-9.32500000E+01
 40
4.50000000E+00
  1
30
 41
1.00000000E+00
  7
MONOTXT
  0
TEXT
  8
0
 62
7
 10
1.40743646E+01
 20
1.57350000E+02
 40
6.30000019E+00
  1
MODEL:MS16*30-L
 41
1.00000015E+00
  7
MONOTXT
  0
TEXT
  8
0
 62
7
 10
-5.39760595E-01
 20
-1.07250000E+02
 40
4.50000000E+00
  1
MODEL:ZE235,255,202,201
 41
1.00000000E+00
  7
MONOTXT
  0
TEXT
  8
0
 62
7
 10
-1.57214688E+02
 20
-1.07250000E+02
 40
4.50000000E+00
  1
MODEL:ZE135,155,102,101
 41
1.00000000E+00
  7
MONOTXT
  0
ENDSEC
  0
EOF
