  0
SECTION
  2
HEADER
  9
$ACADVER
  1
AC1015
  9
$ACADMAINTVER
 70
    20
  9
$DWGCODEPAGE
  3
ANSI_932
  9
$INSBASE
 10
0.0
 20
0.0
 30
0.0
  9
$EXTMIN
 10
-194.25
 20
-133.5
 30
0.0
  9
$EXTMAX
 10
195.0953083589897
 20
132.6000061035156
 30
0.0
  9
$LIMMIN
 10
-194.25
 20
-133.5
  9
$LIMMAX
 10
196.2723600854633
 20
132.6000061035156
  9
$ORTHOMODE
 70
     0
  9
$REGENMODE
 70
     1
  9
$FILLMODE
 70
     1
  9
$QTEXTMODE
 70
     0
  9
$MIRRTEXT
 70
     1
  9
$LTSCALE
 40
1.0
  9
$ATTMODE
 70
     1
  9
$TEXTSIZE
 40
3.200000047683714
  9
$TRACEWID
 40
0.05
  9
$TEXTSTYLE
  7
MX_NOTE_STANDARD
  9
$CLAYER
  8
0
  9
$CELTYPE
  6
CONTINUOUS
  9
$CECOLOR
 62
   256
  9
$CELTSCALE
 40
1.0
  9
$DISPSILH
 70
     0
  9
$DIMSCALE
 40
1.0
  9
$DIMASZ
 40
2.5
  9
$DIMEXO
 40
1.5
  9
$DIMDLI
 40
3.75
  9
$DIMRND
 40
0.0
  9
$DIMDLE
 40
0.0
  9
$DIMEXE
 40
1.5
  9
$DIMTP
 40
0.0
  9
$DIMTM
 40
0.0
  9
$DIMTXT
 40
3.200000047683714
  9
$DIMCEN
 40
2.5
  9
$DIMTSZ
 40
0.0
  9
$DIMTOL
 70
     0
  9
$DIMLIM
 70
     0
  9
$DIMTIH
 70
     0
  9
$DIMTOH
 70
     0
  9
$DIMSE1
 70
     0
  9
$DIMSE2
 70
     0
  9
$DIMTAD
 70
     1
  9
$DIMZIN
 70
     8
  9
$DIMBLK
  1

  9
$DIMASO
 70
     1
  9
$DIMSHO
 70
     1
  9
$DIMPOST
  1

  9
$DIMAPOST
  1

  9
$DIMALT
 70
     0
  9
$DIMALTD
 70
     4
  9
$DIMALTF
 40
0.03937007874016
  9
$DIMLFAC
 40
1.0
  9
$DIMTOFL
 70
     1
  9
$DIMTVP
 40
0.0
  9
$DIMTIX
 70
     0
  9
$DIMSOXD
 70
     0
  9
$DIMSAH
 70
     0
  9
$DIMBLK1
  1

  9
$DIMBLK2
  1

  9
$DIMSTYLE
  2
MXDIMSTYLE
  9
$DIMCLRD
 70
     0
  9
$DIMCLRE
 70
     0
  9
$DIMCLRT
 70
     0
  9
$DIMTFAC
 40
1.0
  9
$DIMGAP
 40
1.0
  9
$DIMJUST
 70
     0
  9
$DIMSD1
 70
     0
  9
$DIMSD2
 70
     0
  9
$DIMTOLJ
 70
     1
  9
$DIMTZIN
 70
     0
  9
$DIMALTZ
 70
     0
  9
$DIMALTTZ
 70
     0
  9
$DIMUPT
 70
     1
  9
$DIMDEC
 70
     4
  9
$DIMTDEC
 70
     4
  9
$DIMALTU
 70
     2
  9
$DIMALTTD
 70
     4
  9
$DIMTXSTY
  7
MX_NOTE_STANDARD
  9
$DIMAUNIT
 70
     0
  9
$DIMADEC
 70
     0
  9
$DIMALTRND
 40
0.0
  9
$DIMAZIN
 70
     0
  9
$DIMDSEP
 70
    46
  9
$DIMATFIT
 70
     3
  9
$DIMFRAC
 70
     0
  9
$DIMLDRBLK
  1

  9
$DIMLUNIT
 70
     2
  9
$DIMLWD
 70
    -2
  9
$DIMLWE
 70
    -2
  9
$DIMTMOVE
 70
     0
  9
$LUNITS
 70
     2
  9
$LUPREC
 70
     4
  9
$SKETCHINC
 40
0.1
  9
$FILLETRAD
 40
0.0
  9
$AUNITS
 70
     0
  9
$AUPREC
 70
     0
  9
$MENU
  1
acad
  9
$ELEVATION
 40
0.0
  9
$PELEVATION
 40
0.0
  9
$THICKNESS
 40
0.0
  9
$LIMCHECK
 70
     0
  9
$CHAMFERA
 40
0.0
  9
$CHAMFERB
 40
0.0
  9
$CHAMFERC
 40
0.0
  9
$CHAMFERD
 40
0.0
  9
$SKPOLY
 70
     0
  9
$TDCREATE
 40
2453378.356365741
  9
$TDUCREATE
 40
2453377.981365741
  9
$TDUPDATE
 40
2454495.671605440
  9
$TDUUPDATE
 40
2454495.296605440
  9
$TDINDWG
 40
0.0872183218
  9
$TDUSRTIMER
 40
0.0871834259
  9
$USRTIMER
 70
     1
  9
$ANGBASE
 50
0.0
  9
$ANGDIR
 70
     0
  9
$PDMODE
 70
     0
  9
$PDSIZE
 40
0.0
  9
$PLINEWID
 40
0.0
  9
$SPLFRAME
 70
     0
  9
$SPLINETYPE
 70
     6
  9
$SPLINESEGS
 70
     8
  9
$HANDSEED
  5
58A
  9
$SURFTAB1
 70
     6
  9
$SURFTAB2
 70
     6
  9
$SURFTYPE
 70
     6
  9
$SURFU
 70
     6
  9
$SURFV
 70
     6
  9
$UCSBASE
  2

  9
$UCSNAME
  2

  9
$UCSORG
 10
0.0
 20
0.0
 30
0.0
  9
$UCSXDIR
 10
1.0
 20
0.0
 30
0.0
  9
$UCSYDIR
 10
0.0
 20
1.0
 30
0.0
  9
$UCSORTHOREF
  2

  9
$UCSORTHOVIEW
 70
     0
  9
$UCSORGTOP
 10
0.0
 20
0.0
 30
0.0
  9
$UCSORGBOTTOM
 10
0.0
 20
0.0
 30
0.0
  9
$UCSORGLEFT
 10
0.0
 20
0.0
 30
0.0
  9
$UCSORGRIGHT
 10
0.0
 20
0.0
 30
0.0
  9
$UCSORGFRONT
 10
0.0
 20
0.0
 30
0.0
  9
$UCSORGBACK
 10
0.0
 20
0.0
 30
0.0
  9
$PUCSBASE
  2

  9
$PUCSNAME
  2

  9
$PUCSORG
 10
0.0
 20
0.0
 30
0.0
  9
$PUCSXDIR
 10
1.0
 20
0.0
 30
0.0
  9
$PUCSYDIR
 10
0.0
 20
1.0
 30
0.0
  9
$PUCSORTHOREF
  2

  9
$PUCSORTHOVIEW
 70
     0
  9
$PUCSORGTOP
 10
0.0
 20
0.0
 30
0.0
  9
$PUCSORGBOTTOM
 10
0.0
 20
0.0
 30
0.0
  9
$PUCSORGLEFT
 10
0.0
 20
0.0
 30
0.0
  9
$PUCSORGRIGHT
 10
0.0
 20
0.0
 30
0.0
  9
$PUCSORGFRONT
 10
0.0
 20
0.0
 30
0.0
  9
$PUCSORGBACK
 10
0.0
 20
0.0
 30
0.0
  9
$USERI1
 70
     0
  9
$USERI2
 70
     0
  9
$USERI3
 70
     0
  9
$USERI4
 70
     0
  9
$USERI5
 70
     0
  9
$USERR1
 40
0.0
  9
$USERR2
 40
0.0
  9
$USERR3
 40
0.0
  9
$USERR4
 40
0.0
  9
$USERR5
 40
0.0
  9
$WORLDVIEW
 70
     1
  9
$SHADEDGE
 70
     3
  9
$SHADEDIF
 70
    70
  9
$TILEMODE
 70
     1
  9
$MAXACTVP
 70
    16
  9
$PINSBASE
 10
0.0
 20
0.0
 30
0.0
  9
$PLIMCHECK
 70
     0
  9
$PEXTMIN
 10
1.000000000000000E+20
 20
1.000000000000000E+20
 30
1.000000000000000E+20
  9
$PEXTMAX
 10
-1.000000000000000E+20
 20
-1.000000000000000E+20
 30
-1.000000000000000E+20
  9
$PLIMMIN
 10
0.0
 20
0.0
  9
$PLIMMAX
 10
12.0
 20
9.0
  9
$UNITMODE
 70
     0
  9
$VISRETAIN
 70
     0
  9
$PLINEGEN
 70
     1
  9
$PSLTSCALE
 70
     0
  9
$TREEDEPTH
 70
  3020
  9
$CMLSTYLE
  2
STANDARD
  9
$CMLJUST
 70
     0
  9
$CMLSCALE
 40
1.0
  9
$PROXYGRAPHICS
 70
     1
  9
$MEASUREMENT
 70
     0
  9
$CELWEIGHT
370
    -1
  9
$ENDCAPS
280
     0
  9
$JOINSTYLE
280
     0
  9
$LWDISPLAY
290
     0
  9
$INSUNITS
 70
     0
  9
$HYPERLINKBASE
  1

  9
$STYLESHEET
  1

  9
$XEDIT
290
     1
  9
$CEPSNTYPE
380
     0
  9
$PSTYLEMODE
290
     1
  9
$FINGERPRINTGUID
  2
{E123B51B-88E6-4F4C-AC39-D72CB11278B2}
  9
$VERSIONGUID
  2
{02EAF61A-3E67-454A-A65B-51B525F273C9}
  9
$EXTNAMES
290
     1
  9
$PSVPSCALE
 40
0.0
  9
$OLESTARTUP
290
     0
  0
ENDSEC
  0
SECTION
  2
CLASSES
  0
CLASS
  1
IMAGE
  2
AcDbRasterImage
  3
ISM
 90
    32895
280
     0
281
     1
  0
CLASS
  1
DICTIONARYVAR
  2
AcDbDictionaryVar
  3
ObjectDBX Classes
 90
        0
280
     0
281
     0
  0
CLASS
  1
RASTERVARIABLES
  2
AcDbRasterVariables
  3
ISM
 90
    32768
280
     0
281
     0
  0
CLASS
  1
IMAGEDEF
  2
AcDbRasterImageDef
  3
ISM
 90
    32768
280
     0
281
     0
  0
CLASS
  1
IMAGEDEF_REACTOR
  2
AcDbRasterImageDefReactor
  3
ISM
 90
    32769
280
     0
281
     0
  0
CLASS
  1
IDBUFFER
  2
AcDbIdBuffer
  3
ObjectDBX Classes
 90
    32768
280
     0
281
     0
  0
CLASS
  1
SPATIAL_FILTER
  2
AcDbSpatialFilter
  3
ObjectDBX Classes
 90
    32768
280
     0
281
     0
  0
CLASS
  1
SORTENTSTABLE
  2
AcDbSortentsTable
  3
ObjectDBX Classes
 90
        0
280
     0
281
     0
  0
CLASS
  1
LAYER_INDEX
  2
AcDbLayerIndex
  3
ObjectDBX Classes
 90
    32768
280
     0
281
     0
  0
CLASS
  1
SPATIAL_INDEX
  2
AcDbSpatialIndex
  3
ObjectDBX Classes
 90
    32768
280
     0
281
     0
  0
CLASS
  1
OBJECT_PTR
  2
CAseDLPNTableRecord
  3
"ASE-LPNTableRecord"
 90
    32768
280
     0
281
     0
  0
CLASS
  1
LAYOUT
  2
AcDbLayout
  3
ObjectDBX Classes
 90
        0
280
     0
281
     0
  0
CLASS
  1
PLOTSETTINGS
  2
AcDbPlotSettings
  3
ObjectDBX Classes
 90
    32768
280
     0
281
     0
  0
CLASS
  1
ACDBDICTIONARYWDFLT
  2
AcDbDictionaryWithDefault
  3
ObjectDBX Classes
 90
        0
280
     0
281
     0
  0
CLASS
  1
ACDBPLACEHOLDER
  2
AcDbPlaceHolder
  3
ObjectDBX Classes
 90
        0
280
     0
281
     0
  0
CLASS
  1
TABLESTYLE
  2
AcDbTableStyle
  3
ObjectDBX Classes
 90
     2047
280
     0
281
     0
  0
ENDSEC
  0
SECTION
  2
TABLES
  0
TABLE
  2
VPORT
  5
7
330
0
100
AcDbSymbolTable
 70
     3
  0
VPORT
  5
583
330
7
100
AcDbSymbolTableRecord
100
AcDbViewportTableRecord
  2
*Active
 70
     0
 10
0.0
 20
0.0
 11
1.0
 21
1.0
 12
44.05526518118756
 22
-56.79984225666155
 13
0.0
 23
0.0
 14
1.0
 24
1.0
 15
0.0
 25
0.0
 16
0.0
 26
0.0
 36
1.0
 17
0.0
 27
0.0
 37
0.0
 40
393.5728226369629
 41
1.540229885057471
 42
50.0
 43
0.0
 44
0.0
 50
0.0
 51
0.0
 71
     0
 72
   100
 73
     1
 74
     1
 75
     0
 76
     0
 77
     0
 78
     0
281
     0
 65
     1
110
0.0
120
0.0
130
0.0
111
1.0
121
0.0
131
0.0
112
0.0
122
1.0
132
0.0
 79
     0
146
0.0
  0
ENDTAB
  0
TABLE
  2
LTYPE
  5
4
330
0
100
AcDbSymbolTable
 70
     4
  0
LTYPE
  5
11
330
4
100
AcDbSymbolTableRecord
100
AcDbLinetypeTableRecord
  2
BYBLOCK
 70
     0
  3

 72
    65
 73
     0
 40
0.0
  0
LTYPE
  5
12
330
4
100
AcDbSymbolTableRecord
100
AcDbLinetypeTableRecord
  2
BYLAYER
 70
     0
  3

 72
    65
 73
     0
 40
0.0
  0
LTYPE
  5
13
330
4
100
AcDbSymbolTableRecord
100
AcDbLinetypeTableRecord
  2
CONTINUOUS
 70
     0
  3
Solid line
 72
    65
 73
     0
 40
0.0
  0
LTYPE
  5
23
330
4
100
AcDbSymbolTableRecord
100
AcDbLinetypeTableRecord
  2
CENTER
 70
     0
  3
Center ____ _ ____ _ ____ _ ____ _ ____ _ ____
 72
    65
 73
     4
 40
26.0
 49
20.0
 74
     0
 49
-2.0
 74
     0
 49
2.0
 74
     0
 49
-2.0
 74
     0
  0
LTYPE
  5
33
330
4
100
AcDbSymbolTableRecord
100
AcDbLinetypeTableRecord
  2
DASHED
 70
     0
  3
Dashed __ __ __ __ __ __ __ __ __ __ __ __ __ _
 72
    65
 73
     2
 40
4.0
 49
2.0
 74
     0
 49
-2.0
 74
     0
  0
ENDTAB
  0
TABLE
  2
LAYER
  5
2
330
0
100
AcDbSymbolTable
 70
     2
  0
LAYER
  5
14
330
2
100
AcDbSymbolTableRecord
100
AcDbLayerTableRecord
  2
0
 70
     0
 62
     7
  6
CONTINUOUS
370
    -3
390
247
  0
LAYER
  5
1D
330
2
100
AcDbSymbolTableRecord
100
AcDbLayerTableRecord
  2
DEFPOINTS
 70
     0
 62
     7
  6
CONTINUOUS
290
     0
370
    -3
390
247
  0
ENDTAB
  0
TABLE
  2
STYLE
  5
3
330
0
100
AcDbSymbolTable
 70
     2
  0
STYLE
  5
17
330
3
100
AcDbSymbolTableRecord
100
AcDbTextStyleTableRecord
  2
MX_NOTE_STANDARD
 70
     0
 40
0.0
 41
1.0
 50
0.0
 71
     0
 42
3.200000047683714
  3
txt.shx
  4
extfont.shx
  0
STYLE
  5
245
330
3
100
AcDbSymbolTableRecord
100
AcDbTextStyleTableRecord
  2
Standard
 70
     0
 40
0.0
 41
1.0
 50
0.0
 71
     0
 42
0.2
  3

  4

  0
ENDTAB
  0
TABLE
  2
VIEW
  5
5
330
0
100
AcDbSymbolTable
 70
     0
  0
ENDTAB
  0
TABLE
  2
UCS
  5
6
330
0
100
AcDbSymbolTable
 70
     0
  0
ENDTAB
  0
TABLE
  2
APPID
  5
8
330
0
100
AcDbSymbolTable
 70
     3
  0
APPID
  5
16
330
8
100
AcDbSymbolTableRecord
100
AcDbRegAppTableRecord
  2
ACAD
 70
     0
  0
APPID
  5
2EA
330
8
100
AcDbSymbolTableRecord
100
AcDbRegAppTableRecord
  2
ACAD_EXEMPT_FROM_CAD_STANDARDS
 70
     0
  0
APPID
  5
582
330
8
100
AcDbSymbolTableRecord
100
AcDbRegAppTableRecord
  2
ACAD_PSEXT
 70
     0
  0
ENDTAB
  0
TABLE
  2
DIMSTYLE
  5
9
330
0
100
AcDbSymbolTable
 70
     1
100
AcDbDimStyleTable
 71
     1
340
18
  0
DIMSTYLE
105
18
330
9
100
AcDbSymbolTableRecord
100
AcDbDimStyleTableRecord
  2
MXDIMSTYLE
 70
     0
 41
2.5
 42
1.5
 43
3.75
 44
1.5
 73
     0
 74
     0
 77
     1
 78
     8
140
3.200000047683714
141
2.5
143
0.03937007874016
147
1.0
171
     4
172
     1
274
     4
288
     1
340
17
  0
ENDTAB
  0
TABLE
  2
BLOCK_RECORD
  5
1
330
0
100
AcDbSymbolTable
 70
     8
  0
BLOCK_RECORD
  5
A
102
{ACAD_XDICTIONARY
360
2E4
102
}
330
1
100
AcDbSymbolTableRecord
100
AcDbBlockTableRecord
  2
*MODEL_SPACE
340
24E
  0
BLOCK_RECORD
  5
B
330
1
100
AcDbSymbolTableRecord
100
AcDbBlockTableRecord
  2
*PAPER_SPACE
340
24F
  0
BLOCK_RECORD
  5
21
330
1
100
AcDbSymbolTableRecord
100
AcDbBlockTableRecord
  2
EWHA12-4
340
0
102
{BLKREFS
331
57F
102
}
  0
BLOCK_RECORD
  5
42A
330
1
100
AcDbSymbolTableRecord
100
AcDbBlockTableRecord
  2
EWHA12A-1
340
0
310
2800000020000000200000000100080000000000000400000000000000000000000000000000000000000000000080000080000000808000800000008000800080800000C0C0C000C0DCC000F0CAA6000020400000206000002080000020A0000020C0000020E00000400000004020000040400000406000004080000040A0
310
000040C0000040E00000600000006020000060400000606000006080000060A0000060C0000060E00000800000008020000080400000806000008080000080A0000080C0000080E00000A0000000A0200000A0400000A0600000A0800000A0A00000A0C00000A0E00000C0000000C0200000C0400000C0600000C0800000C0
310
A00000C0C00000C0E00000E0000000E0200000E0400000E0600000E0800000E0A00000E0C00000E0E00040000000400020004000400040006000400080004000A0004000C0004000E00040200000402020004020400040206000402080004020A0004020C0004020E000404000004040200040404000404060004040800040
310
40A0004040C0004040E00040600000406020004060400040606000406080004060A0004060C0004060E00040800000408020004080400040806000408080004080A0004080C0004080E00040A0000040A0200040A0400040A0600040A0800040A0A00040A0C00040A0E00040C0000040C0200040C0400040C0600040C08000
310
40C0A00040C0C00040C0E00040E0000040E0200040E0400040E0600040E0800040E0A00040E0C00040E0E00080000000800020008000400080006000800080008000A0008000C0008000E00080200000802020008020400080206000802080008020A0008020C0008020E00080400000804020008040400080406000804080
310
008040A0008040C0008040E00080600000806020008060400080606000806080008060A0008060C0008060E00080800000808020008080400080806000808080008080A0008080C0008080E00080A0000080A0200080A0400080A0600080A0800080A0A00080A0C00080A0E00080C0000080C0200080C0400080C0600080C0
310
800080C0A00080C0C00080C0E00080E0000080E0200080E0400080E0600080E0800080E0A00080E0C00080E0E000C0000000C0002000C0004000C0006000C0008000C000A000C000C000C000E000C0200000C0202000C0204000C0206000C0208000C020A000C020C000C020E000C0400000C0402000C0404000C0406000C0
310
408000C040A000C040C000C040E000C0600000C0602000C0604000C0606000C0608000C060A000C060C000C060E000C0800000C0802000C0804000C0806000C0808000C080A000C080C000C080E000C0A00000C0A02000C0A04000C0A06000C0A08000C0A0A000C0A0C000C0A0E000C0C00000C0C02000C0C04000C0C06000
310
C0C08000C0C0A000F0FBFF00A4A0A000808080000000FF0000FF000000FFFF00FF000000FF00FF00FFFF0000FFFFFF00FFFFFFFFFFFFFFFFFFFFFFFFFFFFFFFFFFFFFFFFFFFFFFFFFFFFFFFFFFFFFFFFFFFFFFFFFFFFFFFFFFFFFFFFFFFFFFFFFF00FFFFFFFFFFFFFFFFFFFFFFFFFFFFFFFFFFFFFFFFFFFF00000000000000
310
00000000000000000000FFFFFFFFFFFFFFFFFFFFFFFFFFFFFF000000000000FFFFFFFFFFFFFFFF000000FFFFFFFFFFFFFFFFFFFFFFFFFFFFFF00FFFFFFFF00000000000000000000FF00FFFFFFFFFFFFFFFFFFFFFFFFFFFFFF00FFFFFFFF00000000000000000000FF00FFFFFFFFFFFFFFFFFFFFFFFFFFFFFB00FBFFFFFF00
310
FFFFFFFFFFFFFFFFFFFF00FFFFFFFFFFFFFFFFFFFFFFFFFFFFFF00FBFFFFFF00FFFFFFFFFFFFFFFFFFFF00FFFFFFFFFFFFFFFFFFFFFFFFFFFFFF00FFFFFFFF00FFFFFFFFFFFFFFFFFFFF00FFFFFFFFFFFFFFFFFFFFFFFFFFFFFF00FFFFFFFF00FFFFFFFFFFFFFFFFFFFF00FFFFFFFFFFFFFFFFFFFFFFFFFFFFFF00FFFFFFFF
310
00FFFFFFFFFFFFFFFFFFFB00FFFFFFFFFFFFFFFFFFFFFFFFFFFFFF00FFFFFFFB00FBFBFFFFFFFFFFFBFFFB00FFFFFFFFFFFFFFFFFFFFFFFFFFFFFB00FBFBFBFB00FBFBFBFBFBFBFBFBFBFBFBFFFFFFFFFFFFFFFFFFFFFFFFFFFFFF00FFFFFFFB00FBFBFFFFFFFFFFFBFFFB00FFFFFFFFFFFFFFFFFFFFFFFFFFFFFF00FFFFFF
310
FF00FFFFFFFFFFFFFFFFFFFB00FFFFFFFFFFFFFFFFFFFFFFFFFFFFFF00FFFFFFFF00FFFFFFFFFFFFFFFFFFFF00FFFFFFFFFFFFFFFFFFFFFFFFFFFFFF00FFFFFFFF00FFFFFFFFFFFFFFFFFFFF00FFFFFFFFFFFFFFFFFFFFFFFFFFFFFFFBFBFFFFFF00FFFFFFFFFFFFFFFFFFFF00FFFFFFFFFFFFFFFFFFFFFFFFFFFFFBFBFBFF
310
FFFF00FFFFFFFFFFFFFFFFFFFF00FFFFFFFFFFFFFFFFFFFFFFFFFFFFFF00FFFFFFFF00000000000000000000FF00FFFFFFFFFFFFFFFFFFFFFFFFFFFFFF00FFFFFFFF00000000000000000000FF00FFFFFFFFFFFFFFFFFFFFFFFFFFFFFF000000000000FFFFFFFFFFFFFFFB000000FFFFFFFFFFFFFFFFFFFFFFFFFFFFFF0000
310
0000000000000000000000FB000000FFFFFFFFFFFFFFFFFFFFFFFFFFFFFFFFFFFFFFFFFFFFFFFF00FF0000FB0000FFFFFFFFFFFFFFFFFFFFFFFFFFFFFFFFFFFFFFFFFFFFFFFFFFFFFFFF00FB00FFFFFFFFFFFFFFFFFFFFFFFFFFFFFFFFFFFFFFFFFFFFFFFFFFFFFFFFFF00FB00FFFFFFFFFFFFFFFFFFFFFFFFFFFFFFFFFFFF
310
FFFFFFFFFFFFFFFFFFFFFF00FB00FFFFFFFFFFFFFFFFFFFFFFFFFFFFFFFFFFFFFFFFFFFFFFFFFFFFFFFFFF00FB00FFFFFFFFFFFFFFFFFFFFFFFFFFFFFFFFFFFFFFFFFFFFFFFFFFFFFFFFFBFBFB00FFFFFFFFFFFFFFFFFFFFFFFFFFFFFFFFFFFFFFFFFFFFFFFFFFFFFFFFFFFFFBFBFFFFFFFFFFFFFFFFFFFFFFFFFFFFFFFFFF
310
FFFFFFFFFFFFFFFFFFFFFFFFFFFBFFFFFFFFFFFFFFFFFFFFFFFFFFFFFFFFFFFFFFFFFFFFFFFFFFFFFFFFFFFFFFFFFFFFFFFFFFFFFFFFFFFF
102
{BLKREFS
331
486
102
}
  0
BLOCK_RECORD
  5
487
330
1
100
AcDbSymbolTableRecord
100
AcDbBlockTableRecord
  2
EWHA12A-2
340
0
310
2800000020000000200000000100080000000000000400000000000000000000000000000000000000000000000080000080000000808000800000008000800080800000C0C0C000C0DCC000F0CAA6000020400000206000002080000020A0000020C0000020E00000400000004020000040400000406000004080000040A0
310
000040C0000040E00000600000006020000060400000606000006080000060A0000060C0000060E00000800000008020000080400000806000008080000080A0000080C0000080E00000A0000000A0200000A0400000A0600000A0800000A0A00000A0C00000A0E00000C0000000C0200000C0400000C0600000C0800000C0
310
A00000C0C00000C0E00000E0000000E0200000E0400000E0600000E0800000E0A00000E0C00000E0E00040000000400020004000400040006000400080004000A0004000C0004000E00040200000402020004020400040206000402080004020A0004020C0004020E000404000004040200040404000404060004040800040
310
40A0004040C0004040E00040600000406020004060400040606000406080004060A0004060C0004060E00040800000408020004080400040806000408080004080A0004080C0004080E00040A0000040A0200040A0400040A0600040A0800040A0A00040A0C00040A0E00040C0000040C0200040C0400040C0600040C08000
310
40C0A00040C0C00040C0E00040E0000040E0200040E0400040E0600040E0800040E0A00040E0C00040E0E00080000000800020008000400080006000800080008000A0008000C0008000E00080200000802020008020400080206000802080008020A0008020C0008020E00080400000804020008040400080406000804080
310
008040A0008040C0008040E00080600000806020008060400080606000806080008060A0008060C0008060E00080800000808020008080400080806000808080008080A0008080C0008080E00080A0000080A0200080A0400080A0600080A0800080A0A00080A0C00080A0E00080C0000080C0200080C0400080C0600080C0
310
800080C0A00080C0C00080C0E00080E0000080E0200080E0400080E0600080E0800080E0A00080E0C00080E0E000C0000000C0002000C0004000C0006000C0008000C000A000C000C000C000E000C0200000C0202000C0204000C0206000C0208000C020A000C020C000C020E000C0400000C0402000C0404000C0406000C0
310
408000C040A000C040C000C040E000C0600000C0602000C0604000C0606000C0608000C060A000C060C000C060E000C0800000C0802000C0804000C0806000C0808000C080A000C080C000C080E000C0A00000C0A02000C0A04000C0A06000C0A08000C0A0A000C0A0C000C0A0E000C0C00000C0C02000C0C04000C0C06000
310
C0C08000C0C0A000F0FBFF00A4A0A000808080000000FF0000FF000000FFFF00FF000000FF00FF00FFFF0000FFFFFF00FFFFFFFFFFFFFFFFFFFFFFFFFFFFFFFFFFFFFFFFFFFFFFFFFFFFFFFFFFFFFFFFFFFFFFFFFFFFFFFFFFFFFFFFFFFFFFFFFBFFFFFFFFFFFFFFFFFFFFFFFFFFFFFFFFFFFFFFFFFFFFFFFFFFFFFFFFFFFF
310
00FBFFFFFFFFFFFFFFFFFFFFFFFFFFFFFFFFFFFFFFFFFFFFFFFFFFFF0000000000FB0000000000FFFFFFFFFFFFFFFFFFFFFFFFFFFFFFFFFFFFFF00000000000000FB000000FF0000FFFFFFFFFFFFFFFFFFFFFFFFFFFFFFFFFFFF0000FF00FFFFFFFBFFFF00FF0000FFFFFFFFFFFFFFFFFFFFFFFFFFFFFFFFFFFF0000FF00FF
310
FFFFFBFFFF00FF0000FFFFFFFFFFFFFFFFFFFFFFFFFFFFFFFFFFFF0000FF00FBFB0000FBFB00FF0000FFFFFFFFFFFFFFFFFFFFFFFFFFFFFFFFFFFF0000FF00FBFFFFFBFFFB00FF0000FFFFFFFFFFFFFFFFFFFFFFFFFFFFFFFFFFFF0000FF00FFFFFFFBFFFF00FF0000FFFFFFFFFFFFFFFFFFFFFFFFFFFFFFFFFFFF0000FF00
310
000000FB000000FF0000FFFFFFFFFFFFFFFFFFFFFFFFFFFFFFFFFFFF0000FF00000000FB000000FF0000FFFFFFFFFFFFFFFFFFFFFFFFFFFFFFFFFFFF0000FF00FF00FFFB00FF00FF0000FFFFFFFFFFFFFFFFFFFFFFFFFFFFFFFFFFFF0000FF00FF00FFFB000000FF0000FFFFFFFFFFFFFFFFFFFFFFFFFFFFFFFFFFFBFBFBFB
310
FBFBFBFBFBFBFBFBFBFBFBFBFFFFFFFFFFFFFFFFFFFFFFFFFFFFFFFFFF0000FF00FF00FFFB00FF00FF0000FFFFFFFFFFFFFFFFFFFFFFFFFFFFFFFFFFFF0000FF00FF00FFFB00FF00FF0000FFFFFFFFFFFFFFFFFFFFFFFFFFFFFFFFFFFF0000FF00000000FB000000FF0000FFFFFFFFFFFFFFFFFFFFFFFFFFFFFFFFFFFF0000
310
FF00FFFFFFFBFFFF00FF0000FFFFFFFFFFFFFFFFFFFFFFFFFFFFFFFFFFFF0000FF00FBFFFFFBFFFB00FF0000FFFFFFFFFFFFFFFFFFFFFFFFFFFFFFFFFFFF0000FF0000FB0000FBFBFBFF0000FFFFFFFFFFFFFFFFFFFFFFFFFFFFFFFFFFFF0000FF00FBFFFFFBFFFB00FF0000FFFFFFFFFFFFFFFFFFFFFFFFFFFFFFFFFFFF00
310
00FF00FFFFFFFBFFFF00FF0000FFFFFFFFFFFFFFFFFFFFFFFFFFFFFFFFFFFF0000FF00000000FB000000FF0000FFFFFFFFFFFFFFFFFFFFFFFFFFFFFFFFFFFF00FF0000000000FB000000000000FFFFFFFFFFFFFFFFFFFFFFFFFFFFFFFFFFFFFF000000000000FB0000000000FFFFFFFFFFFFFFFFFFFFFFFFFFFFFFFFFFFFFF
310
FFFFFFFFFF0000FB0000FFFFFFFFFFFFFFFFFFFFFFFFFFFFFFFFFFFFFFFFFFFFFFFFFFFFFFFF00FB00FFFFFFFFFFFFFFFFFFFFFFFFFFFFFFFFFFFFFFFFFFFFFFFFFFFFFFFFFF00FBFBFFFFFFFFFFFFFFFFFFFFFFFFFFFFFFFFFFFFFFFFFFFFFFFFFFFFFFFFFBFBFBFFFFFFFFFFFFFFFFFFFFFFFFFFFFFFFFFFFFFFFFFFFFFF
310
FFFFFFFFFFFFFFFFFBFFFFFFFFFFFFFFFFFFFFFFFFFFFFFFFFFFFFFFFFFFFFFFFFFFFFFFFFFFFFFFFFFFFFFFFFFFFFFFFFFFFFFFFFFFFFFF
102
{BLKREFS
331
51D
102
}
  0
BLOCK_RECORD
  5
51E
330
1
100
AcDbSymbolTableRecord
100
AcDbBlockTableRecord
  2
EWHA12A-3
340
0
310
2800000020000000200000000100080000000000000400000000000000000000000000000000000000000000000080000080000000808000800000008000800080800000C0C0C000C0DCC000F0CAA6000020400000206000002080000020A0000020C0000020E00000400000004020000040400000406000004080000040A0
310
000040C0000040E00000600000006020000060400000606000006080000060A0000060C0000060E00000800000008020000080400000806000008080000080A0000080C0000080E00000A0000000A0200000A0400000A0600000A0800000A0A00000A0C00000A0E00000C0000000C0200000C0400000C0600000C0800000C0
310
A00000C0C00000C0E00000E0000000E0200000E0400000E0600000E0800000E0A00000E0C00000E0E00040000000400020004000400040006000400080004000A0004000C0004000E00040200000402020004020400040206000402080004020A0004020C0004020E000404000004040200040404000404060004040800040
310
40A0004040C0004040E00040600000406020004060400040606000406080004060A0004060C0004060E00040800000408020004080400040806000408080004080A0004080C0004080E00040A0000040A0200040A0400040A0600040A0800040A0A00040A0C00040A0E00040C0000040C0200040C0400040C0600040C08000
310
40C0A00040C0C00040C0E00040E0000040E0200040E0400040E0600040E0800040E0A00040E0C00040E0E00080000000800020008000400080006000800080008000A0008000C0008000E00080200000802020008020400080206000802080008020A0008020C0008020E00080400000804020008040400080406000804080
310
008040A0008040C0008040E00080600000806020008060400080606000806080008060A0008060C0008060E00080800000808020008080400080806000808080008080A0008080C0008080E00080A0000080A0200080A0400080A0600080A0800080A0A00080A0C00080A0E00080C0000080C0200080C0400080C0600080C0
310
800080C0A00080C0C00080C0E00080E0000080E0200080E0400080E0600080E0800080E0A00080E0C00080E0E000C0000000C0002000C0004000C0006000C0008000C000A000C000C000C000E000C0200000C0202000C0204000C0206000C0208000C020A000C020C000C020E000C0400000C0402000C0404000C0406000C0
310
408000C040A000C040C000C040E000C0600000C0602000C0604000C0606000C0608000C060A000C060C000C060E000C0800000C0802000C0804000C0806000C0808000C080A000C080C000C080E000C0A00000C0A02000C0A04000C0A06000C0A08000C0A0A000C0A0C000C0A0E000C0C00000C0C02000C0C04000C0C06000
310
C0C08000C0C0A000F0FBFF00A4A0A000808080000000FF0000FF000000FFFF00FF000000FF00FF00FFFF0000FFFFFF00FFFFFFFFFFFFFFFFFFFFFFFFFFFFFFFFFFFFFFFFFFFFFFFFFFFFFFFFFFFFFFFFFFFFFFFFFFFFFFFFFFFFFFFFFFFFFFFBFFFFFFFFFFFFFFFFFFFFFFFFFFFFFFFFFFFFFFFFFFFFFFFFFFFFFFFFFFFFFF
310
FBFFFFFFFFFFFFFFFFFFFFFFFFFFFFFFFFFFFFFFFFFFFFFFFFFFFFFFFFFFFFFFFBFFFFFFFFFFFFFFFFFFFFFFFFFFFFFFFFFFFFFFFFFFFFFFFFFFFFFF00FB0000000000000000FFFFFFFFFFFFFFFFFFFFFFFFFFFFFFFFFFFFFFFF000000FBFBFBFBFBFB0000FB00FFFFFFFFFFFFFFFFFFFFFFFFFFFFFFFFFFFFFF00FB00FB00
310
FFFBFFFF000000FBFFFFFFFFFFFFFFFFFFFFFFFFFFFFFFFFFFFFFFFBFB0000FFFFFBFFFFFF00FBFBFFFFFFFFFFFFFFFFFFFFFFFFFFFFFFFFFFFFFF0000FFFFFFFFFBFFFFFFFF0000FFFFFFFFFFFFFFFFFFFFFFFFFFFFFFFFFFFFFF0000FFFFFFFFFBFFFFFFFFFF00FFFFFFFFFFFFFFFFFFFFFFFFFFFFFFFFFFFFFF0000FFFF
310
FFFFFBFFFFFFFFFF00FFFFFFFFFFFFFFFFFFFFFFFFFFFFFFFFFFFFFF0000FFFFFFFFFBFFFFFFFFFF00FFFFFFFFFFFFFFFFFFFFFFFFFFFFFFFFFFFFFF0000FFFFFFFFFBFFFFFFFFFF00FFFFFFFFFFFFFFFFFFFFFFFFFFFFFFFFFFFFFF0000FFFFFFFFFBFFFFFFFFFF00FFFFFFFFFFFFFFFFFFFFFFFFFFFFFFFFFFFFFF0000FB
310
FFFFFFFBFFFFFFFF0000FFFFFFFFFFFFFFFFFFFFFFFFFFFFFFFFFFFFFF000000FBFBFBFBFBFBFBFB0000FBFFFFFFFFFFFFFFFFFFFFFFFFFFFFFFFFFFFF0000FBFFFFFFFBFFFFFFFFFB00FFFFFFFFFFFFFFFFFFFFFFFFFFFFFFFFFFFFFF0000FFFFFFFFFBFFFFFFFFFF00FFFFFFFFFFFFFFFFFFFFFFFFFFFFFFFFFFFFFF0000
310
FFFFFFFFFBFFFFFFFFFF00FFFFFFFFFFFFFFFFFFFFFFFFFFFFFFFFFFFFFF0000FFFFFFFFFBFFFFFFFFFF00FFFFFFFFFFFFFFFFFFFFFFFFFFFFFFFFFFFFFF0000FFFFFFFFFBFFFFFFFFFF00FFFFFFFFFFFFFFFFFFFFFFFFFFFFFFFFFFFFFF0000FFFFFFFFFBFFFFFFFFFF00FFFFFFFFFFFFFFFFFFFFFFFFFFFFFFFFFFFFFFFB
310
00FBFFFFFFFBFFFFFFFF00FBFFFFFFFFFFFFFFFFFFFFFFFFFFFFFFFFFFFFFF00FB0000FFFFFBFFFFFF00FBFBFFFFFFFFFFFFFFFFFFFFFFFFFFFFFFFFFFFFFF00FB00FB00FFFBFFFF00FB0000FFFFFFFFFFFFFFFFFFFFFFFFFFFFFFFFFFFFFFFF0000FB00FBFBFB0000FB00FFFFFFFFFFFFFFFFFFFFFFFFFFFFFFFFFFFFFFFF
310
FFFFFFFF0000000000FFFFFFFFFFFFFFFFFFFFFFFFFFFFFFFFFFFFFFFFFFFFFFFFFFFFFFFF00000000FFFFFFFFFFFFFFFFFFFFFFFFFFFFFFFFFFFFFFFFFFFFFFFFFFFFFFFF00FF00FFFFFFFFFFFFFFFFFFFFFFFFFFFFFFFFFFFFFFFFFFFFFFFFFFFFFFFFFFFBFB00FFFFFFFFFFFFFFFFFFFFFFFFFFFFFFFFFFFFFFFFFFFFFF
310
FFFFFFFFFFFFFFFFFBFBFFFFFFFFFFFFFFFFFFFFFFFFFFFFFFFFFFFFFFFFFFFFFFFFFFFFFFFFFFFFFFFFFFFFFFFFFFFFFFFFFFFFFFFFFFFF
102
{BLKREFS
331
57B
102
}
  0
BLOCK_RECORD
  5
57C
330
1
100
AcDbSymbolTableRecord
100
AcDbBlockTableRecord
  2
EWHA12A-4
340
0
310
2800000020000000200000000100080000000000000400000000000000000000000000000000000000000000000080000080000000808000800000008000800080800000C0C0C000C0DCC000F0CAA6000020400000206000002080000020A0000020C0000020E00000400000004020000040400000406000004080000040A0
310
000040C0000040E00000600000006020000060400000606000006080000060A0000060C0000060E00000800000008020000080400000806000008080000080A0000080C0000080E00000A0000000A0200000A0400000A0600000A0800000A0A00000A0C00000A0E00000C0000000C0200000C0400000C0600000C0800000C0
310
A00000C0C00000C0E00000E0000000E0200000E0400000E0600000E0800000E0A00000E0C00000E0E00040000000400020004000400040006000400080004000A0004000C0004000E00040200000402020004020400040206000402080004020A0004020C0004020E000404000004040200040404000404060004040800040
310
40A0004040C0004040E00040600000406020004060400040606000406080004060A0004060C0004060E00040800000408020004080400040806000408080004080A0004080C0004080E00040A0000040A0200040A0400040A0600040A0800040A0A00040A0C00040A0E00040C0000040C0200040C0400040C0600040C08000
310
40C0A00040C0C00040C0E00040E0000040E0200040E0400040E0600040E0800040E0A00040E0C00040E0E00080000000800020008000400080006000800080008000A0008000C0008000E00080200000802020008020400080206000802080008020A0008020C0008020E00080400000804020008040400080406000804080
310
008040A0008040C0008040E00080600000806020008060400080606000806080008060A0008060C0008060E00080800000808020008080400080806000808080008080A0008080C0008080E00080A0000080A0200080A0400080A0600080A0800080A0A00080A0C00080A0E00080C0000080C0200080C0400080C0600080C0
310
800080C0A00080C0C00080C0E00080E0000080E0200080E0400080E0600080E0800080E0A00080E0C00080E0E000C0000000C0002000C0004000C0006000C0008000C000A000C000C000C000E000C0200000C0202000C0204000C0206000C0208000C020A000C020C000C020E000C0400000C0402000C0404000C0406000C0
310
408000C040A000C040C000C040E000C0600000C0602000C0604000C0606000C0608000C060A000C060C000C060E000C0800000C0802000C0804000C0806000C0808000C080A000C080C000C080E000C0A00000C0A02000C0A04000C0A06000C0A08000C0A0A000C0A0C000C0A0E000C0C00000C0C02000C0C04000C0C06000
310
C0C08000C0C0A000F0FBFF00A4A0A000808080000000FF0000FF000000FFFF00FF000000FF00FF00FFFF0000FFFFFF00FFFFFFFFFFFFFFFFFFFFFFFFFFFFFFFFFFFFFFFFFFFFFFFFFFFFFFFFFFFFFFFFFFFFFFFFFFFFFFFFFFFFFFFFFFFFFFFFFFFFFFFFFFFFFFFFFFFFFFFFFFFFFFFFFFFFFFFFFFFFFFFFFFFFFFFFFFFFFF
310
FFFFFFFFFFFFFFFFFFFFFFFFFFFFFFFFFFFFFFFFFFFFFFFFFFFFFFFFFFFFFFFFFFFFFFFFFFFFFFFFFFFFFFFFFFFFFFFFFFFFFFFFFFFFFFFFFFFFFFFFFFFFFFFFFFFFFFFFFFFFFFFFFFFFFFFFFFFFFFFFFFFFFFFFFFFFFFFFFFFFFFFFFFFFFFFFFFFFFFFFFFFFFFFFFFFFFFFFFFFFFFFFFFFFFFFFFFFFFFFFFFFFFFFFFFFFFF
310
FFFFFFFFFFFFFFFFFFFFFFFFFFFFFFFFFFFFFFFFFFFF000000000000000000000000000000000000000000000000FFFFFFFFFFFFFFFF00FFFFFFFFFF00FFFFFFFFFFFFFFFFFFFFFFFFFF00FFFF00FFFFFFFFFFFFFFFF00000000000000FFFFFFFFFFFFFFFFFFFFFFFFFF00000000FFFFFFFFFFFFFFFF00FFFFFFFFFF00FFFF
310
FFFFFFFFFFFFFFFFFFFFFF00FFFF00FFFFFFFFFFFFFFFBFBFFFFFFFFFF000000000000000000000000000000000000FFFFFFFFFFFFFBFBFBFFFFFFFFFF00FFFFFFFFFFFFFF0000FFFFFFFFFFFFFB00FFFFFFFFFFFFFF0000FFFFFFFFFF00FFFFFFFFFFFF00FFFFFFFFFFFFFFFFFB00FFFFFFFFFFFFFF0000FFFFFFFFFF00FF
310
FFFFFFFF00FBFFFFFFFFFFFFFFFFFB00FFFFFFFFFFFBFBFBFBFBFBFBFBFBFBFBFBFBFBFBFBFBFBFBFBFBFBFBFBFBFBFBFBFBFBFFFFFFFF0000FFFFFFFFFF00FFFFFFFFFF00FBFFFFFFFFFFFFFFFFFB00FFFFFFFFFFFFFF0000FFFFFFFFFF00FFFFFFFFFF00FBFFFFFFFFFFFFFFFFFB00FFFFFFFFFFFFFF0000FFFFFFFFFF00
310
FFFFFFFFFFFF00FFFFFFFFFFFFFFFFFB00FFFFFFFFFFFFFBFBFBFFFFFFFFFF00FFFFFFFFFFFFFF00FFFFFFFFFFFFFFFB00FFFFFFFFFFFFFF0000FFFFFFFFFF000000000000000000000000000000000000FFFFFFFFFFFFFFFF00FFFFFFFFFF00FFFFFFFFFFFFFFFFFFFFFFFFFF00FFFF00FFFFFFFFFFFFFFFF000000000000
310
00FFFFFFFFFFFFFFFFFFFFFFFFFF00000000FFFFFFFFFFFFFFFF00FFFFFFFFFF00FFFFFFFFFFFFFFFFFFFFFFFFFF00FFFF00FFFFFFFFFFFFFFFF000000000000000000000000000000000000000000000000FFFFFFFFFFFFFFFFFFFFFFFFFFFFFFFFFFFFFFFFFFFFFFFFFFFFFFFFFFFFFFFFFFFFFFFFFFFFFFFFFFFFFFFFFF
310
FFFFFFFFFFFFFFFFFFFFFFFFFFFFFFFFFFFFFFFFFFFFFFFFFFFFFFFFFFFFFFFFFFFFFFFFFFFFFFFFFFFFFFFFFFFFFFFFFFFFFFFFFFFFFFFFFFFFFFFFFFFFFFFFFFFFFFFFFFFFFFFFFFFFFFFFFFFFFFFFFFFFFFFFFFFFFFFFFFFFFFFFFFFFFFFFFFFFFFFFFFFFFFFFFFFFFFFFFFFFFFFFFFFFFFFFFFFFFFFFFFFFFFFFFFFFFF
310
FFFFFFFFFFFFFFFFFFFFFFFFFFFFFFFFFFFFFFFFFFFFFFFFFFFFFFFFFFFFFFFFFFFFFFFFFFFFFFFFFFFFFFFFFFFFFFFFFFFFFFFFFFFFFFFF
102
{BLKREFS
331
580
102
}
  0
ENDTAB
  0
ENDSEC
  0
SECTION
  2
BLOCKS
  0
BLOCK
  5
D
330
A
100
AcDbEntity
  8
0
100
AcDbBlockBegin
  2
*MODEL_SPACE
 70
     0
 10
0.0
 20
0.0
 30
0.0
  3
*MODEL_SPACE
  1

  0
ENDBLK
  5
E
330
A
100
AcDbEntity
  8
0
100
AcDbBlockEnd
  0
BLOCK
  5
F
330
B
100
AcDbEntity
 67
     1
  8
0
100
AcDbBlockBegin
  2
*PAPER_SPACE
 70
     0
 10
0.0
 20
0.0
 30
0.0
  3
*PAPER_SPACE
  1

  0
ENDBLK
  5
10
330
B
100
AcDbEntity
 67
     1
  8
0
100
AcDbBlockEnd
  0
BLOCK
  5
1E4
330
21
100
AcDbEntity
  8
0
100
AcDbBlockBegin
  2
EWHA12-4
 70
     0
 10
0.0
 20
0.0
 30
0.0
  3
EWHA12-4
  1

  0
LINE
  5
1E5
330
21
100
AcDbEntity
  8
0
  6
Continuous
 62
     7
100
AcDbLine
 10
0.0
 20
14.999999979747
 30
0.0
 11
0.0
 21
7.0
 31
0.0
  0
LINE
  5
1E6
330
21
100
AcDbEntity
  8
0
  6
Continuous
 62
     7
100
AcDbLine
 10
0.0
 20
-14.999999979747
 30
0.0
 11
0.0
 21
-7.0
 31
0.0
  0
LINE
  5
1E7
330
21
100
AcDbEntity
  8
0
  6
Continuous
 62
     7
100
AcDbLine
 10
-40.49999999999999
 20
-8.5
 30
0.0
 11
-41.79999999999998
 21
-8.5
 31
0.0
  0
LINE
  5
1E8
330
21
100
AcDbEntity
  8
0
  6
Continuous
 62
     7
100
AcDbLine
 10
-42.0
 20
-8.299999999999997
 30
0.0
 11
-42.0
 21
8.299999999999982
 31
0.0
  0
LINE
  5
1E9
330
21
100
AcDbEntity
  8
0
  6
Continuous
 62
     7
100
AcDbLine
 10
-40.49999999999999
 20
8.5
 30
0.0
 11
-41.79999999999998
 21
8.5
 31
0.0
  0
LINE
  5
1EA
330
21
100
AcDbEntity
  8
0
  6
DASHED
 62
     2
100
AcDbLine
 10
-40.09433549364532
 20
5.25
 30
0.0
 11
-42.0
 21
5.25
 31
0.0
  0
LINE
  5
1EB
330
21
100
AcDbEntity
  8
0
  6
DASHED
 62
     2
100
AcDbLine
 10
-39.91172460230621
 20
5.450000000000001
 30
0.0
 11
-42.0
 21
5.450000000000001
 31
0.0
  0
LINE
  5
1EC
330
21
100
AcDbEntity
  8
0
  6
DASHED
 62
     2
100
AcDbLine
 10
-39.91172460230621
 20
7.549999999999998
 30
0.0
 11
-42.0
 21
7.549999999999998
 31
0.0
  0
LINE
  5
1ED
330
21
100
AcDbEntity
  8
0
  6
DASHED
 62
     2
100
AcDbLine
 10
-40.09433549364532
 20
7.75
 30
0.0
 11
-42.0
 21
7.75
 31
0.0
  0
LINE
  5
1EE
330
21
100
AcDbEntity
  8
0
  6
Continuous
 62
     7
100
AcDbLine
 10
-41.79999999999998
 20
8.5
 30
0.0
 11
-42.0
 21
8.299999999999982
 31
0.0
  0
LINE
  5
1EF
330
21
100
AcDbEntity
  8
0
  6
Continuous
 62
     7
100
AcDbLine
 10
-41.79999999999998
 20
-7.799999999999998
 30
0.0
 11
-41.79999999999998
 21
7.799999999999998
 31
0.0
  0
LINE
  5
1F0
330
21
100
AcDbEntity
  8
0
  6
Continuous
 62
     7
100
AcDbLine
 10
-40.49999999999999
 20
8.299999999999997
 30
0.0
 11
-41.30000000000006
 21
8.299999999999997
 31
0.0
  0
LINE
  5
1F1
330
21
100
AcDbEntity
  8
0
  6
Continuous
 62
     7
100
AcDbLine
 10
-40.49999999999999
 20
-8.299999999999997
 30
0.0
 11
-41.30000000000001
 21
-8.299999999999997
 31
0.0
  0
LINE
  5
1F2
330
21
100
AcDbEntity
  8
0
  6
Continuous
 62
     7
100
AcDbLine
 10
-41.79999999999998
 20
7.799999999999998
 30
0.0
 11
-41.30000000000006
 21
8.299999999999997
 31
0.0
  0
LINE
  5
1F3
330
21
100
AcDbEntity
  8
0
  6
Continuous
 62
     7
100
AcDbLine
 10
-41.79999999999998
 20
-7.799999999999998
 30
0.0
 11
-41.30000000000001
 21
-8.299999999999997
 31
0.0
  0
LINE
  5
1F4
330
21
100
AcDbEntity
  8
0
  6
Continuous
 62
     7
100
AcDbLine
 10
-41.79999999999998
 20
-8.5
 30
0.0
 11
-42.0
 21
-8.299999999999997
 31
0.0
  0
LINE
  5
1F5
330
21
100
AcDbEntity
  8
0
  6
Continuous
 62
     7
100
AcDbLine
 10
-40.49999999999999
 20
-14.0
 30
0.0
 11
-40.49999999999999
 21
14.0
 31
0.0
  0
LINE
  5
1F6
330
21
100
AcDbEntity
  8
0
  6
Continuous
 62
     7
100
AcDbLine
 10
-17.6
 20
0.7999999999999972
 30
0.0
 11
-17.6
 21
0.2000000000000028
 31
0.0
  0
LINE
  5
1F7
330
21
100
AcDbEntity
  8
0
  6
Continuous
 62
     7
100
AcDbLine
 10
-18.0
 20
0.7999999999999972
 30
0.0
 11
-18.0
 21
0.2000000000000028
 31
0.0
  0
LINE
  5
1F8
330
21
100
AcDbEntity
  8
0
  6
Continuous
 62
     7
100
AcDbLine
 10
-18.0
 20
0.7999999999999972
 30
0.0
 11
-17.6
 21
0.7999999999999972
 31
0.0
  0
LINE
  5
1F9
330
21
100
AcDbEntity
  8
0
  6
Continuous
 62
     7
100
AcDbLine
 10
-18.6
 20
0.2000000000000028
 30
0.0
 11
-18.0
 21
0.2000000000000028
 31
0.0
  0
LINE
  5
1FA
330
21
100
AcDbEntity
  8
0
  6
Continuous
 62
     7
100
AcDbLine
 10
-18.6
 20
-0.2000000000000028
 30
0.0
 11
-18.0
 21
-0.2000000000000028
 31
0.0
  0
LINE
  5
1FB
330
21
100
AcDbEntity
  8
0
  6
Continuous
 62
     7
100
AcDbLine
 10
-18.6
 20
-0.2000000000000028
 30
0.0
 11
-18.6
 21
0.2000000000000028
 31
0.0
  0
LINE
  5
1FC
330
21
100
AcDbEntity
  8
0
  6
Continuous
 62
     7
100
AcDbLine
 10
-18.0
 20
-0.7999999999999972
 30
0.0
 11
-18.0
 21
-0.2000000000000028
 31
0.0
  0
LINE
  5
1FD
330
21
100
AcDbEntity
  8
0
  6
Continuous
 62
     7
100
AcDbLine
 10
-17.6
 20
-0.7999999999999972
 30
0.0
 11
-17.6
 21
-0.2000000000000028
 31
0.0
  0
LINE
  5
1FE
330
21
100
AcDbEntity
  8
0
  6
Continuous
 62
     7
100
AcDbLine
 10
-17.6
 20
-0.7999999999999972
 30
0.0
 11
-18.0
 21
-0.7999999999999972
 31
0.0
  0
LINE
  5
1FF
330
21
100
AcDbEntity
  8
0
  6
Continuous
 62
     7
100
AcDbLine
 10
-17.0
 20
-0.2000000000000028
 30
0.0
 11
-17.6
 21
-0.2000000000000028
 31
0.0
  0
LINE
  5
200
330
21
100
AcDbEntity
  8
0
  6
Continuous
 62
     7
100
AcDbLine
 10
-17.0
 20
0.2000000000000028
 30
0.0
 11
-17.6
 21
0.2000000000000028
 31
0.0
  0
LINE
  5
201
330
21
100
AcDbEntity
  8
0
  6
Continuous
 62
     7
100
AcDbLine
 10
-17.0
 20
0.2000000000000028
 30
0.0
 11
-17.0
 21
-0.2000000000000028
 31
0.0
  0
CIRCLE
  5
202
330
21
100
AcDbEntity
  8
0
  6
Continuous
 62
     7
100
AcDbCircle
 10
-17.79999999999998
 20
0.0
 30
0.0
 40
1.5
  0
ARC
  5
203
330
21
100
AcDbEntity
  8
0
  6
Continuous
 62
     7
100
AcDbCircle
 10
-12.79999999999999
 20
-4.0
 30
0.0
 40
3.0
100
AcDbArc
 50
224.9999999999995
 51
269.9999999999994
  0
ARC
  5
204
330
21
100
AcDbEntity
  8
0
  6
Continuous
 62
     7
100
AcDbCircle
 10
-12.79999999999999
 20
4.0
 30
0.0
 40
3.0
100
AcDbArc
 50
89.99999999999982
 51
134.9999999999997
  0
ARC
  5
205
330
21
100
AcDbEntity
  8
0
  6
Continuous
 62
     7
100
AcDbCircle
 10
-16.79999999999999
 20
0.0
 30
0.0
 40
3.0
100
AcDbArc
 50
135.0000029368111
 51
224.999997409533
  0
LINE
  5
206
330
21
100
AcDbEntity
  8
0
  6
Continuous
 62
     7
100
AcDbLine
 10
-18.92132045229221
 20
-2.121320260473225
 30
0.0
 11
-14.92132035638272
 21
-6.121320356382738
 31
0.0
  0
LINE
  5
207
330
21
100
AcDbEntity
  8
0
  6
Continuous
 62
     7
100
AcDbLine
 10
-14.92132033308292
 20
6.121320354036356
 30
0.0
 11
-18.92132033308293
 21
2.121320354036356
 31
0.0
  0
LINE
  5
208
330
21
100
AcDbEntity
  8
0
  6
CENTER
 62
     2
100
AcDbLine
 10
-17.79999999999998
 20
-2.002327301443159
 30
0.0
 11
-17.79999999999998
 21
1.958419710579818
 31
0.0
  0
LINE
  5
209
330
21
100
AcDbEntity
  8
0
  6
DASHED
 62
     2
100
AcDbLine
 10
-1.299999999999996
 20
-7.0
 30
0.0
 11
-1.299999999999996
 21
7.0
 31
0.0
  0
LINE
  5
20A
330
21
100
AcDbEntity
  8
0
  6
Continuous
 62
     7
100
AcDbLine
 10
-6.0
 20
-14.999999979747
 30
0.0
 11
-6.0
 21
-7.5
 31
0.0
  0
LINE
  5
20B
330
21
100
AcDbEntity
  8
0
  6
Continuous
 62
     7
100
AcDbLine
 10
-29.5
 20
-7.5
 30
0.0
 11
-6.0
 21
-7.5
 31
0.0
  0
LINE
  5
20C
330
21
100
AcDbEntity
  8
0
  6
Continuous
 62
     7
100
AcDbLine
 10
-12.79999999999999
 20
-7.0
 30
0.0
 11
0.0
 21
-7.0
 31
0.0
  0
LINE
  5
20D
330
21
100
AcDbEntity
  8
0
  6
Continuous
 62
     7
100
AcDbLine
 10
-29.5
 20
-8.0
 30
0.0
 11
-6.0
 21
-8.0
 31
0.0
  0
LINE
  5
20E
330
21
100
AcDbEntity
  8
0
  6
Continuous
 62
     7
100
AcDbLine
 10
-29.5
 20
7.5
 30
0.0
 11
-6.0
 21
7.5
 31
0.0
  0
LINE
  5
20F
330
21
100
AcDbEntity
  8
0
  6
Continuous
 62
     7
100
AcDbLine
 10
-12.79999999999999
 20
7.0
 30
0.0
 11
0.0
 21
7.0
 31
0.0
  0
LINE
  5
210
330
21
100
AcDbEntity
  8
0
  6
Continuous
 62
     7
100
AcDbLine
 10
-29.5
 20
14.5
 30
0.0
 11
-6.0
 21
14.5
 31
0.0
  0
LINE
  5
211
330
21
100
AcDbEntity
  8
0
  6
Continuous
 62
     7
100
AcDbLine
 10
-29.5
 20
8.0
 30
0.0
 11
-6.0
 21
8.0
 31
0.0
  0
LINE
  5
212
330
21
100
AcDbEntity
  8
0
  6
Continuous
 62
     7
100
AcDbLine
 10
-6.0
 20
-11.99999999999997
 30
0.0
 11
0.0
 21
-11.99999999999997
 31
0.0
  0
LINE
  5
213
330
21
100
AcDbEntity
  8
0
  6
Continuous
 62
     7
100
AcDbLine
 10
-6.0
 20
12.0
 30
0.0
 11
0.0
 21
12.0
 31
0.0
  0
LINE
  5
214
330
21
100
AcDbEntity
  8
0
  6
Continuous
 62
     7
100
AcDbLine
 10
-0.2999999999999972
 20
-7.0
 30
0.0
 11
-0.2999999999999972
 21
7.0
 31
0.0
  0
LINE
  5
215
330
21
100
AcDbEntity
  8
0
  6
Continuous
 62
     7
100
AcDbLine
 10
-6.0
 20
14.999999979747
 30
0.0
 11
-6.0
 21
7.5
 31
0.0
  0
LINE
  5
216
330
21
100
AcDbEntity
  8
0
  6
Continuous
 62
     7
100
AcDbLine
 10
-29.5
 20
14.999999979747
 30
0.0
 11
-29.5
 21
-14.99999999999997
 31
0.0
  0
LINE
  5
217
330
21
100
AcDbEntity
  8
0
  6
Continuous
 62
     7
100
AcDbLine
 10
-29.5
 20
15.0
 30
0.0
 11
0.0
 21
15.0
 31
0.0
  0
LINE
  5
218
330
21
100
AcDbEntity
  8
0
  6
Continuous
 62
     7
100
AcDbLine
 10
-29.5
 20
-14.99999999999997
 30
0.0
 11
0.0
 21
-14.99999999999997
 31
0.0
  0
LINE
  5
219
330
21
100
AcDbEntity
  8
0
  6
CENTER
 62
     2
100
AcDbLine
 10
-39.31823920545409
 20
6.5
 30
0.0
 11
-42.78982910807403
 21
6.5
 31
0.0
  0
LINE
  5
21A
330
21
100
AcDbEntity
  8
0
  6
DASHED
 62
     2
100
AcDbLine
 10
-40.09433549364532
 20
-5.25
 30
0.0
 11
-42.0
 21
-5.25
 31
0.0
  0
LINE
  5
21B
330
21
100
AcDbEntity
  8
0
  6
DASHED
 62
     2
100
AcDbLine
 10
-39.91172460230621
 20
-5.450000000000001
 30
0.0
 11
-42.0
 21
-5.450000000000001
 31
0.0
  0
LINE
  5
21C
330
21
100
AcDbEntity
  8
0
  6
DASHED
 62
     2
100
AcDbLine
 10
-39.91172460230621
 20
-7.549999999999998
 30
0.0
 11
-42.0
 21
-7.549999999999998
 31
0.0
  0
LINE
  5
21D
330
21
100
AcDbEntity
  8
0
  6
DASHED
 62
     2
100
AcDbLine
 10
-40.09433549364532
 20
-7.75
 30
0.0
 11
-42.0
 21
-7.75
 31
0.0
  0
LINE
  5
21E
330
21
100
AcDbEntity
  8
0
  6
CENTER
 62
     2
100
AcDbLine
 10
-39.31823920545409
 20
-6.5
 30
0.0
 11
-42.78982910807403
 21
-6.5
 31
0.0
  0
LINE
  5
21F
330
21
100
AcDbEntity
  8
0
  6
Continuous
 62
     7
100
AcDbLine
 10
-40.49999999999999
 20
14.0
 30
0.0
 11
-29.5
 21
14.0
 31
0.0
  0
LINE
  5
220
330
21
100
AcDbEntity
  8
0
  6
Continuous
 62
     7
100
AcDbLine
 10
-40.49999999999999
 20
-14.0
 30
0.0
 11
-29.5
 21
-14.0
 31
0.0
  0
LINE
  5
221
330
21
100
AcDbEntity
  8
0
  6
Continuous
 62
     7
100
AcDbLine
 10
-30.5
 20
14.0
 30
0.0
 11
-30.5
 21
14.29999999999999
 31
0.0
  0
LINE
  5
222
330
21
100
AcDbEntity
  8
0
  6
Continuous
 62
     7
100
AcDbLine
 10
-33.5
 20
14.0
 30
0.0
 11
-33.5
 21
14.29999999999999
 31
0.0
  0
LINE
  5
223
330
21
100
AcDbEntity
  8
0
  6
Continuous
 62
     7
100
AcDbLine
 10
-33.2
 20
14.59999999999999
 30
0.0
 11
-30.8
 21
14.59999999999999
 31
0.0
  0
ARC
  5
224
330
21
100
AcDbEntity
  8
0
  6
Continuous
 62
     7
100
AcDbCircle
 10
-33.2
 20
14.29999999999999
 30
0.0
 40
0.3
100
AcDbArc
 50
89.99999999999982
 51
179.9999999999996
  0
ARC
  5
225
330
21
100
AcDbEntity
  8
0
  6
Continuous
 62
     7
100
AcDbCircle
 10
-30.8
 20
14.29999999999999
 30
0.0
 40
0.3
100
AcDbArc
 50
0.0
 51
89.99999999999982
  0
ARC
  5
226
330
21
100
AcDbEntity
  8
0
  6
Continuous
 62
     7
100
AcDbCircle
 10
-30.8
 20
-14.29999999999999
 30
0.0
 40
0.3
100
AcDbArc
 50
270.0000000000003
 51
0.0
  0
ARC
  5
227
330
21
100
AcDbEntity
  8
0
  6
Continuous
 62
     7
100
AcDbCircle
 10
-33.2
 20
-14.29999999999999
 30
0.0
 40
0.3
100
AcDbArc
 50
179.9999999999996
 51
269.9999999999994
  0
LINE
  5
228
330
21
100
AcDbEntity
  8
0
  6
Continuous
 62
     7
100
AcDbLine
 10
-33.2
 20
-14.59999999999999
 30
0.0
 11
-30.8
 21
-14.59999999999999
 31
0.0
  0
LINE
  5
229
330
21
100
AcDbEntity
  8
0
  6
Continuous
 62
     7
100
AcDbLine
 10
-33.5
 20
-14.0
 30
0.0
 11
-33.5
 21
-14.29999999999999
 31
0.0
  0
LINE
  5
22A
330
21
100
AcDbEntity
  8
0
  6
Continuous
 62
     7
100
AcDbLine
 10
-30.5
 20
-14.0
 30
0.0
 11
-30.5
 21
-14.29999999999999
 31
0.0
  0
LINE
  5
22B
330
21
100
AcDbEntity
  8
0
  6
Continuous
 62
     7
100
AcDbLine
 10
-40.49999999999999
 20
11.0
 30
0.0
 11
-29.5
 21
11.0
 31
0.0
  0
LINE
  5
22C
330
21
100
AcDbEntity
  8
0
  6
Continuous
 62
     7
100
AcDbLine
 10
-40.49999999999999
 20
-11.0
 30
0.0
 11
-29.5
 21
-11.0
 31
0.0
  0
LINE
  5
22D
330
21
100
AcDbEntity
  8
0
  6
CENTER
 62
     2
100
AcDbLine
 10
-44.45012699284949
 20
0.0
 30
0.0
 11
4.500797808170318
 21
0.0
 31
0.0
  0
ENDBLK
  5
22E
330
21
100
AcDbEntity
  8
0
100
AcDbBlockEnd
  0
BLOCK
  5
42B
330
42A
100
AcDbEntity
  8
0
100
AcDbBlockBegin
  2
EWHA12A-1
 70
     0
 10
0.0
 20
0.0
 30
0.0
  3
EWHA12A-1
  1

  0
LINE
  5
42D
330
42A
100
AcDbEntity
  8
0
  6
CENTER
 62
     2
100
AcDbLine
 10
-32.0
 20
-2.002327301443171
 30
0.0
 11
-32.0
 21
1.958419710579805
 31
0.0
  0
CIRCLE
  5
42E
330
42A
100
AcDbEntity
  8
0
  6
Continuous
 62
     7
100
AcDbCircle
 10
-32.0
 20
-0.0000000000000124
 30
0.0
 40
1.5
  0
LINE
  5
42F
330
42A
100
AcDbEntity
  8
0
  6
Continuous
 62
     7
100
AcDbLine
 10
-31.8
 20
0.7999999999999852
 30
0.0
 11
-31.8
 21
0.1999999999999904
 31
0.0
  0
LINE
  5
430
330
42A
100
AcDbEntity
  8
0
  6
Continuous
 62
     7
100
AcDbLine
 10
-32.20000000000001
 20
0.7999999999999852
 30
0.0
 11
-32.20000000000001
 21
0.1999999999999904
 31
0.0
  0
LINE
  5
431
330
42A
100
AcDbEntity
  8
0
  6
Continuous
 62
     7
100
AcDbLine
 10
-32.20000000000001
 20
0.7999999999999852
 30
0.0
 11
-31.8
 21
0.7999999999999852
 31
0.0
  0
LINE
  5
432
330
42A
100
AcDbEntity
  8
0
  6
Continuous
 62
     7
100
AcDbLine
 10
-32.8
 20
0.1999999999999904
 30
0.0
 11
-32.20000000000001
 21
0.1999999999999904
 31
0.0
  0
LINE
  5
433
330
42A
100
AcDbEntity
  8
0
  6
Continuous
 62
     7
100
AcDbLine
 10
-32.8
 20
-0.2000000000000108
 30
0.0
 11
-32.20000000000001
 21
-0.2000000000000108
 31
0.0
  0
LINE
  5
434
330
42A
100
AcDbEntity
  8
0
  6
Continuous
 62
     7
100
AcDbLine
 10
-32.8
 20
-0.2000000000000108
 30
0.0
 11
-32.8
 21
0.1999999999999904
 31
0.0
  0
LINE
  5
435
330
42A
100
AcDbEntity
  8
0
  6
Continuous
 62
     7
100
AcDbLine
 10
-32.20000000000001
 20
-0.8000000000000122
 30
0.0
 11
-32.20000000000001
 21
-0.2000000000000108
 31
0.0
  0
LINE
  5
436
330
42A
100
AcDbEntity
  8
0
  6
Continuous
 62
     7
100
AcDbLine
 10
-31.8
 20
-0.8000000000000122
 30
0.0
 11
-31.8
 21
-0.2000000000000108
 31
0.0
  0
LINE
  5
437
330
42A
100
AcDbEntity
  8
0
  6
Continuous
 62
     7
100
AcDbLine
 10
-31.8
 20
-0.8000000000000122
 30
0.0
 11
-32.20000000000001
 21
-0.8000000000000122
 31
0.0
  0
LINE
  5
438
330
42A
100
AcDbEntity
  8
0
  6
Continuous
 62
     7
100
AcDbLine
 10
-31.20000000000001
 20
-0.2000000000000108
 30
0.0
 11
-31.8
 21
-0.2000000000000108
 31
0.0
  0
LINE
  5
439
330
42A
100
AcDbEntity
  8
0
  6
Continuous
 62
     7
100
AcDbLine
 10
-31.20000000000001
 20
0.1999999999999904
 30
0.0
 11
-31.8
 21
0.1999999999999904
 31
0.0
  0
LINE
  5
43A
330
42A
100
AcDbEntity
  8
0
  6
Continuous
 62
     7
100
AcDbLine
 10
-31.20000000000001
 20
0.1999999999999904
 30
0.0
 11
-31.20000000000001
 21
-0.2000000000000108
 31
0.0
  0
LINE
  5
43B
330
42A
100
AcDbEntity
  8
0
  6
CENTER
 62
     2
100
AcDbLine
 10
-44.87908015627822
 20
-0.0000000000000231
 30
0.0
 11
1.392690033078253
 21
-0.0000000000000266
 31
0.0
  0
LINE
  5
43C
330
42A
100
AcDbEntity
  8
0
  6
DASHED
 62
     2
100
AcDbLine
 10
-5.100000000000024
 20
29.99999999999998
 30
0.0
 11
-5.300000000000026
 21
29.79999999999999
 31
0.0
  0
LINE
  5
43D
330
42A
100
AcDbEntity
  8
0
  6
Continuous
 62
     7
100
AcDbLine
 10
-2.800000000000027
 20
29.49999999999997
 30
0.0
 11
-3.300000000000041
 21
29.99999999999998
 31
0.0
  0
LINE
  5
43E
330
42A
100
AcDbEntity
  8
0
  6
Continuous
 62
     7
100
AcDbLine
 10
-12.30000000000002
 20
29.99999999999998
 30
0.0
 11
-12.80000000000002
 21
29.49999999999997
 31
0.0
  0
LINE
  5
43F
330
42A
100
AcDbEntity
  8
0
  6
Continuous
 62
     7
100
AcDbLine
 10
-12.30000000000002
 20
29.99999999999998
 30
0.0
 11
-3.300000000000041
 21
29.99999999999998
 31
0.0
  0
LINE
  5
440
330
42A
100
AcDbEntity
  8
0
  6
Continuous
 62
     7
100
AcDbLine
 10
-2.800000000000027
 20
29.49999999999997
 30
0.0
 11
-2.800000000000027
 21
27.00000000000003
 31
0.0
  0
LINE
  5
441
330
42A
100
AcDbEntity
  8
0
  6
Continuous
 62
     7
100
AcDbLine
 10
-12.80000000000002
 20
29.49999999999997
 30
0.0
 11
-12.80000000000002
 21
27.0
 31
0.0
  0
LINE
  5
442
330
42A
100
AcDbEntity
  8
0
  6
Continuous
 62
     7
100
AcDbLine
 10
-40.49999999999998
 20
-23.00000000000002
 30
0.0
 11
-29.50000000000001
 21
-23.00000000000002
 31
0.0
  0
LINE
  5
443
330
42A
100
AcDbEntity
  8
0
  6
Continuous
 62
     7
100
AcDbLine
 10
-40.49999999999998
 20
22.99999999999997
 30
0.0
 11
-29.50000000000001
 21
22.99999999999997
 31
0.0
  0
LINE
  5
444
330
42A
100
AcDbEntity
  8
0
  6
Continuous
 62
     7
100
AcDbLine
 10
-5.999999999999994
 20
23.99999999999996
 30
0.0
 11
0.0000000000000013
 21
23.99999999999996
 31
0.0
  0
LINE
  5
445
330
42A
100
AcDbEntity
  8
0
  6
Continuous
 62
     7
100
AcDbLine
 10
-29.50000000000001
 20
19.49999999999997
 30
0.0
 11
-5.999999999999998
 21
19.50000000000002
 31
0.0
  0
LINE
  5
446
330
42A
100
AcDbEntity
  8
0
  6
Continuous
 62
     7
100
AcDbLine
 10
-6.0
 20
-24.00000000000003
 30
0.0
 11
-0.0000000000000009
 21
-24.00000000000003
 31
0.0
  0
LINE
  5
447
330
42A
100
AcDbEntity
  8
0
  6
Continuous
 62
     7
100
AcDbLine
 10
-29.50000000000001
 20
-19.50000000000002
 30
0.0
 11
-5.999999999999998
 21
-19.50000000000008
 31
0.0
  0
CIRCLE
  5
448
330
42A
100
AcDbEntity
  8
0
  6
Continuous
 62
     7
100
AcDbCircle
 10
-6.999999999999998
 20
-0.0000000000000266
 30
0.0
 40
1.649999999999999
  0
CIRCLE
  5
449
330
42A
100
AcDbEntity
  8
0
  6
Continuous
 62
     2
100
AcDbCircle
 10
-6.999999999999998
 20
-0.0000000000000266
 30
0.0
 40
2.0
  0
LINE
  5
44A
330
42A
100
AcDbEntity
  8
0
  6
CENTER
 62
     2
100
AcDbLine
 10
-6.999999999999998
 20
3.424419443198333
 30
0.0
 11
-6.999999999999998
 21
-3.040328685592326
 31
0.0
  0
CIRCLE
  5
44B
330
42A
100
AcDbEntity
  8
0
  6
Continuous
 62
     7
100
AcDbCircle
 10
-24.0
 20
-0.0000000000000266
 30
0.0
 40
1.649999999999999
  0
CIRCLE
  5
44C
330
42A
100
AcDbEntity
  8
0
  6
Continuous
 62
     2
100
AcDbCircle
 10
-24.0
 20
-0.0000000000000266
 30
0.0
 40
2.0
  0
LINE
  5
44D
330
42A
100
AcDbEntity
  8
0
  6
CENTER
 62
     2
100
AcDbLine
 10
-24.0
 20
3.424419443198333
 30
0.0
 11
-24.0
 21
-3.040328685592326
 31
0.0
  0
LINE
  5
44E
330
42A
100
AcDbEntity
  8
0
  6
Continuous
 62
     7
100
AcDbLine
 10
-40.49999999999998
 20
-27.00000000000003
 30
0.0
 11
-40.49999999999998
 21
26.99999999999997
 31
0.0
  0
LINE
  5
44F
330
42A
100
AcDbEntity
  8
0
  6
Continuous
 62
     7
100
AcDbLine
 10
-5.999999999999998
 20
19.50000000000002
 30
0.0
 11
-5.999999999999994
 21
27.00000000000003
 31
0.0
  0
LINE
  5
450
330
42A
100
AcDbEntity
  8
0
  6
Continuous
 62
     7
100
AcDbLine
 10
-5.999999999999998
 20
-19.50000000000008
 30
0.0
 11
-6.0
 21
-27.00000000000008
 31
0.0
  0
LINE
  5
451
330
42A
100
AcDbEntity
  8
0
  6
Continuous
 62
     7
100
AcDbLine
 10
-40.49999999999998
 20
-27.00000000000003
 30
0.0
 11
-29.50000000000001
 21
-27.00000000000003
 31
0.0
  0
LINE
  5
452
330
42A
100
AcDbEntity
  8
0
  6
Continuous
 62
     7
100
AcDbLine
 10
-29.50000000000001
 20
-20.00000000000003
 30
0.0
 11
-5.999999999999998
 21
-20.00000000000008
 31
0.0
  0
LINE
  5
453
330
42A
100
AcDbEntity
  8
0
  6
Continuous
 62
     7
100
AcDbLine
 10
-29.50000000000001
 20
19.99999999999997
 30
0.0
 11
-5.999999999999998
 21
20.00000000000003
 31
0.0
  0
LINE
  5
454
330
42A
100
AcDbEntity
  8
0
  6
Continuous
 62
     7
100
AcDbLine
 10
-40.49999999999998
 20
26.99999999999997
 30
0.0
 11
-29.50000000000001
 21
26.99999999999997
 31
0.0
  0
LINE
  5
455
330
42A
100
AcDbEntity
  8
0
  6
Continuous
 62
     7
100
AcDbLine
 10
-29.50000000000001
 20
-27.00000000000003
 30
0.0
 11
-29.50000000000001
 21
26.99999999999997
 31
0.0
  0
LINE
  5
456
330
42A
100
AcDbEntity
  8
0
  6
Continuous
 62
     7
100
AcDbLine
 10
-29.50000000000001
 20
-27.00000000000003
 30
0.0
 11
-0.0000000000000009
 21
-27.00000000000003
 31
0.0
  0
LINE
  5
457
330
42A
100
AcDbEntity
  8
0
  6
Continuous
 62
     7
100
AcDbLine
 10
-29.50000000000001
 20
26.99999999999997
 30
0.0
 11
-0.0000000000000111
 21
27.00000000000003
 31
0.0
  0
LINE
  5
458
330
42A
100
AcDbEntity
  8
0
  6
Continuous
 62
     7
100
AcDbLine
 10
-0.0000000000000009
 20
-27.00000000000003
 30
0.0
 11
0.0000000000000013
 21
27.00000000000003
 31
0.0
  0
LINE
  5
459
330
42A
100
AcDbEntity
  8
0
  6
Continuous
 62
     7
100
AcDbLine
 10
-40.49999999999998
 20
6.999999999999976
 30
0.0
 11
-41.8
 21
6.999999999999976
 31
0.0
  0
LINE
  5
45A
330
42A
100
AcDbEntity
  8
0
  6
Continuous
 62
     7
100
AcDbLine
 10
-40.49999999999998
 20
7.999999999999976
 30
0.0
 11
-41.99999999999998
 21
7.999999999999976
 31
0.0
  0
LINE
  5
45B
330
42A
100
AcDbEntity
  8
0
  6
Continuous
 62
     7
100
AcDbLine
 10
-41.99999999999998
 20
22.39999999999998
 30
0.0
 11
-41.99999999999998
 21
7.999999999999976
 31
0.0
  0
LINE
  5
45C
330
42A
100
AcDbEntity
  8
0
  6
Continuous
 62
     7
100
AcDbLine
 10
-41.8
 20
7.999999999999976
 30
0.0
 11
-41.8
 21
6.999999999999976
 31
0.0
  0
LINE
  5
45D
330
42A
100
AcDbEntity
  8
0
  6
CENTER
 62
     2
100
AcDbLine
 10
-38.38983250568134
 20
15.19999999999998
 30
0.0
 11
-42.84755536144476
 21
15.19999999999998
 31
0.0
  0
LINE
  5
45E
330
42A
100
AcDbEntity
  8
0
  6
DASHED
 62
     2
100
AcDbLine
 10
-39.55163947238688
 20
16.44999999999998
 30
0.0
 11
-41.99999999999998
 21
16.44999999999998
 31
0.0
  0
LINE
  5
45F
330
42A
100
AcDbEntity
  8
0
  6
DASHED
 62
     2
100
AcDbLine
 10
-39.02354539661163
 20
16.24999999999999
 30
0.0
 11
-41.99999999999998
 21
16.24999999999999
 31
0.0
  0
LINE
  5
460
330
42A
100
AcDbEntity
  8
0
  6
DASHED
 62
     2
100
AcDbLine
 10
-39.02354539661163
 20
14.14999999999996
 30
0.0
 11
-41.99999999999998
 21
14.14999999999996
 31
0.0
  0
LINE
  5
461
330
42A
100
AcDbEntity
  8
0
  6
DASHED
 62
     2
100
AcDbLine
 10
-39.55163947238688
 20
13.94999999999998
 30
0.0
 11
-41.99999999999998
 21
13.94999999999998
 31
0.0
  0
LINE
  5
462
330
42A
100
AcDbEntity
  8
0
  6
Continuous
 62
     7
100
AcDbLine
 10
-40.49999999999998
 20
23.39999999999998
 30
0.0
 11
-41.8
 21
23.39999999999998
 31
0.0
  0
LINE
  5
463
330
42A
100
AcDbEntity
  8
0
  6
Continuous
 62
     7
100
AcDbLine
 10
-40.49999999999998
 20
22.39999999999998
 30
0.0
 11
-41.99999999999998
 21
22.39999999999998
 31
0.0
  0
LINE
  5
464
330
42A
100
AcDbEntity
  8
0
  6
Continuous
 62
     7
100
AcDbLine
 10
-41.8
 20
22.39999999999998
 30
0.0
 11
-41.8
 21
23.39999999999998
 31
0.0
  0
LINE
  5
465
330
42A
100
AcDbEntity
  8
0
  6
Continuous
 62
     7
100
AcDbLine
 10
-40.49999999999998
 20
-7.000000000000021
 30
0.0
 11
-41.8
 21
-7.000000000000021
 31
0.0
  0
LINE
  5
466
330
42A
100
AcDbEntity
  8
0
  6
Continuous
 62
     7
100
AcDbLine
 10
-40.49999999999998
 20
-8.000000000000021
 30
0.0
 11
-41.99999999999998
 21
-8.000000000000021
 31
0.0
  0
LINE
  5
467
330
42A
100
AcDbEntity
  8
0
  6
CENTER
 62
     2
100
AcDbLine
 10
-38.38983250568134
 20
-15.20000000000002
 30
0.0
 11
-42.84755536144476
 21
-15.20000000000002
 31
0.0
  0
LINE
  5
468
330
42A
100
AcDbEntity
  8
0
  6
DASHED
 62
     2
100
AcDbLine
 10
-39.55163947238688
 20
-16.45000000000002
 30
0.0
 11
-41.99999999999998
 21
-16.45000000000002
 31
0.0
  0
LINE
  5
469
330
42A
100
AcDbEntity
  8
0
  6
DASHED
 62
     2
100
AcDbLine
 10
-39.02354539661163
 20
-16.25000000000003
 30
0.0
 11
-41.99999999999998
 21
-16.25000000000003
 31
0.0
  0
LINE
  5
46A
330
42A
100
AcDbEntity
  8
0
  6
DASHED
 62
     2
100
AcDbLine
 10
-39.02354539661163
 20
-14.15
 30
0.0
 11
-41.99999999999998
 21
-14.15
 31
0.0
  0
LINE
  5
46B
330
42A
100
AcDbEntity
  8
0
  6
DASHED
 62
     2
100
AcDbLine
 10
-39.55163947238688
 20
-13.95000000000002
 30
0.0
 11
-41.99999999999998
 21
-13.95000000000002
 31
0.0
  0
LINE
  5
46C
330
42A
100
AcDbEntity
  8
0
  6
Continuous
 62
     7
100
AcDbLine
 10
-40.49999999999998
 20
-23.40000000000002
 30
0.0
 11
-41.8
 21
-23.40000000000002
 31
0.0
  0
LINE
  5
46D
330
42A
100
AcDbEntity
  8
0
  6
Continuous
 62
     7
100
AcDbLine
 10
-40.49999999999998
 20
-22.40000000000002
 30
0.0
 11
-41.99999999999998
 21
-22.40000000000002
 31
0.0
  0
LINE
  5
46E
330
42A
100
AcDbEntity
  8
0
  6
Continuous
 62
     7
100
AcDbLine
 10
-41.8
 20
-22.40000000000002
 30
0.0
 11
-41.8
 21
-23.40000000000002
 31
0.0
  0
LINE
  5
46F
330
42A
100
AcDbEntity
  8
0
  6
Continuous
 62
     7
100
AcDbLine
 10
-41.8
 20
-8.000000000000021
 30
0.0
 11
-41.8
 21
-7.000000000000021
 31
0.0
  0
LINE
  5
470
330
42A
100
AcDbEntity
  8
0
  6
Continuous
 62
     7
100
AcDbLine
 10
-41.99999999999998
 20
-22.40000000000002
 30
0.0
 11
-41.99999999999998
 21
-8.000000000000021
 31
0.0
  0
LINE
  5
471
330
42A
100
AcDbEntity
  8
0
  6
Continuous
 62
     7
100
AcDbLine
 10
-2.800000000000027
 20
29.49999999999997
 30
0.0
 11
-12.80000000000002
 21
29.49999999999997
 31
0.0
  0
LINE
  5
472
330
42A
100
AcDbEntity
  8
0
  6
Continuous
 62
     7
100
AcDbLine
 10
-10.30000000000008
 20
42.66025403531631
 30
0.0
 11
-10.30000000000008
 21
29.99999999999998
 31
0.0
  0
LINE
  5
473
330
42A
100
AcDbEntity
  8
0
  6
Continuous
 62
     7
100
AcDbLine
 10
-5.300000000000028
 20
30.00000000136196
 30
0.0
 11
-5.300000000000028
 21
43.99999999999999
 31
0.0
  0
LINE
  5
474
330
42A
100
AcDbEntity
  8
0
  6
Continuous
 62
     2
100
AcDbLine
 10
-11.45889528740655
 20
42.34972897835755
 30
0.0
 11
-4.283444011132504
 21
44.27238535679204
 31
0.0
  0
LINE
  5
475
330
42A
100
AcDbEntity
  8
0
  6
Continuous
 62
     7
100
AcDbLine
 10
-16.30000000000001
 20
-27.00000000000003
 30
0.0
 11
-16.30000000000001
 21
-27.30000000000003
 31
0.0
  0
LINE
  5
476
330
42A
100
AcDbEntity
  8
0
  6
Continuous
 62
     7
100
AcDbLine
 10
-19.3
 20
-27.00000000000003
 30
0.0
 11
-19.3
 21
-27.30000000000003
 31
0.0
  0
ARC
  5
477
330
42A
100
AcDbEntity
  8
0
  6
Continuous
 62
     7
100
AcDbCircle
 10
-19.00000000000001
 20
-27.30000000000003
 30
0.0
 40
0.3
100
AcDbArc
 50
179.9999999999995
 51
269.9999999999994
  0
ARC
  5
478
330
42A
100
AcDbEntity
  8
0
  6
Continuous
 62
     7
100
AcDbCircle
 10
-16.60000000000001
 20
-27.30000000000003
 30
0.0
 40
0.3
100
AcDbArc
 50
270.0000000000003
 51
0.0
  0
LINE
  5
479
330
42A
100
AcDbEntity
  8
0
  6
Continuous
 62
     7
100
AcDbLine
 10
-16.60000000000001
 20
-27.60000000000003
 30
0.0
 11
-19.00000000000001
 21
-27.60000000000003
 31
0.0
  0
LINE
  5
47A
330
42A
100
AcDbEntity
  8
0
  6
Continuous
 62
     7
100
AcDbLine
 10
-16.3
 20
26.99999999999997
 30
0.0
 11
-16.3
 21
27.29999999999998
 31
0.0
  0
LINE
  5
47B
330
42A
100
AcDbEntity
  8
0
  6
Continuous
 62
     7
100
AcDbLine
 10
-19.3
 20
26.99999999999997
 30
0.0
 11
-19.3
 21
27.29999999999998
 31
0.0
  0
ARC
  5
47C
330
42A
100
AcDbEntity
  8
0
  6
Continuous
 62
     7
100
AcDbCircle
 10
-19.0
 20
27.29999999999998
 30
0.0
 40
0.3
100
AcDbArc
 50
89.99999999999982
 51
179.9999999999995
  0
ARC
  5
47D
330
42A
100
AcDbEntity
  8
0
  6
Continuous
 62
     7
100
AcDbCircle
 10
-16.6
 20
27.29999999999998
 30
0.0
 40
0.3
100
AcDbArc
 50
0.0
 51
89.99999999999982
  0
LINE
  5
47E
330
42A
100
AcDbEntity
  8
0
  6
Continuous
 62
     7
100
AcDbLine
 10
-16.6
 20
27.59999999999998
 30
0.0
 11
-19.0
 21
27.59999999999998
 31
0.0
  0
LINE
  5
47F
330
42A
100
AcDbEntity
  8
0
  6
DASHED
 62
     2
100
AcDbLine
 10
-1.299999999999999
 20
1.249999999999987
 30
0.0
 11
0.0000000000000013
 21
1.249999999999987
 31
0.0
  0
LINE
  5
480
330
42A
100
AcDbEntity
  8
0
  6
DASHED
 62
     2
100
AcDbLine
 10
-3.999999999999998
 20
0.9999999999999875
 30
0.0
 11
-1.300000011920927
 21
0.9999999999999875
 31
0.0
  0
LINE
  5
481
330
42A
100
AcDbEntity
  8
0
  6
DASHED
 62
     2
100
AcDbLine
 10
-1.299999999999999
 20
-5.52392824882842
 30
0.0
 11
-1.299999999999999
 21
4.963364107490017
 31
0.0
  0
LINE
  5
482
330
42A
100
AcDbEntity
  8
0
  6
DASHED
 62
     2
100
AcDbLine
 10
-3.999999999999998
 20
-1.000000000000039
 30
0.0
 11
-3.999999999999998
 21
0.9999999999999875
 31
0.0
  0
LINE
  5
483
330
42A
100
AcDbEntity
  8
0
  6
DASHED
 62
     2
100
AcDbLine
 10
-3.999999999999998
 20
-1.000000000000039
 30
0.0
 11
-1.300000011920927
 21
-1.000000000000039
 31
0.0
  0
LINE
  5
484
330
42A
100
AcDbEntity
  8
0
  6
DASHED
 62
     2
100
AcDbLine
 10
-1.299999999999992
 20
-1.250000000000039
 30
0.0
 11
0.0000000000000013
 21
-1.250000000000039
 31
0.0
  0
LINE
  5
485
330
42A
100
AcDbEntity
  8
0
  6
CENTER
 62
     2
100
AcDbLine
 10
-7.800000000000029
 20
45.91873699905009
 30
0.0
 11
-7.800000000000029
 21
24.36213240763699
 31
0.0
  0
ENDBLK
  5
42C
330
42A
100
AcDbEntity
  8
0
100
AcDbBlockEnd
  0
BLOCK
  5
488
330
487
100
AcDbEntity
  8
0
100
AcDbBlockBegin
  2
EWHA12A-2
 70
     0
 10
0.0
 20
0.0
 30
0.0
  3
EWHA12A-2
  1

  0
LINE
  5
48A
330
487
100
AcDbEntity
  8
0
  6
Continuous
 62
     7
100
AcDbLine
 10
2.5
 20
30.00000000136194
 30
0.0
 11
2.5
 21
35.87190081824945
 31
0.0
  0
LINE
  5
48B
330
487
100
AcDbEntity
  8
0
  6
Continuous
 62
     7
100
AcDbLine
 10
-14.60000000000001
 20
1.199999999999989
 30
0.0
 11
-14.60000000000001
 21
-1.200000000000016
 31
0.0
  0
LINE
  5
48C
330
487
100
AcDbEntity
  8
0
  6
Continuous
 62
     7
100
AcDbLine
 10
-14.00000000000001
 20
-1.500000000000026
 30
0.0
 11
-14.29999999999999
 21
-1.500000000000026
 31
0.0
  0
ARC
  5
48D
330
487
100
AcDbEntity
  8
0
  6
Continuous
 62
     7
100
AcDbCircle
 10
-14.29999999999999
 20
-1.200000000000016
 30
0.0
 40
0.3
100
AcDbArc
 50
179.9999999999995
 51
269.9999999999992
  0
LINE
  5
48E
330
487
100
AcDbEntity
  8
0
  6
Continuous
 62
     7
100
AcDbLine
 10
-14.00000000000001
 20
1.499999999999972
 30
0.0
 11
-14.29999999999999
 21
1.499999999999972
 31
0.0
  0
ARC
  5
48F
330
487
100
AcDbEntity
  8
0
  6
Continuous
 62
     7
100
AcDbCircle
 10
-14.29999999999999
 20
1.199999999999989
 30
0.0
 40
0.3
100
AcDbArc
 50
90.0
 51
179.9999999999995
  0
ARC
  5
490
330
487
100
AcDbEntity
  8
0
  6
Continuous
 62
     7
100
AcDbCircle
 10
14.29999999999999
 20
1.199999999999989
 30
0.0
 40
0.3
100
AcDbArc
 50
0.0
 51
90.0
  0
LINE
  5
491
330
487
100
AcDbEntity
  8
0
  6
Continuous
 62
     7
100
AcDbLine
 10
14.0
 20
1.499999999999972
 30
0.0
 11
14.29999999999999
 21
1.499999999999972
 31
0.0
  0
ARC
  5
492
330
487
100
AcDbEntity
  8
0
  6
Continuous
 62
     7
100
AcDbCircle
 10
14.29999999999999
 20
-1.200000000000016
 30
0.0
 40
0.3
100
AcDbArc
 50
269.9999999999992
 51
0.0
  0
LINE
  5
493
330
487
100
AcDbEntity
  8
0
  6
Continuous
 62
     7
100
AcDbLine
 10
14.0
 20
-1.500000000000026
 30
0.0
 11
14.29999999999999
 21
-1.500000000000026
 31
0.0
  0
LINE
  5
494
330
487
100
AcDbEntity
  8
0
  6
Continuous
 62
     7
100
AcDbLine
 10
14.59999999999999
 20
1.199999999999989
 30
0.0
 11
14.59999999999999
 21
-1.200000000000016
 31
0.0
  0
LINE
  5
495
330
487
100
AcDbEntity
  8
0
  6
Continuous
 62
     7
100
AcDbLine
 10
-1.5
 20
26.99999999999999
 30
0.0
 11
-1.5
 21
27.29999999999999
 31
0.0
  0
LINE
  5
496
330
487
100
AcDbEntity
  8
0
  6
Continuous
 62
     7
100
AcDbLine
 10
-1.200000000000002
 20
27.6
 30
0.0
 11
1.200000000000002
 21
27.6
 31
0.0
  0
ARC
  5
497
330
487
100
AcDbEntity
  8
0
  6
Continuous
 62
     7
100
AcDbCircle
 10
-1.200000000000002
 20
27.29999999999999
 30
0.0
 40
0.3
100
AcDbArc
 50
90.0
 51
179.9999999999995
  0
LINE
  5
498
330
487
100
AcDbEntity
  8
0
  6
Continuous
 62
     7
100
AcDbLine
 10
1.5
 20
26.99999999999999
 30
0.0
 11
1.5
 21
27.29999999999999
 31
0.0
  0
ARC
  5
499
330
487
100
AcDbEntity
  8
0
  6
Continuous
 62
     7
100
AcDbCircle
 10
1.200000000000002
 20
27.29999999999999
 30
0.0
 40
0.3
100
AcDbArc
 50
0.0
 51
90.0
  0
LINE
  5
49A
330
487
100
AcDbEntity
  8
0
  6
Continuous
 62
     7
100
AcDbLine
 10
1.5
 20
-27.00000000000001
 30
0.0
 11
1.5
 21
-27.30000000000001
 31
0.0
  0
LINE
  5
49B
330
487
100
AcDbEntity
  8
0
  6
Continuous
 62
     7
100
AcDbLine
 10
1.200000000000002
 20
-27.60000000000001
 30
0.0
 11
-1.200000000000002
 21
-27.60000000000001
 31
0.0
  0
ARC
  5
49C
330
487
100
AcDbEntity
  8
0
  6
Continuous
 62
     7
100
AcDbCircle
 10
1.200000000000002
 20
-27.30000000000001
 30
0.0
 40
0.3
100
AcDbArc
 50
270.0
 51
0.0
  0
LINE
  5
49D
330
487
100
AcDbEntity
  8
0
  6
Continuous
 62
     7
100
AcDbLine
 10
-1.5
 20
-27.00000000000001
 30
0.0
 11
-1.5
 21
-27.30000000000001
 31
0.0
  0
ARC
  5
49E
330
487
100
AcDbEntity
  8
0
  6
Continuous
 62
     7
100
AcDbCircle
 10
-1.200000000000002
 20
-27.30000000000001
 30
0.0
 40
0.3
100
AcDbArc
 50
179.9999999999995
 51
269.9999999999992
  0
LINE
  5
49F
330
487
100
AcDbEntity
  8
0
  6
Continuous
 62
     7
100
AcDbLine
 10
-10.41421356237309
 20
-27.00000000000001
 30
0.0
 11
-14.00000000000001
 21
-23.41421356237305
 31
0.0
  0
LINE
  5
4A0
330
487
100
AcDbEntity
  8
0
  6
Continuous
 62
     7
100
AcDbLine
 10
-10.0
 20
-26.00000000000001
 30
0.0
 11
-13.00000000000001
 21
-22.99999999999994
 31
0.0
  0
LINE
  5
4A1
330
487
100
AcDbEntity
  8
0
  6
Continuous
 62
     7
100
AcDbLine
 10
-15.00000000000001
 20
-19.50000000000001
 30
0.0
 11
-14.50000000000001
 21
-20.0
 31
0.0
  0
LINE
  5
4A2
330
487
100
AcDbEntity
  8
0
  6
Continuous
 62
     7
100
AcDbLine
 10
-14.00000000000001
 20
-20.0
 30
0.0
 11
-14.50000000000001
 21
-20.0
 31
0.0
  0
LINE
  5
4A3
330
487
100
AcDbEntity
  8
0
  6
Continuous
 62
     7
100
AcDbLine
 10
-14.00000000000001
 20
19.99999999999999
 30
0.0
 11
-14.50000000000001
 21
19.99999999999999
 31
0.0
  0
LINE
  5
4A4
330
487
100
AcDbEntity
  8
0
  6
Continuous
 62
     7
100
AcDbLine
 10
-15.00000000000001
 20
19.49999999999999
 30
0.0
 11
-14.50000000000001
 21
19.99999999999999
 31
0.0
  0
LINE
  5
4A5
330
487
100
AcDbEntity
  8
0
  6
Continuous
 62
     7
100
AcDbLine
 10
-13.00000000000001
 20
-22.99999999999994
 30
0.0
 11
-13.00000000000001
 21
22.99999999999994
 31
0.0
  0
LINE
  5
4A6
330
487
100
AcDbEntity
  8
0
  6
Continuous
 62
     7
100
AcDbLine
 10
-14.00000000000001
 20
-23.41421356237305
 30
0.0
 11
-14.00000000000001
 21
23.41421356237304
 31
0.0
  0
LINE
  5
4A7
330
487
100
AcDbEntity
  8
0
  6
Continuous
 62
     7
100
AcDbLine
 10
-10.0
 20
26.0
 30
0.0
 11
-13.00000000000001
 21
22.99999999999994
 31
0.0
  0
LINE
  5
4A8
330
487
100
AcDbEntity
  8
0
  6
Continuous
 62
     7
100
AcDbLine
 10
-10.41421356237309
 20
26.99999999999999
 30
0.0
 11
-14.00000000000001
 21
23.41421356237304
 31
0.0
  0
LINE
  5
4A9
330
487
100
AcDbEntity
  8
0
  6
Continuous
 62
     7
100
AcDbLine
 10
14.0
 20
-20.0
 30
0.0
 11
14.5
 21
-20.0
 31
0.0
  0
LINE
  5
4AA
330
487
100
AcDbEntity
  8
0
  6
Continuous
 62
     7
100
AcDbLine
 10
15.0
 20
-19.50000000000001
 30
0.0
 11
14.5
 21
-20.0
 31
0.0
  0
LINE
  5
4AB
330
487
100
AcDbEntity
  8
0
  6
Continuous
 62
     7
100
AcDbLine
 10
15.0
 20
19.49999999999999
 30
0.0
 11
14.5
 21
19.99999999999999
 31
0.0
  0
LINE
  5
4AC
330
487
100
AcDbEntity
  8
0
  6
Continuous
 62
     7
100
AcDbLine
 10
14.0
 20
19.99999999999999
 30
0.0
 11
14.5
 21
19.99999999999999
 31
0.0
  0
ARC
  5
4AD
330
487
100
AcDbEntity
  8
0
  6
Continuous
 62
     7
100
AcDbCircle
 10
8.399999999999991
 20
17.99999999999999
 30
0.0
 40
1.0
100
AcDbArc
 50
53.13010235415639
 51
84.26082952273191
  0
LINE
  5
4AE
330
487
100
AcDbEntity
  8
0
  6
Continuous
 62
     7
100
AcDbLine
 10
8.299999999999997
 20
7.999999999999987
 30
0.0
 11
8.299999999999997
 21
6.999999999999985
 31
0.0
  0
LINE
  5
4AF
330
487
100
AcDbEntity
  8
0
  6
Continuous
 62
     7
100
AcDbLine
 10
-8.299999999999997
 20
8.0
 30
0.0
 11
-8.299999999999997
 21
7.0
 31
0.0
  0
LINE
  5
4B0
330
487
100
AcDbEntity
  8
0
  6
DASHED
 62
     2
100
AcDbLine
 10
4.694949269294696
 20
15.2
 30
0.0
 11
-8.236763834953293
 21
15.2
 31
0.0
  0
LINE
  5
4B1
330
487
100
AcDbEntity
  8
0
  6
CENTER
 62
     2
100
AcDbLine
 10
-6.5
 20
17.20732606897748
 30
0.0
 11
-6.5
 21
13.21473513152737
 31
0.0
  0
CIRCLE
  5
4B2
330
487
100
AcDbEntity
  8
0
  6
Continuous
 62
     2
100
AcDbCircle
 10
-6.5
 20
15.2
 30
0.0
 40
1.25
  0
CIRCLE
  5
4B3
330
487
100
AcDbEntity
  8
0
  6
Continuous
 62
     7
100
AcDbCircle
 10
-6.5
 20
15.2
 30
0.0
 40
1.024999999999999
  0
LINE
  5
4B4
330
487
100
AcDbEntity
  8
0
  6
Continuous
 62
     7
100
AcDbLine
 10
-8.299999999999997
 20
22.4
 30
0.0
 11
-8.299999999999997
 21
23.4
 31
0.0
  0
LINE
  5
4B5
330
487
100
AcDbEntity
  8
0
  6
Continuous
 62
     7
100
AcDbLine
 10
-8.5
 20
22.4
 30
0.0
 11
-8.5
 21
8.0
 31
0.0
  0
LINE
  5
4B6
330
487
100
AcDbEntity
  8
0
  6
Continuous
 62
     7
100
AcDbLine
 10
8.299999999999997
 20
22.4
 30
0.0
 11
8.299999999999997
 21
23.4
 31
0.0
  0
LINE
  5
4B7
330
487
100
AcDbEntity
  8
0
  6
Continuous
 62
     7
100
AcDbLine
 10
8.5
 20
22.4
 30
0.0
 11
8.5
 21
7.999999999999987
 31
0.0
  0
LINE
  5
4B8
330
487
100
AcDbEntity
  8
0
  6
Continuous
 62
     7
100
AcDbLine
 10
8.299999999999997
 20
23.4
 30
0.0
 11
-8.299999999999997
 21
23.4
 31
0.0
  0
LINE
  5
4B9
330
487
100
AcDbEntity
  8
0
  6
Continuous
 62
     7
100
AcDbLine
 10
9.0
 20
19.99999999999999
 30
0.0
 11
8.5
 21
20.49999999999999
 31
0.0
  0
ARC
  5
4BA
330
487
100
AcDbEntity
  8
0
  6
Continuous
 62
     7
100
AcDbCircle
 10
8.399999999999991
 20
20.99999999999999
 30
0.0
 40
1.0
100
AcDbArc
 50
0.0
 51
84.26082952273191
  0
LINE
  5
4BB
330
487
100
AcDbEntity
  8
0
  6
Continuous
 62
     7
100
AcDbLine
 10
9.399999999999991
 20
-11.0
 30
0.0
 11
9.0
 21
-11.0
 31
0.0
  0
ARC
  5
4BC
330
487
100
AcDbEntity
  8
0
  6
Continuous
 62
     7
100
AcDbCircle
 10
8.399999999999991
 20
-11.0
 30
0.0
 40
1.0
100
AcDbArc
 50
275.7391704772673
 51
0.0
  0
LINE
  5
4BD
330
487
100
AcDbEntity
  8
0
  6
Continuous
 62
     7
100
AcDbLine
 10
9.399999999999991
 20
20.99999999999999
 30
0.0
 11
9.399999999999991
 21
-11.0
 31
0.0
  0
LINE
  5
4BE
330
487
100
AcDbEntity
  8
0
  6
Continuous
 62
     7
100
AcDbLine
 10
9.0
 20
19.99999999999999
 30
0.0
 11
9.0
 21
-11.0
 31
0.0
  0
LINE
  5
4BF
330
487
100
AcDbEntity
  8
0
  6
Continuous
 62
     7
100
AcDbLine
 10
8.5
 20
-1.999999999999999
 30
0.0
 11
9.0
 21
-1.499999999999856
 31
0.0
  0
LINE
  5
4C0
330
487
100
AcDbEntity
  8
0
  6
Continuous
 62
     7
100
AcDbLine
 10
3.5
 20
-1.999999999999999
 30
0.0
 11
8.5
 21
-1.999999999999999
 31
0.0
  0
ARC
  5
4C1
330
487
100
AcDbEntity
  8
0
  6
Continuous
 62
     7
100
AcDbCircle
 10
0.0
 20
7.499999999999999
 30
0.0
 40
2.1
100
AcDbArc
 50
193.7741469980265
 51
346.2258530019724
  0
ARC
  5
4C2
330
487
100
AcDbEntity
  8
0
  6
Continuous
 62
     7
100
AcDbCircle
 10
0.0
 20
7.499999999999999
 30
0.0
 40
1.9
100
AcDbArc
 50
195.2575232904561
 51
344.7424767095429
  0
ARC
  5
4C3
330
487
100
AcDbEntity
  8
0
  6
Continuous
 62
     7
100
AcDbCircle
 10
0.0
 20
7.499999999999999
 30
0.0
 40
1.649999999999999
100
AcDbArc
 50
197.6397013942357
 51
342.3602986057633
  0
LINE
  5
4C4
330
487
100
AcDbEntity
  8
0
  6
Continuous
 62
     7
100
AcDbLine
 10
-0.0000000325402141
 20
6.633974615002615
 30
0.0
 11
0.7500000421507025
 21
7.06698734259757
 31
0.0
  0
LINE
  5
4C5
330
487
100
AcDbEntity
  8
0
  6
Continuous
 62
     7
100
AcDbLine
 10
-0.75
 20
7.066987335681915
 30
0.0
 11
0.0000000596046021
 21
6.633974581956865
 31
0.0
  0
LINE
  5
4C6
330
487
100
AcDbEntity
  8
0
  6
CENTER
 62
     2
100
AcDbLine
 10
6.5
 20
17.20732606897748
 30
0.0
 11
6.5
 21
13.21473513152737
 31
0.0
  0
CIRCLE
  5
4C7
330
487
100
AcDbEntity
  8
0
  6
Continuous
 62
     7
100
AcDbCircle
 10
6.5
 20
15.2
 30
0.0
 40
1.024999999999999
  0
CIRCLE
  5
4C8
330
487
100
AcDbEntity
  8
0
  6
Continuous
 62
     2
100
AcDbCircle
 10
6.5
 20
15.2
 30
0.0
 40
1.25
  0
LINE
  5
4C9
330
487
100
AcDbEntity
  8
0
  6
CENTER
 62
     2
100
AcDbLine
 10
4.694949269294696
 20
15.2
 30
0.0
 11
8.236763834953308
 21
15.2
 31
0.0
  0
LINE
  5
4CA
330
487
100
AcDbEntity
  8
0
  6
Continuous
 62
     7
100
AcDbLine
 10
8.299999999999997
 20
6.999999999999985
 30
0.0
 11
-8.299999999999997
 21
7.0
 31
0.0
  0
LINE
  5
4CB
330
487
100
AcDbEntity
  8
0
  6
Continuous
 62
     7
100
AcDbLine
 10
8.5
 20
7.999999999999987
 30
0.0
 11
-8.5
 21
8.0
 31
0.0
  0
LINE
  5
4CC
330
487
100
AcDbEntity
  8
0
  6
Continuous
 62
     7
100
AcDbLine
 10
-9.0
 20
-20.0
 30
0.0
 11
-8.500000000000099
 21
-20.50000000000001
 31
0.0
  0
LINE
  5
4CD
330
487
100
AcDbEntity
  8
0
  6
DASHED
 62
     7
100
AcDbLine
 10
8.499999960729297
 20
-18.13397457354259
 30
0.0
 11
8.499999969084896
 21
-19.86602545476111
 31
0.0
  0
ARC
  5
4CE
330
487
100
AcDbEntity
  8
0
  6
Continuous
 62
     7
100
AcDbCircle
 10
7.0
 20
-19.0
 30
0.0
 40
2.45
100
AcDbArc
 50
307.7520013061722
 51
52.24799869382683
  0
ARC
  5
4CF
330
487
100
AcDbEntity
  8
0
  6
Continuous
 62
     7
100
AcDbCircle
 10
7.0
 20
-19.0
 30
0.0
 40
2.75
100
AcDbArc
 50
303.0557311508531
 51
56.94426884914593
  0
ARC
  5
4D0
330
487
100
AcDbEntity
  8
0
  6
Continuous
 62
     7
100
AcDbCircle
 10
7.0
 20
-19.0
 30
0.0
 40
3.25
100
AcDbArc
 50
297.4864262503807
 51
62.51357374961838
  0
LINE
  5
4D1
330
487
100
AcDbEntity
  8
0
  6
DASHED
 62
     7
100
AcDbLine
 10
-8.499999960729297
 20
18.13397457354257
 30
0.0
 11
-8.499999969084896
 21
19.86602545476111
 31
0.0
  0
ARC
  5
4D2
330
487
100
AcDbEntity
  8
0
  6
Continuous
 62
     7
100
AcDbCircle
 10
-7.0
 20
18.99999999999999
 30
0.0
 40
2.45
100
AcDbArc
 50
127.7520013061731
 51
232.2479986938268
  0
ARC
  5
4D3
330
487
100
AcDbEntity
  8
0
  6
Continuous
 62
     7
100
AcDbCircle
 10
-7.0
 20
18.99999999999999
 30
0.0
 40
2.75
100
AcDbArc
 50
123.055731150854
 51
236.9442688491459
  0
ARC
  5
4D4
330
487
100
AcDbEntity
  8
0
  6
Continuous
 62
     7
100
AcDbCircle
 10
-7.0
 20
18.99999999999999
 30
0.0
 40
3.25
100
AcDbArc
 50
117.4864262503807
 51
242.5135737496184
  0
LINE
  5
4D5
330
487
100
AcDbEntity
  8
0
  6
Continuous
 62
     7
100
AcDbLine
 10
4.5
 20
30.00000000136194
 30
0.0
 11
5.0
 21
29.50000000136194
 31
0.0
  0
LINE
  5
4D6
330
487
100
AcDbEntity
  8
0
  6
Continuous
 62
     7
100
AcDbLine
 10
5.0
 20
29.50000000136194
 30
0.0
 11
5.0
 21
27.00000000136196
 31
0.0
  0
LINE
  5
4D7
330
487
100
AcDbEntity
  8
0
  6
Continuous
 62
     7
100
AcDbLine
 10
-5.0
 20
29.50000000136194
 30
0.0
 11
-4.5
 21
30.00000000136194
 31
0.0
  0
LINE
  5
4D8
330
487
100
AcDbEntity
  8
0
  6
Continuous
 62
     7
100
AcDbLine
 10
5.0
 20
29.50000000136194
 30
0.0
 11
-5.0
 21
29.50000000136194
 31
0.0
  0
LINE
  5
4D9
330
487
100
AcDbEntity
  8
0
  6
Continuous
 62
     7
100
AcDbLine
 10
-5.0
 20
29.50000000136194
 30
0.0
 11
-5.0
 21
27.000000001362
 31
0.0
  0
LINE
  5
4DA
330
487
100
AcDbEntity
  8
0
  6
Continuous
 62
     7
100
AcDbLine
 10
4.5
 20
30.00000000136194
 30
0.0
 11
-4.5
 21
30.00000000136194
 31
0.0
  0
LINE
  5
4DB
330
487
100
AcDbEntity
  8
0
  6
Continuous
 62
     7
100
AcDbLine
 10
0.6339745358028921
 20
-7.000000000000007
 30
0.0
 11
-0.0000000596047016
 21
-6.633974581956858
 31
0.0
  0
LINE
  5
4DC
330
487
100
AcDbEntity
  8
0
  6
Continuous
 62
     7
100
AcDbLine
 10
0.0000000325400862
 20
-6.633974615002639
 30
0.0
 11
-0.6339745566399984
 21
-7.000000000000007
 31
0.0
  0
ARC
  5
4DD
330
487
100
AcDbEntity
  8
0
  6
Continuous
 62
     7
100
AcDbCircle
 10
0.0
 20
-7.499999999999998
 30
0.0
 40
1.649999999999999
100
AcDbArc
 50
17.63970139423603
 51
162.3602986057638
  0
ARC
  5
4DE
330
487
100
AcDbEntity
  8
0
  6
Continuous
 62
     7
100
AcDbCircle
 10
0.0
 20
-7.499999999999998
 30
0.0
 40
1.9
100
AcDbArc
 50
15.25752329045644
 51
164.7424767095432
  0
ARC
  5
4DF
330
487
100
AcDbEntity
  8
0
  6
Continuous
 62
     7
100
AcDbCircle
 10
0.0
 20
-7.499999999999998
 30
0.0
 40
2.1
100
AcDbArc
 50
13.77414699802678
 51
166.225853001973
  0
LINE
  5
4E0
330
487
100
AcDbEntity
  8
0
  6
Continuous
 62
     7
100
AcDbLine
 10
-8.5
 20
2.000000000000001
 30
0.0
 11
-9.0
 21
1.499999999999859
 31
0.0
  0
LINE
  5
4E1
330
487
100
AcDbEntity
  8
0
  6
Continuous
 62
     7
100
AcDbLine
 10
-3.5
 20
2.000000000000001
 30
0.0
 11
-8.5
 21
2.000000000000001
 31
0.0
  0
LINE
  5
4E2
330
487
100
AcDbEntity
  8
0
  6
Continuous
 62
     7
100
AcDbLine
 10
-3.5
 20
-7.000000000000007
 30
0.0
 11
-3.5
 21
7.0
 31
0.0
  0
LINE
  5
4E3
330
487
100
AcDbEntity
  8
0
  6
Continuous
 62
     7
100
AcDbLine
 10
3.5
 20
23.4
 30
0.0
 11
3.5
 21
26.0
 31
0.0
  0
LINE
  5
4E4
330
487
100
AcDbEntity
  8
0
  6
Continuous
 62
     7
100
AcDbLine
 10
-3.5
 20
26.0
 30
0.0
 11
-3.5
 21
23.4
 31
0.0
  0
LINE
  5
4E5
330
487
100
AcDbEntity
  8
0
  6
Continuous
 62
     7
100
AcDbLine
 10
3.5
 20
-7.000000000000007
 30
0.0
 11
3.5
 21
7.0
 31
0.0
  0
CIRCLE
  5
4E6
330
487
100
AcDbEntity
  8
0
  6
Continuous
 62
     7
100
AcDbCircle
 10
-6.5
 20
-15.2
 30
0.0
 40
1.024999999999999
  0
CIRCLE
  5
4E7
330
487
100
AcDbEntity
  8
0
  6
Continuous
 62
     2
100
AcDbCircle
 10
-6.5
 20
-15.2
 30
0.0
 40
1.25
  0
LINE
  5
4E8
330
487
100
AcDbEntity
  8
0
  6
CENTER
 62
     2
100
AcDbLine
 10
4.694949269294696
 20
-15.2
 30
0.0
 11
-8.236763834953293
 21
-15.2
 31
0.0
  0
LINE
  5
4E9
330
487
100
AcDbEntity
  8
0
  6
CENTER
 62
     2
100
AcDbLine
 10
-6.5
 20
-17.20732606897751
 30
0.0
 11
-6.5
 21
-13.21473513152739
 31
0.0
  0
CIRCLE
  5
4EA
330
487
100
AcDbEntity
  8
0
  6
Continuous
 62
     7
100
AcDbCircle
 10
6.5
 20
-15.2
 30
0.0
 40
1.024999999999999
  0
CIRCLE
  5
4EB
330
487
100
AcDbEntity
  8
0
  6
Continuous
 62
     2
100
AcDbCircle
 10
6.5
 20
-15.2
 30
0.0
 40
1.25
  0
LINE
  5
4EC
330
487
100
AcDbEntity
  8
0
  6
CENTER
 62
     2
100
AcDbLine
 10
4.694949269294696
 20
-15.2
 30
0.0
 11
8.236763834953308
 21
-15.2
 31
0.0
  0
LINE
  5
4ED
330
487
100
AcDbEntity
  8
0
  6
CENTER
 62
     2
100
AcDbLine
 10
6.5
 20
-17.20732606897751
 30
0.0
 11
6.5
 21
-13.21473513152739
 31
0.0
  0
LINE
  5
4EE
330
487
100
AcDbEntity
  8
0
  6
Continuous
 62
     7
100
AcDbLine
 10
-8.299999999999997
 20
-7.000000000000007
 30
0.0
 11
8.299999999999997
 21
-7.000000000000007
 31
0.0
  0
LINE
  5
4EF
330
487
100
AcDbEntity
  8
0
  6
Continuous
 62
     7
100
AcDbLine
 10
-8.5
 20
-8.000000000000007
 30
0.0
 11
8.5
 21
-8.000000000000007
 31
0.0
  0
LINE
  5
4F0
330
487
100
AcDbEntity
  8
0
  6
Continuous
 62
     7
100
AcDbLine
 10
-8.299999999999997
 20
-23.40000000000001
 30
0.0
 11
8.299999999999997
 21
-23.40000000000001
 31
0.0
  0
LINE
  5
4F1
330
487
100
AcDbEntity
  8
0
  6
Continuous
 62
     7
100
AcDbLine
 10
-8.5
 20
-22.40000000000001
 30
0.0
 11
8.5
 21
-22.40000000000001
 31
0.0
  0
LINE
  5
4F2
330
487
100
AcDbEntity
  8
0
  6
Continuous
 62
     7
100
AcDbLine
 10
-8.299999999999997
 20
-22.40000000000001
 30
0.0
 11
-8.299999999999997
 21
-23.40000000000001
 31
0.0
  0
LINE
  5
4F3
330
487
100
AcDbEntity
  8
0
  6
Continuous
 62
     7
100
AcDbLine
 10
-8.299999999999997
 20
-8.000000000000007
 30
0.0
 11
-8.299999999999997
 21
-7.000000000000007
 31
0.0
  0
LINE
  5
4F4
330
487
100
AcDbEntity
  8
0
  6
Continuous
 62
     7
100
AcDbLine
 10
-8.5
 20
-22.40000000000001
 30
0.0
 11
-8.5
 21
-8.000000000000007
 31
0.0
  0
LINE
  5
4F5
330
487
100
AcDbEntity
  8
0
  6
Continuous
 62
     7
100
AcDbLine
 10
8.5
 20
-22.40000000000001
 30
0.0
 11
8.5
 21
-8.000000000000007
 31
0.0
  0
LINE
  5
4F6
330
487
100
AcDbEntity
  8
0
  6
Continuous
 62
     7
100
AcDbLine
 10
8.299999999999997
 20
-8.000000000000007
 30
0.0
 11
8.299999999999997
 21
-7.000000000000007
 31
0.0
  0
LINE
  5
4F7
330
487
100
AcDbEntity
  8
0
  6
Continuous
 62
     7
100
AcDbLine
 10
8.299999999999997
 20
-22.40000000000001
 30
0.0
 11
8.299999999999997
 21
-23.40000000000001
 31
0.0
  0
LINE
  5
4F8
330
487
100
AcDbEntity
  8
0
  6
Continuous
 62
     7
100
AcDbLine
 10
-3.5
 20
-26.00000000000001
 30
0.0
 11
-3.5
 21
-23.40000000000001
 31
0.0
  0
LINE
  5
4F9
330
487
100
AcDbEntity
  8
0
  6
Continuous
 62
     7
100
AcDbLine
 10
13.0
 20
-22.99999999999994
 30
0.0
 11
13.0
 21
22.99999999999994
 31
0.0
  0
LINE
  5
4FA
330
487
100
AcDbEntity
  8
0
  6
Continuous
 62
     7
100
AcDbLine
 10
4.5
 20
-26.00000000000001
 30
0.0
 11
4.5
 21
-23.40000000000001
 31
0.0
  0
LINE
  5
4FB
330
487
100
AcDbEntity
  8
0
  6
Continuous
 62
     7
100
AcDbLine
 10
3.5
 20
-25.50000000000001
 30
0.0
 11
-3.5
 21
-25.50000000000001
 31
0.0
  0
LINE
  5
4FC
330
487
100
AcDbEntity
  8
0
  6
Continuous
 62
     7
100
AcDbLine
 10
10.0
 20
26.0
 30
0.0
 11
-10.0
 21
26.0
 31
0.0
  0
LINE
  5
4FD
330
487
100
AcDbEntity
  8
0
  6
Continuous
 62
     7
100
AcDbLine
 10
10.0
 20
-26.00000000000001
 30
0.0
 11
-10.0
 21
-26.00000000000001
 31
0.0
  0
LINE
  5
4FE
330
487
100
AcDbEntity
  8
0
  6
Continuous
 62
     7
100
AcDbLine
 10
4.5
 20
23.4
 30
0.0
 11
4.5
 21
26.0
 31
0.0
  0
LINE
  5
4FF
330
487
100
AcDbEntity
  8
0
  6
Continuous
 62
     7
100
AcDbLine
 10
3.5
 20
-23.40000000000001
 30
0.0
 11
3.5
 21
-26.00000000000001
 31
0.0
  0
LINE
  5
500
330
487
100
AcDbEntity
  8
0
  6
Continuous
 62
     7
100
AcDbLine
 10
3.5
 20
25.49999999999999
 30
0.0
 11
-3.5
 21
25.49999999999999
 31
0.0
  0
ARC
  5
501
330
487
100
AcDbEntity
  8
0
  6
Continuous
 62
     7
100
AcDbCircle
 10
-8.400000000000005
 20
11.0
 30
0.0
 40
1.0
100
AcDbArc
 50
95.73917047726808
 51
179.9999999999995
  0
ARC
  5
502
330
487
100
AcDbEntity
  8
0
  6
Continuous
 62
     7
100
AcDbCircle
 10
-8.400000000000005
 20
-21.00000000000001
 30
0.0
 40
1.0
100
AcDbArc
 50
179.9999999999995
 51
264.2608295227311
  0
LINE
  5
503
330
487
100
AcDbEntity
  8
0
  6
Continuous
 62
     7
100
AcDbLine
 10
12.0
 20
-27.00000000000001
 30
0.0
 11
-11.9999999999995
 21
-27.00000000000001
 31
0.0
  0
LINE
  5
504
330
487
100
AcDbEntity
  8
0
  6
Continuous
 62
     7
100
AcDbLine
 10
-15.00000000000001
 20
-24.0
 30
0.0
 11
-15.00000000000001
 21
23.99999999999999
 31
0.0
  0
LINE
  5
505
330
487
100
AcDbEntity
  8
0
  6
Continuous
 62
     7
100
AcDbLine
 10
12.0
 20
26.99999999999999
 30
0.0
 11
-11.9999999999995
 21
26.99999999999999
 31
0.0
  0
LINE
  5
506
330
487
100
AcDbEntity
  8
0
  6
Continuous
 62
     7
100
AcDbLine
 10
15.0
 20
-23.99999999999994
 30
0.0
 11
15.0
 21
23.99999999999994
 31
0.0
  0
LINE
  5
507
330
487
100
AcDbEntity
  8
0
  6
Continuous
 62
     7
100
AcDbLine
 10
14.0
 20
-23.41421356237305
 30
0.0
 11
14.0
 21
23.41421356237304
 31
0.0
  0
LINE
  5
508
330
487
100
AcDbEntity
  8
0
  6
Continuous
 62
     7
100
AcDbLine
 10
-15.00000000000001
 20
23.99999999999999
 30
0.0
 11
-11.9999999999995
 21
26.99999999999999
 31
0.0
  0
LINE
  5
509
330
487
100
AcDbEntity
  8
0
  6
Continuous
 62
     7
100
AcDbLine
 10
12.0
 20
26.99999999999999
 30
0.0
 11
15.0
 21
23.99999999999994
 31
0.0
  0
LINE
  5
50A
330
487
100
AcDbEntity
  8
0
  6
Continuous
 62
     7
100
AcDbLine
 10
10.0
 20
26.0
 30
0.0
 11
13.0
 21
22.99999999999994
 31
0.0
  0
LINE
  5
50B
330
487
100
AcDbEntity
  8
0
  6
Continuous
 62
     7
100
AcDbLine
 10
10.4142135623731
 20
26.99999999999999
 30
0.0
 11
14.0
 21
23.41421356237304
 31
0.0
  0
LINE
  5
50C
330
487
100
AcDbEntity
  8
0
  6
Continuous
 62
     7
100
AcDbLine
 10
-15.00000000000001
 20
-24.0
 30
0.0
 11
-11.9999999999995
 21
-27.00000000000001
 31
0.0
  0
LINE
  5
50D
330
487
100
AcDbEntity
  8
0
  6
Continuous
 62
     7
100
AcDbLine
 10
10.4142135623731
 20
-27.00000000000001
 30
0.0
 11
14.0
 21
-23.41421356237305
 31
0.0
  0
LINE
  5
50E
330
487
100
AcDbEntity
  8
0
  6
Continuous
 62
     7
100
AcDbLine
 10
12.0
 20
-27.00000000000001
 30
0.0
 11
15.0
 21
-23.99999999999994
 31
0.0
  0
LINE
  5
50F
330
487
100
AcDbEntity
  8
0
  6
Continuous
 62
     7
100
AcDbLine
 10
10.0
 20
-26.00000000000001
 30
0.0
 11
13.0
 21
-22.99999999999994
 31
0.0
  0
ARC
  5
510
330
487
100
AcDbEntity
  8
0
  6
Continuous
 62
     7
100
AcDbCircle
 10
-8.400000000000005
 20
-18.0
 30
0.0
 40
1.0
100
AcDbArc
 50
233.1301023541563
 51
264.2608295227311
  0
LINE
  5
511
330
487
100
AcDbEntity
  8
0
  6
Continuous
 62
     7
100
AcDbLine
 10
-9.400000000000005
 20
-21.00000000000001
 30
0.0
 11
-9.400000000000005
 21
11.0
 31
0.0
  0
LINE
  5
512
330
487
100
AcDbEntity
  8
0
  6
Continuous
 62
     7
100
AcDbLine
 10
-9.0
 20
-20.0
 30
0.0
 11
-9.0
 21
11.0
 31
0.0
  0
LINE
  5
513
330
487
100
AcDbEntity
  8
0
  6
Continuous
 62
     7
100
AcDbLine
 10
-9.400000000000005
 20
11.0
 30
0.0
 11
-9.0
 21
11.0
 31
0.0
  0
LINE
  5
514
330
487
100
AcDbEntity
  8
0
  6
Continuous
 62
     7
100
AcDbLine
 10
8.5
 20
22.4
 30
0.0
 11
-8.5
 21
22.4
 31
0.0
  0
LINE
  5
515
330
487
100
AcDbEntity
  8
0
  6
Continuous
 62
     7
100
AcDbLine
 10
-9.0
 20
-20.0
 30
0.0
 11
-9.400000000000005
 21
-20.0
 31
0.0
  0
LINE
  5
516
330
487
100
AcDbEntity
  8
0
  6
Continuous
 62
     7
100
AcDbLine
 10
9.0
 20
19.99999999999999
 30
0.0
 11
9.399999999999991
 21
19.99999999999999
 31
0.0
  0
LINE
  5
517
330
487
100
AcDbEntity
  8
0
  6
CENTER
 62
     2
100
AcDbLine
 10
16.99463008164301
 20
0.0000000000000018
 30
0.0
 11
-17.61608907379129
 21
0.0000000000000018
 31
0.0
  0
LINE
  5
518
330
487
100
AcDbEntity
  8
0
  6
CENTER
 62
     2
100
AcDbLine
 10
0.0
 20
-29.8039024390244
 30
0.0
 11
0.0
 21
38.76688727752144
 31
0.0
  0
LINE
  5
519
330
487
100
AcDbEntity
  8
0
  6
Continuous
 62
     7
100
AcDbLine
 10
-2.5
 20
30.00000000136194
 30
0.0
 11
-2.5
 21
37.21164678293313
 31
0.0
  0
LINE
  5
51A
330
487
100
AcDbEntity
  8
0
  6
Continuous
 62
     2
100
AcDbLine
 10
3.658895287406494
 20
35.56137576129068
 30
0.0
 11
-3.516555988867608
 21
37.48403213972518
 31
0.0
  0
CIRCLE
  5
51B
330
487
100
AcDbEntity
  8
0
  6
Continuous
100
AcDbCircle
 10
0.0
 20
15.2
 30
0.0
 40
1.5
  0
CIRCLE
  5
51C
330
487
100
AcDbEntity
  8
0
  6
Continuous
100
AcDbCircle
 10
0.0
 20
-15.19999999999999
 30
0.0
 40
1.5
  0
ENDBLK
  5
489
330
487
100
AcDbEntity
  8
0
100
AcDbBlockEnd
  0
BLOCK
  5
51F
330
51E
100
AcDbEntity
  8
0
100
AcDbBlockBegin
  2
EWHA12A-3
 70
     0
 10
0.0
 20
0.0
 30
0.0
  3
EWHA12A-3
  1

  0
LINE
  5
521
330
51E
100
AcDbEntity
  8
0
  6
CENTER
 62
     2
100
AcDbLine
 10
-0.5177057077965515
 20
31.85770026807198
 30
0.0
 11
-0.5177057077965515
 21
-33.94256269759637
 31
0.0
  0
LINE
  5
522
330
51E
100
AcDbEntity
  8
0
  6
CENTER
 62
     2
100
AcDbLine
 10
17.45910456682058
 20
0.0
 30
0.0
 11
-17.4591045668206
 21
0.0
 31
0.0
  0
LINE
  5
523
330
51E
100
AcDbEntity
  8
0
  6
Continuous
 62
     7
100
AcDbLine
 10
-7.517705707796551
 20
-23.0
 30
0.0
 11
-7.517705707796551
 21
-27.0
 31
0.0
  0
LINE
  5
524
330
51E
100
AcDbEntity
  8
0
  6
Continuous
 62
     7
100
AcDbLine
 10
10.23229429220339
 20
1.25
 30
0.0
 11
10.73229429220339
 21
1.25
 31
0.0
  0
LINE
  5
525
330
51E
100
AcDbEntity
  8
0
  6
Continuous
 62
     7
100
AcDbLine
 10
10.23229429220339
 20
-1.249999999999999
 30
0.0
 11
10.73229429220339
 21
-1.249999999999999
 31
0.0
  0
ARC
  5
526
330
51E
100
AcDbEntity
  8
0
  6
Continuous
 62
     7
100
AcDbCircle
 10
10.73229429220339
 20
0.0
 30
0.0
 40
1.25
100
AcDbArc
 50
269.9999999999992
 51
90.0
  0
ARC
  5
527
330
51E
100
AcDbEntity
  8
0
  6
Continuous
 62
     7
100
AcDbCircle
 10
10.23229429220339
 20
0.0
 30
0.0
 40
1.25
100
AcDbArc
 50
90.0
 51
269.9999999999992
  0
CIRCLE
  5
528
330
51E
100
AcDbEntity
  8
0
  6
Continuous
 62
     7
100
AcDbCircle
 10
-11.51770570779655
 20
0.0
 30
0.0
 40
1.25
  0
LINE
  5
529
330
51E
100
AcDbEntity
  8
0
  6
Continuous
 62
     7
100
AcDbLine
 10
11.48229429220339
 20
-27.0
 30
0.0
 11
-12.51770570779644
 21
-27.0
 31
0.0
  0
LINE
  5
52A
330
51E
100
AcDbEntity
  8
0
  6
Continuous
 62
     7
100
AcDbLine
 10
11.48229429220339
 20
27.0
 30
0.0
 11
-12.51770570779655
 21
27.0
 31
0.0
  0
LINE
  5
52B
330
51E
100
AcDbEntity
  8
0
  6
Continuous
 62
     7
100
AcDbLine
 10
14.48229429220339
 20
24.0
 30
0.0
 11
14.48229429220339
 21
-23.99999999999997
 31
0.0
  0
LINE
  5
52C
330
51E
100
AcDbEntity
  8
0
  6
Continuous
 62
     7
100
AcDbLine
 10
-15.51770570779655
 20
24.00000000000009
 30
0.0
 11
-15.51770570779655
 21
-24.0
 31
0.0
  0
LINE
  5
52D
330
51E
100
AcDbEntity
  8
0
  6
CENTER
 62
     2
100
AcDbLine
 10
6.998853006667701
 20
23.0
 30
0.0
 11
13.59263099615229
 21
23.0
 31
0.0
  0
CIRCLE
  5
52E
330
51E
100
AcDbEntity
  8
0
  6
Continuous
 62
     2
100
AcDbCircle
 10
10.48229429220339
 20
23.0
 30
0.0
 40
2.0
  0
LINE
  5
52F
330
51E
100
AcDbEntity
  8
0
  6
CENTER
 62
     2
100
AcDbLine
 10
10.48229429220339
 20
19.3528534289419
 30
0.0
 11
10.48229429220339
 21
26.23046954380169
 31
0.0
  0
CIRCLE
  5
530
330
51E
100
AcDbEntity
  8
0
  6
Continuous
 62
     7
100
AcDbCircle
 10
10.48229429220339
 20
23.0
 30
0.0
 40
1.649999999999999
  0
LINE
  5
531
330
51E
100
AcDbEntity
  8
0
  6
DASHED
 62
     2
100
AcDbLine
 10
7.482294292203391
 20
23.0
 30
0.0
 11
7.482294292203391
 21
26.5
 31
0.0
  0
LINE
  5
532
330
51E
100
AcDbEntity
  8
0
  6
DASHED
 62
     2
100
AcDbLine
 10
10.48229429220339
 20
20.0
 30
0.0
 11
13.98229429220339
 21
20.0
 31
0.0
  0
ARC
  5
533
330
51E
100
AcDbEntity
  8
0
  6
DASHED
 62
     2
100
AcDbCircle
 10
10.48229429220339
 20
23.0
 30
0.0
 40
3.0
100
AcDbArc
 50
179.9999999999995
 51
269.9999999999992
  0
LINE
  5
534
330
51E
100
AcDbEntity
  8
0
  6
CENTER
 62
     2
100
AcDbLine
 10
6.998853006667701
 20
-23.0
 30
0.0
 11
13.59263099615229
 21
-23.0
 31
0.0
  0
CIRCLE
  5
535
330
51E
100
AcDbEntity
  8
0
  6
Continuous
 62
     2
100
AcDbCircle
 10
10.48229429220339
 20
-23.0
 30
0.0
 40
2.0
  0
LINE
  5
536
330
51E
100
AcDbEntity
  8
0
  6
CENTER
 62
     2
100
AcDbLine
 10
10.48229429220339
 20
-19.35285342894189
 30
0.0
 11
10.48229429220339
 21
-26.23046954380169
 31
0.0
  0
CIRCLE
  5
537
330
51E
100
AcDbEntity
  8
0
  6
Continuous
 62
     7
100
AcDbCircle
 10
10.48229429220339
 20
-23.0
 30
0.0
 40
1.649999999999999
  0
LINE
  5
538
330
51E
100
AcDbEntity
  8
0
  6
DASHED
 62
     2
100
AcDbLine
 10
7.482294292203391
 20
-23.0
 30
0.0
 11
7.482294292203391
 21
-26.5
 31
0.0
  0
ARC
  5
539
330
51E
100
AcDbEntity
  8
0
  6
DASHED
 62
     2
100
AcDbCircle
 10
10.48229429220339
 20
-23.0
 30
0.0
 40
3.0
100
AcDbArc
 50
90.0
 51
179.9999999999995
  0
LINE
  5
53A
330
51E
100
AcDbEntity
  8
0
  6
DASHED
 62
     2
100
AcDbLine
 10
10.48229429220339
 20
-20.0
 30
0.0
 11
13.98229429220339
 21
-20.0
 31
0.0
  0
LINE
  5
53B
330
51E
100
AcDbEntity
  8
0
  6
CENTER
 62
     2
100
AcDbLine
 10
-8.03426442226079
 20
-23.0
 30
0.0
 11
-14.62804241174541
 21
-23.0
 31
0.0
  0
CIRCLE
  5
53C
330
51E
100
AcDbEntity
  8
0
  6
Continuous
 62
     2
100
AcDbCircle
 10
-11.51770570779655
 20
-23.0
 30
0.0
 40
2.0
  0
LINE
  5
53D
330
51E
100
AcDbEntity
  8
0
  6
CENTER
 62
     2
100
AcDbLine
 10
-11.51770570779655
 20
-19.35285342894189
 30
0.0
 11
-11.51770570779655
 21
-26.23046954380169
 31
0.0
  0
CIRCLE
  5
53E
330
51E
100
AcDbEntity
  8
0
  6
Continuous
 62
     7
100
AcDbCircle
 10
-11.51770570779655
 20
-23.0
 30
0.0
 40
1.649999999999999
  0
LINE
  5
53F
330
51E
100
AcDbEntity
  8
0
  6
DASHED
 62
     2
100
AcDbLine
 10
-8.517705707796551
 20
-23.0
 30
0.0
 11
-8.517705707796551
 21
-26.5
 31
0.0
  0
ARC
  5
540
330
51E
100
AcDbEntity
  8
0
  6
DASHED
 62
     2
100
AcDbCircle
 10
-11.51770570779655
 20
-23.0
 30
0.0
 40
3.0
100
AcDbArc
 50
0.0
 51
90.0
  0
LINE
  5
541
330
51E
100
AcDbEntity
  8
0
  6
DASHED
 62
     2
100
AcDbLine
 10
-11.51770570779655
 20
-20.0
 30
0.0
 11
-15.01770570779655
 21
-20.0
 31
0.0
  0
LINE
  5
542
330
51E
100
AcDbEntity
  8
0
  6
CENTER
 62
     2
100
AcDbLine
 10
-8.03426442226079
 20
23.0
 30
0.0
 11
-14.62804241174541
 21
23.0
 31
0.0
  0
CIRCLE
  5
543
330
51E
100
AcDbEntity
  8
0
  6
Continuous
 62
     2
100
AcDbCircle
 10
-11.51770570779655
 20
23.0
 30
0.0
 40
2.0
  0
LINE
  5
544
330
51E
100
AcDbEntity
  8
0
  6
Continuous
 62
     2
100
AcDbLine
 10
-11.51770570779655
 20
19.3528534289419
 30
0.0
 11
-11.51770570779655
 21
26.23046954380169
 31
0.0
  0
CIRCLE
  5
545
330
51E
100
AcDbEntity
  8
0
  6
Continuous
 62
     7
100
AcDbCircle
 10
-11.51770570779655
 20
23.0
 30
0.0
 40
1.649999999999999
  0
LINE
  5
546
330
51E
100
AcDbEntity
  8
0
  6
DASHED
 62
     2
100
AcDbLine
 10
-8.517705707796551
 20
23.0
 30
0.0
 11
-8.517705707796551
 21
26.5
 31
0.0
  0
ARC
  5
547
330
51E
100
AcDbEntity
  8
0
  6
DASHED
 62
     2
100
AcDbCircle
 10
-11.51770570779655
 20
23.0
 30
0.0
 40
3.0
100
AcDbArc
 50
269.9999999999992
 51
0.0
  0
LINE
  5
548
330
51E
100
AcDbEntity
  8
0
  6
DASHED
 62
     2
100
AcDbLine
 10
-11.51770570779655
 20
20.0
 30
0.0
 11
-15.01770570779655
 21
20.0
 31
0.0
  0
LINE
  5
549
330
51E
100
AcDbEntity
  8
0
  6
CENTER
 62
     2
100
AcDbLine
 10
-11.51770570779655
 20
2.768129107943025
 30
0.0
 11
-11.51770570779655
 21
-2.723725442844085
 31
0.0
  0
CIRCLE
  5
54A
330
51E
100
AcDbEntity
  8
0
  6
Continuous
 62
     7
100
AcDbCircle
 10
-11.51770570779655
 20
0.0
 30
0.0
 40
1.0
  0
LINE
  5
54B
330
51E
100
AcDbEntity
  8
0
  6
Continuous
 62
     7
100
AcDbLine
 10
10.23229429220339
 20
-0.9999999999999991
 30
0.0
 11
10.73229429220339
 21
-0.9999999999999991
 31
0.0
  0
LINE
  5
54C
330
51E
100
AcDbEntity
  8
0
  6
Continuous
 62
     7
100
AcDbLine
 10
10.23229429220339
 20
1.0
 30
0.0
 11
10.73229429220339
 21
1.0
 31
0.0
  0
ARC
  5
54D
330
51E
100
AcDbEntity
  8
0
  6
Continuous
 62
     7
100
AcDbCircle
 10
10.23229429220339
 20
0.0
 30
0.0
 40
1.0
100
AcDbArc
 50
90.0
 51
269.9999999999992
  0
LINE
  5
54E
330
51E
100
AcDbEntity
  8
0
  6
CENTER
 62
     2
100
AcDbLine
 10
10.48229429220339
 20
2.084997655323121
 30
0.0
 11
10.48229429220339
 21
-2.098879633972074
 31
0.0
  0
LINE
  5
54F
330
51E
100
AcDbEntity
  8
0
  6
Continuous
 62
     7
100
AcDbLine
 10
-15.51770570779655
 20
-24.0
 30
0.0
 11
-12.51770570779644
 21
-27.0
 31
0.0
  0
LINE
  5
550
330
51E
100
AcDbEntity
  8
0
  6
Continuous
 62
     7
100
AcDbLine
 10
11.48229429220339
 20
-27.0
 30
0.0
 11
14.48229429220339
 21
-23.99999999999997
 31
0.0
  0
LINE
  5
551
330
51E
100
AcDbEntity
  8
0
  6
Continuous
 62
     7
100
AcDbLine
 10
14.48229429220339
 20
24.0
 30
0.0
 11
11.48229429220339
 21
27.0
 31
0.0
  0
LINE
  5
552
330
51E
100
AcDbEntity
  8
0
  6
Continuous
 62
     7
100
AcDbLine
 10
-12.51770570779655
 20
27.0
 30
0.0
 11
-15.51770570779655
 21
24.00000000000009
 31
0.0
  0
LINE
  5
553
330
51E
100
AcDbEntity
  8
0
  6
CENTER
 62
     2
100
AcDbLine
 10
10.23229429220339
 20
1.555510840281585
 30
0.0
 11
10.23229429220339
 21
-1.512624874320549
 31
0.0
  0
LINE
  5
554
330
51E
100
AcDbEntity
  8
0
  6
CENTER
 62
     2
100
AcDbLine
 10
10.73229429220339
 20
1.555510840281585
 30
0.0
 11
10.73229429220339
 21
-1.512624874320549
 31
0.0
  0
LINE
  5
555
330
51E
100
AcDbEntity
  8
0
  6
DASHED
 62
     2
100
AcDbLine
 10
6.482294292203391
 20
-26.0
 30
0.0
 11
-7.517705707796551
 21
-26.0
 31
0.0
  0
ARC
  5
556
330
51E
100
AcDbEntity
  8
0
  6
Continuous
 62
     7
100
AcDbCircle
 10
10.73229429220339
 20
0.0
 30
0.0
 40
1.0
100
AcDbArc
 50
269.9999999999992
 51
90.0
  0
LINE
  5
557
330
51E
100
AcDbEntity
  8
0
  6
DASHED
 62
     2
100
AcDbLine
 10
-8.517705707796551
 20
-26.5
 30
0.0
 11
-8.017705707796437
 21
-27.0
 31
0.0
  0
LINE
  5
558
330
51E
100
AcDbEntity
  8
0
  6
DASHED
 62
     2
100
AcDbLine
 10
7.482294292203391
 20
-26.5
 30
0.0
 11
6.982294292203391
 21
-27.0
 31
0.0
  0
LINE
  5
559
330
51E
100
AcDbEntity
  8
0
  6
DASHED
 62
     2
100
AcDbLine
 10
13.98229429220339
 20
-20.0
 30
0.0
 11
14.48229429220339
 21
-19.49999999999997
 31
0.0
  0
LINE
  5
55A
330
51E
100
AcDbEntity
  8
0
  6
DASHED
 62
     2
100
AcDbLine
 10
13.98229429220339
 20
20.0
 30
0.0
 11
14.48229429220339
 21
19.50000000000003
 31
0.0
  0
LINE
  5
55B
330
51E
100
AcDbEntity
  8
0
  6
DASHED
 62
     2
100
AcDbLine
 10
-15.01770570779655
 20
-20.0
 30
0.0
 11
-15.51770570779656
 21
-19.49999999999985
 31
0.0
  0
LINE
  5
55C
330
51E
100
AcDbEntity
  8
0
  6
DASHED
 62
     2
100
AcDbLine
 10
-15.01770570779655
 20
20.0
 30
0.0
 11
-15.51770570779655
 21
19.49999999999992
 31
0.0
  0
LINE
  5
55D
330
51E
100
AcDbEntity
  8
0
  6
DASHED
 62
     2
100
AcDbLine
 10
-8.517705707796551
 20
26.5
 30
0.0
 11
-8.017705707796494
 21
27.0
 31
0.0
  0
LINE
  5
55E
330
51E
100
AcDbEntity
  8
0
  6
DASHED
 62
     2
100
AcDbLine
 10
7.482294292203391
 20
26.5
 30
0.0
 11
6.982294292203491
 21
27.0
 31
0.0
  0
LINE
  5
55F
330
51E
100
AcDbEntity
  8
0
  6
Continuous
 62
     7
100
AcDbLine
 10
6.482294292203391
 20
-23.0
 30
0.0
 11
6.482294292203391
 21
-27.0
 31
0.0
  0
LINE
  5
560
330
51E
100
AcDbEntity
  8
0
  6
Continuous
 62
     7
100
AcDbLine
 10
11.85361463576308
 20
-17.62867963039016
 30
0.0
 11
6.482294292203391
 21
-22.9999999739498
 31
0.0
  0
LINE
  5
561
330
51E
100
AcDbEntity
  8
0
  6
Continuous
 62
     7
100
AcDbLine
 10
12.73229429220339
 20
15.50735926764307
 30
0.0
 11
12.73229429220339
 21
-15.50735926491918
 31
0.0
  0
ARC
  5
562
330
51E
100
AcDbEntity
  8
0
  6
Continuous
 62
     7
100
AcDbCircle
 10
9.732294292203391
 20
-15.5073592868305
 30
0.0
 40
3.0
100
AcDbArc
 50
314.9999999999993
 51
0.0000000000000509
  0
LINE
  5
563
330
51E
100
AcDbEntity
  8
0
  6
Continuous
 62
     7
100
AcDbLine
 10
-12.88902605135621
 20
-17.62867963039016
 30
0.0
 11
-7.517705707796551
 21
-22.9999999739498
 31
0.0
  0
ARC
  5
564
330
51E
100
AcDbEntity
  8
0
  6
Continuous
 62
     7
100
AcDbCircle
 10
-10.76770570779655
 20
-15.5073592868305
 30
0.0
 40
3.0
100
AcDbArc
 50
179.9999999999995
 51
224.9999999999996
  0
LINE
  5
565
330
51E
100
AcDbEntity
  8
0
  6
Continuous
 62
     7
100
AcDbLine
 10
-13.76770570779655
 20
15.50735926764307
 30
0.0
 11
-13.76770570779655
 21
-15.50735926491918
 31
0.0
  0
LINE
  5
566
330
51E
100
AcDbEntity
  8
0
  6
Continuous
 62
     7
100
AcDbLine
 10
-7.517705707796551
 20
23.0
 30
0.0
 11
-7.517705707796551
 21
27.0
 31
0.0
  0
LINE
  5
567
330
51E
100
AcDbEntity
  8
0
  6
DASHED
 62
     2
100
AcDbLine
 10
6.482294292203391
 20
26.0
 30
0.0
 11
-7.517705707796551
 21
26.0
 31
0.0
  0
LINE
  5
568
330
51E
100
AcDbEntity
  8
0
  6
Continuous
 62
     7
100
AcDbLine
 10
6.482294292203391
 20
23.0
 30
0.0
 11
6.482294292203391
 21
27.0
 31
0.0
  0
LINE
  5
569
330
51E
100
AcDbEntity
  8
0
  6
Continuous
 62
     7
100
AcDbLine
 10
11.85361463576308
 20
17.62867963039016
 30
0.0
 11
6.482294292203391
 21
22.9999999739498
 31
0.0
  0
ARC
  5
56A
330
51E
100
AcDbEntity
  8
0
  6
Continuous
 62
     7
100
AcDbCircle
 10
9.732294292203391
 20
15.50735928683051
 30
0.0
 40
3.0
100
AcDbArc
 50
0.0
 51
44.9999999999996
  0
ARC
  5
56B
330
51E
100
AcDbEntity
  8
0
  6
Continuous
 62
     7
100
AcDbCircle
 10
-10.76770570779655
 20
15.50735928683051
 30
0.0
 40
3.0
100
AcDbArc
 50
134.9999999999994
 51
179.9999999999995
  0
LINE
  5
56C
330
51E
100
AcDbEntity
  8
0
  6
Continuous
 62
     7
100
AcDbLine
 10
-12.88902605135621
 20
17.62867963039016
 30
0.0
 11
-7.517705707796551
 21
22.9999999739498
 31
0.0
  0
LINE
  5
56D
330
51E
100
AcDbEntity
  8
0
  6
Continuous
 62
     7
100
AcDbLine
 10
4.482294292203391
 20
29.50000000136195
 30
0.0
 11
3.982294292203391
 21
30.00000000136195
 31
0.0
  0
LINE
  5
56E
330
51E
100
AcDbEntity
  8
0
  6
Continuous
 62
     7
100
AcDbLine
 10
-5.517705707796579
 20
29.50000000136195
 30
0.0
 11
4.482294292203391
 21
29.50000000136195
 31
0.0
  0
LINE
  5
56F
330
51E
100
AcDbEntity
  8
0
  6
Continuous
 62
     7
100
AcDbLine
 10
-5.517705707796579
 20
29.50000000136195
 30
0.0
 11
-5.517705707796579
 21
27.00000000136197
 31
0.0
  0
LINE
  5
570
330
51E
100
AcDbEntity
  8
0
  6
Continuous
 62
     7
100
AcDbLine
 10
-5.017705707796579
 20
30.00000000136195
 30
0.0
 11
-5.517705707796579
 21
29.50000000136195
 31
0.0
  0
LINE
  5
571
330
51E
100
AcDbEntity
  8
0
  6
Continuous
 62
     7
100
AcDbLine
 10
-5.017705707796579
 20
30.00000000136195
 30
0.0
 11
3.982294292203391
 21
30.00000000136195
 31
0.0
  0
LINE
  5
572
330
51E
100
AcDbEntity
  8
0
  6
Continuous
 62
     7
100
AcDbLine
 10
-3.017705707796622
 20
30.00000000136195
 30
0.0
 11
-3.017705707796622
 21
35.87190081824944
 31
0.0
  0
LINE
  5
573
330
51E
100
AcDbEntity
  8
0
  6
Continuous
 62
     7
100
AcDbLine
 10
1.982294292203391
 20
30.00000000136195
 30
0.0
 11
1.982294292203391
 21
37.21164678293312
 31
0.0
  0
LINE
  5
574
330
51E
100
AcDbEntity
  8
0
  6
Continuous
 62
     7
100
AcDbLine
 10
4.482294292203391
 20
29.50000000136195
 30
0.0
 11
4.482294292203391
 21
27.000000001362
 31
0.0
  0
LINE
  5
575
330
51E
100
AcDbEntity
  8
0
  6
Continuous
 62
     2
100
AcDbLine
 10
-4.176600995203074
 20
35.56137576129069
 30
0.0
 11
2.998850281070886
 21
37.48403213972518
 31
0.0
  0
ARC
  5
576
330
51E
100
AcDbEntity
  8
0
  6
Continuous
 62
     7
100
AcDbCircle
 10
0.6822942922034514
 20
-27.3
 30
0.0
 40
0.3
100
AcDbArc
 50
270.0
 51
0.0
  0
LINE
  5
577
330
51E
100
AcDbEntity
  8
0
  6
Continuous
 62
     7
100
AcDbLine
 10
0.9822942922034485
 20
-27.00000000000001
 30
0.0
 11
0.9822942922034485
 21
-27.3
 31
0.0
  0
ARC
  5
578
330
51E
100
AcDbEntity
  8
0
  6
Continuous
 62
     7
100
AcDbCircle
 10
-1.717705707796554
 20
-27.3
 30
0.0
 40
0.3
100
AcDbArc
 50
179.9999999999995
 51
269.9999999999992
  0
LINE
  5
579
330
51E
100
AcDbEntity
  8
0
  6
Continuous
 62
     7
100
AcDbLine
 10
-1.717705707796554
 20
-27.60000000000002
 30
0.0
 11
0.6822942922034514
 21
-27.60000000000002
 31
0.0
  0
LINE
  5
57A
330
51E
100
AcDbEntity
  8
0
  6
Continuous
 62
     7
100
AcDbLine
 10
-2.017705707796523
 20
-27.00000000000001
 30
0.0
 11
-2.017705707796523
 21
-27.3
 31
0.0
  0
ENDBLK
  5
520
330
51E
100
AcDbEntity
  8
0
100
AcDbBlockEnd
  0
BLOCK
  5
57D
330
57C
100
AcDbEntity
  8
0
100
AcDbBlockBegin
  2
EWHA12A-4
 70
     0
 10
0.0
 20
0.0
 30
0.0
  3
EWHA12A-4
  1

  0
INSERT
  5
57F
330
57C
100
AcDbEntity
  8
0
  6
ByBlock
100
AcDbBlockReference
  2
EWHA12-4
 10
0.2999999999999971
 20
0.0
 30
0.0
  0
ENDBLK
  5
57E
330
57C
100
AcDbEntity
  8
0
100
AcDbBlockEnd
  0
ENDSEC
  0
SECTION
  2
ENTITIES
  0
MTEXT
  5
233
330
A
100
AcDbEntity
  8
0
  6
Continuous
 62
     7
100
AcDbMText
 10
115.5267259500211
 20
-126.0
 30
0.0
 40
6.300000190734862
 41
0.0
 71
     4
 72
     5
  1
\W1.121;\A1;KOGANEI CORP.
 73
     1
 44
1.0
1001
ACAD
1000
MTEXTBEGIN
1070
    73
1070
     1
1070
    44
1040
1.0
1070
    74
1070
     0
1000
MTEXTEND
  0
MTEXT
  5
234
330
A
100
AcDbEntity
  8
0
  6
Continuous
 62
     7
100
AcDbMText
 10
135.2836132018599
 20
125.1000061035156
 30
0.0
 40
4.5
 41
0.0
 71
     4
 72
     5
  1
\W1.311;\A1;Ver. 1.0
 73
     1
 44
1.0
1001
ACAD
1000
MTEXTBEGIN
1070
    73
1070
     1
1070
    44
1040
1.0
1070
    74
1070
     0
1000
MTEXTEND
  0
LINE
  5
235
330
A
100
AcDbEntity
  8
0
  6
Continuous
 62
     7
100
AcDbLine
 10
-109.25
 20
132.6000061035156
 30
0.0
 11
-109.25
 21
117.6000061035155
 31
0.0
  0
LINE
  5
236
330
A
100
AcDbEntity
  8
0
  6
Continuous
 62
     7
100
AcDbLine
 10
-194.25
 20
117.6000061035155
 30
0.0
 11
-109.25
 21
117.6000061035155
 31
0.0
  0
LINE
  5
237
330
A
100
AcDbEntity
  8
0
  6
Continuous
 62
     7
100
AcDbLine
 10
109.8000030517578
 20
117.6000061035155
 30
0.0
 11
194.8000030517578
 21
117.6000061035155
 31
0.0
  0
LINE
  5
238
330
A
100
AcDbEntity
  8
0
  6
Continuous
 62
     7
100
AcDbLine
 10
109.8000030517578
 20
132.6000061035156
 30
0.0
 11
109.8000030517578
 21
117.6000061035155
 31
0.0
  0
LINE
  5
239
330
A
100
AcDbEntity
  8
0
  6
Continuous
 62
     7
100
AcDbLine
 10
109.8000030517578
 20
-118.5
 30
0.0
 11
194.8000030517578
 21
-118.5
 31
0.0
  0
LINE
  5
23A
330
A
100
AcDbEntity
  8
0
  6
Continuous
 62
     7
100
AcDbLine
 10
109.8000030517578
 20
-118.5
 30
0.0
 11
109.8000030517578
 21
-133.5
 31
0.0
  0
LINE
  5
23B
330
A
100
AcDbEntity
  8
0
  6
Continuous
 62
     7
100
AcDbLine
 10
-194.25
 20
-133.5
 30
0.0
 11
194.8000030517578
 21
-133.5
 31
0.0
  0
LINE
  5
23C
330
A
100
AcDbEntity
  8
0
  6
Continuous
 62
     7
100
AcDbLine
 10
-194.25
 20
132.6000061035156
 30
0.0
 11
-194.25
 21
-133.5
 31
0.0
  0
LINE
  5
23D
330
A
100
AcDbEntity
  8
0
  6
Continuous
 62
     7
100
AcDbLine
 10
194.8000030517578
 20
132.6000061035156
 30
0.0
 11
194.8000030517578
 21
-133.5
 31
0.0
  0
LINE
  5
23E
330
A
100
AcDbEntity
  8
0
  6
Continuous
 62
     7
100
AcDbLine
 10
-194.25
 20
132.6000061035156
 30
0.0
 11
194.8000030517578
 21
132.6000061035156
 31
0.0
  0
MTEXT
  5
23F
330
A
100
AcDbEntity
  8
0
  6
Continuous
 62
     7
100
AcDbMText
 10
-185.705882362687
 20
107.6000061035156
 30
0.0
 40
4.5
 41
0.0
 71
     4
 72
     5
  1
{\W1.059;MODEL:EWHA12A}
 73
     1
 44
1.0
1001
ACAD
1000
ACAD_MTEXT_DEFINED_HEIGHT_BEGIN
1070
    46
1040
0.0
1000
ACAD_MTEXT_DEFINED_HEIGHT_END
1000
MTEXTBEGIN
1070
    73
1070
     1
1070
    44
1040
1.0
1070
    74
1070
     0
1000
MTEXTEND
  0
MTEXT
  5
240
330
A
100
AcDbEntity
  8
0
  6
Continuous
100
AcDbMText
 10
-169.0241899423235
 20
125.1000061035156
 30
0.0
 40
4.5
 41
0.0
 71
     4
 72
     5
  1
\W0.968;\A1;ELE WAVE
 73
     1
 44
1.0
1001
ACAD
1000
MTEXTBEGIN
1070
    73
1070
     1
1070
    44
1040
1.0
1070
    74
1070
     0
1000
MTEXTEND
  0
INSERT
  5
486
330
A
100
AcDbEntity
  8
0
  6
Continuous
100
AcDbBlockReference
  2
EWHA12A-1
 10
2.334825635668869
 20
-4.203036112802498
 30
0.0
  0
INSERT
  5
51D
330
A
100
AcDbEntity
  8
0
  6
Continuous
100
AcDbBlockReference
  2
EWHA12A-2
 10
-117.6651744060688
 20
-4.203036140923011
 30
0.0
  0
INSERT
  5
57B
330
A
100
AcDbEntity
  8
0
  6
Continuous
100
AcDbBlockReference
  2
EWHA12A-3
 10
98.8525313017277
 20
-4.203036140923017
 30
0.0
  0
INSERT
  5
580
330
A
100
AcDbEntity
  8
0
  6
Continuous
100
AcDbBlockReference
  2
EWHA12A-4
 10
2.034825593931158
 20
-80.20303614092302
 30
0.0
  0
ENDSEC
  0
SECTION
  2
OBJECTS
  0
DICTIONARY
  5
19
330
0
100
AcDbDictionary
281
     1
  3
ACAD_COLOR
350
249
  3
ACAD_GROUP
350
1A
  3
ACAD_LAYOUT
350
24C
  3
ACAD_MATERIAL
350
248
  3
ACAD_MLINESTYLE
350
1B
  3
ACAD_PLOTSETTINGS
350
24D
  3
ACAD_PLOTSTYLENAME
350
246
  3
ACAD_TABLESTYLE
350
24A
  3
ACDBHEADERROUNDTRIPXREC
350
585
  3
AcDbVariableDictionary
350
2F2
  3
DWGPROPS
350
584
  0
DICTIONARY
  5
2E4
330
A
100
AcDbDictionary
280
     1
281
     1
  3
ACAD_SORTENTS
360
2E5
  0
DICTIONARY
  5
249
102
{ACAD_REACTORS
330
19
102
}
330
19
100
AcDbDictionary
281
     1
  0
DICTIONARY
  5
1A
102
{ACAD_REACTORS
330
19
102
}
330
19
100
AcDbDictionary
281
     1
  0
DICTIONARY
  5
24C
102
{ACAD_REACTORS
330
19
102
}
330
19
100
AcDbDictionary
281
     1
  3
Model
350
24E
  3
レイアウト1
350
24F
  0
DICTIONARY
  5
248
102
{ACAD_REACTORS
330
19
102
}
330
19
100
AcDbDictionary
281
     1
  0
DICTIONARY
  5
1B
102
{ACAD_REACTORS
330
19
102
}
330
19
100
AcDbDictionary
281
     1
  3
STANDARD
350
1C
  0
DICTIONARY
  5
24D
102
{ACAD_REACTORS
330
19
102
}
330
19
100
AcDbDictionary
281
     1
  0
ACDBDICTIONARYWDFLT
  5
246
102
{ACAD_REACTORS
330
19
102
}
330
19
100
AcDbDictionary
281
     1
  3
Normal
350
247
100
AcDbDictionaryWithDefault
340
247
  0
DICTIONARY
  5
24A
102
{ACAD_REACTORS
330
19
102
}
330
19
100
AcDbDictionary
281
     1
  3
Standard
350
24B
  0
DICTIONARY
  5
585
102
{ACAD_REACTORS
330
19
102
}
330
19
100
AcDbDictionary
281
     1
  0
DICTIONARY
  5
2F2
102
{ACAD_REACTORS
330
19
102
}
330
19
100
AcDbDictionary
281
     1
  3
CTABLESTYLE
350
2F3
  3
DIMASSOC
350
41C
  3
PROJECTNAME
350
41D
  0
XRECORD
  5
584
102
{ACAD_REACTORS
330
19
102
}
330
19
100
AcDbXrecord
280
     1
  1
DWGPROPS COOKIE
  2

  3

  4

  6

  7

  8

  9

300
=
301
=
302
=
303
=
304
=
305
=
306
=
307
=
308
=
309
=
 40
0.0872183217592593
 41
2453378.356365741
 42
2454495.67160544
  1

 90
        0
  0
SORTENTSTABLE
  5
2E5
102
{ACAD_REACTORS
330
2E4
102
}
330
2E4
100
AcDbSortentsTable
330
A
331
237
  5
411
331
23F
  5
419
331
238
  5
412
331
239
  5
413
331
23A
  5
414
331
233
  5
40D
331
23B
  5
415
331
234
  5
40E
331
23C
  5
416
331
235
  5
40F
331
23D
  5
417
331
236
  5
410
331
23E
  5
418
331
240
  5
41A
  0
LAYOUT
  5
24E
102
{ACAD_XDICTIONARY
360
586
102
}
102
{ACAD_REACTORS
330
24C
102
}
330
24C
100
AcDbPlotSettings
  1

  2
Microsoft Office Document Image Writer
  4
A4
  6

 40
3.174999952316284
 41
3.174999952316284
 42
3.175003051757812
 43
3.17498779296875
 44
209.9733276367187
 45
297.0106506347656
 46
0.0
 47
0.0
 48
0.0
 49
0.0
140
0.0
141
0.0
142
1.0
143
42.12040618873865
 70
 11952
 72
     0
 73
     1
 74
     0
  7

 75
     0
147
0.0237414614550265
148
5080.445820515804
149
5648.41208253072
100
AcDbLayout
  1
Model
 70
     1
 71
     0
 10
0.0
 20
0.0
 11
12.0
 21
9.0
 12
0.0
 22
0.0
 32
0.0
 14
0.0
 24
0.0
 34
0.0
 15
0.0
 25
0.0
 35
0.0
146
0.0
 13
0.0
 23
0.0
 33
0.0
 16
1.0
 26
0.0
 36
0.0
 17
0.0
 27
1.0
 37
0.0
 76
     0
330
A
1001
ACAD_PSEXT
1000
Microsoft Office Document Image Writer
1000
Microsoft Office Document Image Writer Driver
1000
Microsoft Document Imaging Writer Port:
1000

1070
     0
  0
LAYOUT
  5
24F
102
{ACAD_XDICTIONARY
360
588
102
}
102
{ACAD_REACTORS
330
24C
102
}
330
24C
100
AcDbPlotSettings
  1

  2
Microsoft Office Document Image Writer
  4

  6

 40
0.0
 41
0.0
 42
0.0
 43
0.0
 44
0.0
 45
0.0
 46
0.0
 47
0.0
 48
0.0
 49
0.0
140
0.0
141
0.0
142
1.0
143
1.0
 70
   688
 72
     0
 73
     0
 74
     5
  7

 75
    16
147
1.0
148
0.0
149
0.0
100
AcDbLayout
  1
レイアウト1
 70
     0
 71
     1
 10
0.0
 20
0.0
 11
12.0
 21
9.0
 12
0.0
 22
0.0
 32
0.0
 14
1.000000000000000E+20
 24
1.000000000000000E+20
 34
1.000000000000000E+20
 15
-1.000000000000000E+20
 25
-1.000000000000000E+20
 35
-1.000000000000000E+20
146
0.0
 13
0.0
 23
0.0
 33
0.0
 16
1.0
 26
0.0
 36
0.0
 17
0.0
 27
1.0
 37
0.0
 76
     0
330
B
  0
MLINESTYLE
  5
1C
102
{ACAD_REACTORS
330
1B
102
}
330
1B
100
AcDbMlineStyle
  2
STANDARD
 70
     0
  3

 62
     0
 51
90.0
 52
90.0
 71
     2
 49
0.5
 62
   256
  6
BYLAYER
 49
-0.5
 62
   256
  6
BYLAYER
  0
ACDBPLACEHOLDER
  5
247
102
{ACAD_REACTORS
330
246
102
}
330
246
  0
TABLESTYLE
  5
24B
102
{ACAD_REACTORS
330
24A
102
}
330
24A
100
AcDbTableStyle
  3
Standard
 70
     0
 71
     0
 40
0.06
 41
0.06
280
     0
281
     0
  7
MX_NOTE_STANDARD
140
0.18
170
     2
 62
     0
 63
     7
283
     0
274
    -2
284
     1
 64
     0
275
    -2
285
     1
 65
     0
276
    -2
286
     1
 66
     0
277
    -2
287
     1
 67
     0
278
    -2
288
     1
 68
     0
279
    -2
289
     1
 69
     0
  7
MX_NOTE_STANDARD
140
0.25
170
     5
 62
     0
 63
     7
283
     0
274
    -2
284
     1
 64
     0
275
    -2
285
     1
 65
     0
276
    -2
286
     1
 66
     0
277
    -2
287
     1
 67
     0
278
    -2
288
     1
 68
     0
279
    -2
289
     1
 69
     0
  7
MX_NOTE_STANDARD
140
0.18
170
     5
 62
     0
 63
     7
283
     0
274
    -2
284
     1
 64
     0
275
    -2
285
     1
 65
     0
276
    -2
286
     1
 66
     0
277
    -2
287
     1
 67
     0
278
    -2
288
     1
 68
     0
279
    -2
289
     1
 69
     0
  0
DICTIONARYVAR
  5
2F3
102
{ACAD_REACTORS
330
2F2
102
}
330
2F2
100
DictionaryVariables
280
     0
  1
STANDARD
  0
DICTIONARYVAR
  5
41C
102
{ACAD_REACTORS
330
2F2
102
}
330
2F2
100
DictionaryVariables
280
     0
  1
1
  0
DICTIONARYVAR
  5
41D
102
{ACAD_REACTORS
330
2F2
102
}
330
2F2
100
DictionaryVariables
280
     0
  1

  0
DICTIONARY
  5
586
330
24E
100
AcDbDictionary
280
     1
281
     1
  3
ACAD_XREC_ROUNDTRIP
360
587
  0
DICTIONARY
  5
588
330
24F
100
AcDbDictionary
280
     1
281
     1
  3
ACAD_XREC_ROUNDTRIP
360
589
  0
XRECORD
  5
587
102
{ACAD_REACTORS
330
586
102
}
330
586
100
AcDbXrecord
280
     1
102
SHADEPLOT
 70
     0
102
SHADEPLOTRESLEVEL
 70
     2
102
SHADEPLOTCUSTOMDPI
 70
   300
  0
XRECORD
  5
589
102
{ACAD_REACTORS
330
588
102
}
330
588
100
AcDbXrecord
280
     1
102
SHADEPLOT
 70
     0
102
SHADEPLOTRESLEVEL
 70
     2
102
SHADEPLOTCUSTOMDPI
 70
   300
  0
ENDSEC
  0
EOF
