  0
SECTION
  2
HEADER
  9
$ACADVER
  1
AC1012
  9
$DWGCODEPAGE
  3
dos932
  9
$INSBASE
 10
0.0
 20
0.0
 30
0.0
  9
$EXTMIN
 10
-399.52490234375
 20
-276.5
 30
0.0
  9
$EXTMAX
 10
403.05696657587475
 20
276.5
 30
0.0
  9
$LIMMIN
 10
-399.52490234375
 20
-276.5
  9
$LIMMAX
 10
403.05696657587475
 20
276.5
  9
$ORTHOMODE
 70
               0
  9
$REGENMODE
 70
               1
  9
$FILLMODE
 70
               1
  9
$QTEXTMODE
 70
               0
  9
$MIRRTEXT
 70
               1
  9
$DRAGMODE
 70
               2
  9
$LTSCALE
 40
1.0
  9
$OSMODE
 70
               0
  9
$ATTMODE
 70
               1
  9
$TEXTSIZE
 40
3.2000000476837158
  9
$TRACEWID
 40
0.05
  9
$TEXTSTYLE
  7
MX_NOTE_STANDARD
  9
$CLAYER
  8
0
  9
$CELTYPE
  6
CONTINUOUS
  9
$CECOLOR
 62
             256
  9
$CELTSCALE
 40
1.0
  9
$DELOBJ
 70
               1
  9
$DISPSILH
 70
               0
  9
$DIMSCALE
 40
1.0
  9
$DIMASZ
 40
2.5
  9
$DIMEXO
 40
1.5
  9
$DIMDLI
 40
3.75
  9
$DIMRND
 40
0.0
  9
$DIMDLE
 40
0.0
  9
$DIMEXE
 40
1.5
  9
$DIMTP
 40
0.0
  9
$DIMTM
 40
0.0
  9
$DIMTXT
 40
3.2000000476837158
  9
$DIMCEN
 40
2.5
  9
$DIMTSZ
 40
0.0
  9
$DIMTOL
 70
               0
  9
$DIMLIM
 70
               0
  9
$DIMTIH
 70
               0
  9
$DIMTOH
 70
               0
  9
$DIMSE1
 70
               0
  9
$DIMSE2
 70
               0
  9
$DIMTAD
 70
               1
  9
$DIMZIN
 70
               8
  9
$DIMBLK
  1

  9
$DIMASO
 70
               1
  9
$DIMSHO
 70
               1
  9
$DIMPOST
  1

  9
$DIMAPOST
  1

  9
$DIMALT
 70
               0
  9
$DIMALTD
 70
               4
  9
$DIMALTF
 40
0.03937007874016
  9
$DIMLFAC
 40
1.0
  9
$DIMTOFL
 70
               1
  9
$DIMTVP
 40
0.0
  9
$DIMTIX
 70
               0
  9
$DIMSOXD
 70
               0
  9
$DIMSAH
 70
               0
  9
$DIMBLK1
  1

  9
$DIMBLK2
  1

  9
$DIMSTYLE
  2
MXDIMSTYLE
  9
$DIMCLRD
 70
               0
  9
$DIMCLRE
 70
               0
  9
$DIMCLRT
 70
               0
  9
$DIMTFAC
 40
1.0
  9
$DIMGAP
 40
1.0
  9
$DIMJUST
 70
               0
  9
$DIMSD1
 70
               0
  9
$DIMSD2
 70
               0
  9
$DIMTOLJ
 70
               1
  9
$DIMTZIN
 70
               0
  9
$DIMALTZ
 70
               0
  9
$DIMALTTZ
 70
               0
  9
$DIMFIT
 70
               3
  9
$DIMUPT
 70
               1
  9
$DIMUNIT
 70
               2
  9
$DIMDEC
 70
               4
  9
$DIMTDEC
 70
               4
  9
$DIMALTU
 70
               2
  9
$DIMALTTD
 70
               4
  9
$DIMTXSTY
  7
MX_NOTE_STANDARD
  9
$DIMAUNIT
 70
               0
  9
$LUNITS
 70
               2
  9
$LUPREC
 70
               4
  9
$SKETCHINC
 40
0.1
  9
$FILLETRAD
 40
0.0
  9
$AUNITS
 70
               0
  9
$AUPREC
 70
               0
  9
$MENU
  1
acad
  9
$ELEVATION
 40
0.0
  9
$PELEVATION
 40
0.0
  9
$THICKNESS
 40
0.0
  9
$LIMCHECK
 70
               0
  9
$BLIPMODE
 70
               1
  9
$CHAMFERA
 40
0.0
  9
$CHAMFERB
 40
0.0
  9
$CHAMFERC
 40
0.0
  9
$CHAMFERD
 40
0.0
  9
$SKPOLY
 70
               0
  9
$TDCREATE
 40
2453378.356886574
  9
$TDUPDATE
 40
2453378.356886574
  9
$TDINDWG
 40
0.0000000000
  9
$TDUSRTIMER
 40
0.0000000000
  9
$USRTIMER
 70
               1
  9
$ANGBASE
 50
0.0
  9
$ANGDIR
 70
               0
  9
$PDMODE
 70
               0
  9
$PDSIZE
 40
0.0
  9
$PLINEWID
 40
0.0
  9
$COORDS
 70
               1
  9
$SPLFRAME
 70
               0
  9
$SPLINETYPE
 70
               6
  9
$SPLINESEGS
 70
               8
  9
$ATTDIA
 70
               0
  9
$ATTREQ
 70
               1
  9
$HANDLING
 70
               1
  9
$HANDSEED
  5
3BD
  9
$SURFTAB1
 70
               6
  9
$SURFTAB2
 70
               6
  9
$SURFTYPE
 70
               6
  9
$SURFU
 70
               6
  9
$SURFV
 70
               6
  9
$UCSNAME
  2

  9
$UCSORG
 10
0.0
 20
0.0
 30
0.0
  9
$UCSXDIR
 10
1.0
 20
0.0
 30
0.0
  9
$UCSYDIR
 10
0.0
 20
1.0
 30
0.0
  9
$PUCSNAME
  2

  9
$PUCSORG
 10
0.0
 20
0.0
 30
0.0
  9
$PUCSXDIR
 10
1.0
 20
0.0
 30
0.0
  9
$PUCSYDIR
 10
0.0
 20
1.0
 30
0.0
  9
$USERI1
 70
               0
  9
$USERI2
 70
               0
  9
$USERI3
 70
               0
  9
$USERI4
 70
               0
  9
$USERI5
 70
               0
  9
$USERR1
 40
0.0
  9
$USERR2
 40
0.0
  9
$USERR3
 40
0.0
  9
$USERR4
 40
0.0
  9
$USERR5
 40
0.0
  9
$WORLDVIEW
 70
               1
  9
$SHADEDGE
 70
               3
  9
$SHADEDIF
 70
              70
  9
$TILEMODE
 70
               1
  9
$MAXACTVP
 70
              16
  9
$PINSBASE
 10
0.0
 20
0.0
 30
0.0
  9
$PLIMCHECK
 70
               0
  9
$PEXTMIN
 10
1.0000000000000000E+20
 20
1.0000000000000000E+20
 30
1.0000000000000000E+20
  9
$PEXTMAX
 10
-1.0000000000000000E+20
 20
-1.0000000000000000E+20
 30
-1.0000000000000000E+20
  9
$PLIMMIN
 10
0.0
 20
0.0
  9
$PLIMMAX
 10
12.0
 20
9.0
  9
$UNITMODE
 70
               0
  9
$VISRETAIN
 70
               0
  9
$PLINEGEN
 70
               1
  9
$PSLTSCALE
 70
               0
  9
$TREEDEPTH
 70
            3020
  9
$PICKSTYLE
 70
               1
  9
$CMLSTYLE
  2
Standard
  9
$CMLJUST
 70
               0
  9
$CMLSCALE
 40
1.0
  9
$SAVEIMAGES
 70
               0
  0
ENDSEC
  0
SECTION
  2
CLASSES
  0
CLASS
  1
LWPOLYLINE
  2
AcDbPolyline
  3
"AutoCAD"
 90
        0
280
               0
281
               1
  0
CLASS
  1
IMAGE
  2
AcDbRasterImage
  3
ISM
 90
      127
280
               0
281
               1
  0
CLASS
  1
OLE2FRAME
  2
AcDbOle2Frame
  3
""
 90
        0
280
               0
281
               1
  0
CLASS
  1
HATCH
  2
AcDbHatch
  3
"ACAD_SEDONA"
 90
        0
280
               0
281
               1
  0
CLASS
  1
DICTIONARYVAR
  2
AcDbDictionaryVar
  3
"AutoCAD"
 90
        0
280
               0
281
               0
  0
CLASS
  1
RASTERVARIABLES
  2
AcDbRasterVariables
  3
ISM
 90
        0
280
               0
281
               0
  0
CLASS
  1
IMAGEDEF
  2
AcDbRasterImageDef
  3
ISM
 90
        0
280
               0
281
               0
  0
CLASS
  1
IMAGEDEF_REACTOR
  2
AcDbRasterImageDefReactor
  3
ISM
 90
        1
280
               0
281
               0
  0
CLASS
  1
IDBUFFER
  2
AcDbIdBuffer
  3
"Acad"
 90
        0
280
               0
281
               0
  0
CLASS
  1
SPATIAL_FILTER
  2
AcDbSpatialFilter
  3
"Acad"
 90
        0
280
               0
281
               0
  0
CLASS
  1
XRECORD
  2
AcDbXrecord
  3
"<Built In>"
 90
        0
280
               0
281
               0
  0
CLASS
  1
SORTENTSTABLE
  2
AcDbSortentsTable
  3
"AutoCAD"
 90
        0
280
               0
281
               0
  0
CLASS
  1
LAYER_INDEX
  2
AcDbLayerIndex
  3
"Acad"
 90
        0
280
               0
281
               0
  0
CLASS
  1
SPATIAL_INDEX
  2
AcDbSpatialIndex
  3
"Acad"
 90
        0
280
               0
281
               0
  0
CLASS
  1
OBJECT_PTR
  2
CAseDLPNTableRecord
  3
"ASE-LPNTableRecord"
 90
        1
280
               0
281
               0
  0
CLASS
  1
LAYOUT
  2
AcDbLayout
  3
"AutoCAD 2000"
 90
        1
280
               0
281
               0
  0
CLASS
  1
PLOTSETTINGS
  2
AcDbPlotSettings
  3
"AutoCAD 2000"
 90
        1
280
               0
281
               0
  0
CLASS
  1
ACDBDICTIONARYWDFLT
  2
AcDbDictionaryWithDefault
  3
"AutoCAD 2000"
 90
        1
280
               0
281
               0
  0
CLASS
  1
ACDBPLACEHOLDER
  2
AcDbPlaceHolder
  3
"AutoCAD 2000"
 90
        1
280
               0
281
               0
  0
ENDSEC
  0
SECTION
  2
TABLES
  0
TABLE
  2
VPORT
  5
7
100
AcDbSymbolTable
 70
               1
  0
VPORT
  5
15
100
AcDbSymbolTableRecord
100
AcDbViewportTableRecord
  2
*ACTIVE
 70
               0
 10
0.0
 20
0.0
 11
1.0
 21
1.0
 12
1.7660321160623766
 22
0.0
 13
0.0
 23
0.0
 14
1.0
 24
1.0
 15
0.0
 25
0.0
 16
0.0
 26
0.0
 36
1.0
 17
0.0
 27
0.0
 37
0.0
 40
558.52999999999997
 41
1.7320508075688772
 42
50.0
 43
0.0
 44
0.0
 50
0.0
 51
0.0
 71
               0
 72
             100
 73
               1
 74
               1
 75
               0
 76
               0
 77
               0
 78
               0
  0
ENDTAB
  0
TABLE
  2
LTYPE
  5
4
100
AcDbSymbolTable
 70
               6
  0
LTYPE
  5
11
100
AcDbSymbolTableRecord
100
AcDbLinetypeTableRecord
  2
BYBLOCK
 70
              64
  3

 72
              65
 73
               0
 40
0.0
  0
LTYPE
  5
12
100
AcDbSymbolTableRecord
100
AcDbLinetypeTableRecord
  2
BYLAYER
 70
              64
  3

 72
              65
 73
               0
 40
0.0
  0
LTYPE
  5
13
100
AcDbSymbolTableRecord
100
AcDbLinetypeTableRecord
  2
CONTINUOUS
 70
              64
  3
Solid line
 72
              65
 73
               0
 40
0.0
  0
LTYPE
  5
30
100
AcDbSymbolTableRecord
100
AcDbLinetypeTableRecord
  2
CENTER
 70
              64
  3
Center ____ _ ____ _ ____ _ ____ _ ____ _ ____
 72
              65
 73
               4
 40
26.0
 49
20.0
 74
               0
 49
-2.0
 74
               0
 49
2.0
 74
               0
 49
-2.0
 74
               0
  0
LTYPE
  5
9C
100
AcDbSymbolTableRecord
100
AcDbLinetypeTableRecord
  2
PHANTOM
 70
              64
  3
Phantom ______  __  __  ______  __  __  ______
 72
              65
 73
               6
 40
30.0
 49
20.0
 74
               0
 49
-2.0
 74
               0
 49
2.0
 74
               0
 49
-2.0
 74
               0
 49
2.0
 74
               0
 49
-2.0
 74
               0
  0
LTYPE
  5
F9
100
AcDbSymbolTableRecord
100
AcDbLinetypeTableRecord
  2
DASHED
 70
              64
  3
Dashed __ __ __ __ __ __ __ __ __ __ __ __ __ _
 72
              65
 73
               2
 40
4.0
 49
2.0
 74
               0
 49
-2.0
 74
               0
  0
ENDTAB
  0
TABLE
  2
LAYER
  5
2
100
AcDbSymbolTable
 70
               2
  0
LAYER
  5
14
100
AcDbSymbolTableRecord
100
AcDbLayerTableRecord
  2
0
 70
               0
 62
               7
  6
CONTINUOUS
  0
LAYER
  5
1D
100
AcDbSymbolTableRecord
100
AcDbLayerTableRecord
  2
DEFPOINTS
 70
               0
 62
               7
  6
CONTINUOUS
  0
ENDTAB
  0
TABLE
  2
STYLE
  5
3
100
AcDbSymbolTable
 70
               1
  0
STYLE
  5
17
100
AcDbSymbolTableRecord
100
AcDbTextStyleTableRecord
  2
MX_NOTE_STANDARD
 70
               0
 40
0.0
 41
1.0
 50
0.0
 71
               0
 42
3.2000000476837158
  3
txt.shx
  4
extfont.shx
  0
ENDTAB
  0
TABLE
  2
VIEW
  5
5
100
AcDbSymbolTable
 70
               0
  0
ENDTAB
  0
TABLE
  2
UCS
  5
6
100
AcDbSymbolTable
 70
               0
  0
ENDTAB
  0
TABLE
  2
APPID
  5
8
100
AcDbSymbolTable
 70
               1
  0
APPID
  5
16
100
AcDbSymbolTableRecord
100
AcDbRegAppTableRecord
  2
ACAD
 70
               0
  0
ENDTAB
  0
TABLE
  2
DIMSTYLE
  5
9
100
AcDbSymbolTable
 70
               1
  0
DIMSTYLE
105
18
100
AcDbSymbolTableRecord
100
AcDbDimStyleTableRecord
  2
MXDIMSTYLE
 70
               0
  3

  4

  5

  6

  7

 40
1.0
 41
2.5
 42
1.5
 43
3.75
 44
1.5
 45
0.0
 46
0.0
 47
0.0
 48
0.0
 71
               0
 72
               0
 73
               0
 74
               0
 75
               0
 76
               0
 77
               1
 78
               8
140
3.2000000476837158
141
2.5
142
0.0
143
0.03937007874016
144
1.0
145
0.0
146
1.0
147
1.0
170
               0
171
               4
172
               1
173
               0
174
               0
175
               0
176
               0
177
               0
178
               0
270
               2
271
               4
272
               4
273
               2
274
               4
275
               0
280
               0
281
               0
282
               0
283
               1
284
               0
285
               0
286
               0
287
               3
288
               1
340
17
  0
ENDTAB
  0
TABLE
  2
BLOCK_RECORD
  5
1
100
AcDbSymbolTable
 70
              12
  0
BLOCK_RECORD
  5
A
100
AcDbSymbolTableRecord
100
AcDbBlockTableRecord
  2
*MODEL_SPACE
  0
BLOCK_RECORD
  5
B
100
AcDbSymbolTableRecord
100
AcDbBlockTableRecord
  2
*PAPER_SPACE
  0
BLOCK_RECORD
  5
1E
100
AcDbSymbolTableRecord
100
AcDbBlockTableRecord
  2
ZSG20-1
  0
BLOCK_RECORD
  5
1F
100
AcDbSymbolTableRecord
100
AcDbBlockTableRecord
  2
ZSG20-2
  0
BLOCK_RECORD
  5
20
100
AcDbSymbolTableRecord
100
AcDbBlockTableRecord
  2
ZSG20-3
  0
BLOCK_RECORD
  5
21
100
AcDbSymbolTableRecord
100
AcDbBlockTableRecord
  2
ZSG20-4
  0
BLOCK_RECORD
  5
22
100
AcDbSymbolTableRecord
100
AcDbBlockTableRecord
  2
ZSG20-5
  0
BLOCK_RECORD
  5
23
100
AcDbSymbolTableRecord
100
AcDbBlockTableRecord
  2
ZSG20-6
  0
BLOCK_RECORD
  5
24
100
AcDbSymbolTableRecord
100
AcDbBlockTableRecord
  2
ZSG20-7
  0
BLOCK_RECORD
  5
25
100
AcDbSymbolTableRecord
100
AcDbBlockTableRecord
  2
ZSG20-8
  0
BLOCK_RECORD
  5
26
100
AcDbSymbolTableRecord
100
AcDbBlockTableRecord
  2
ZSG20-9
  0
BLOCK_RECORD
  5
27
100
AcDbSymbolTableRecord
100
AcDbBlockTableRecord
  2
ZSG20-10
  0
BLOCK_RECORD
  5
28
100
AcDbSymbolTableRecord
100
AcDbBlockTableRecord
  2
ZSG20-11
  0
BLOCK_RECORD
  5
382
100
AcDbSymbolTableRecord
100
AcDbBlockTableRecord
  2
_OPEN30
  0
ENDTAB
  0
ENDSEC
  0
SECTION
  2
BLOCKS
  0
BLOCK
  5
D
100
AcDbEntity
  8
0
100
AcDbBlockBegin
  2
*MODEL_SPACE
 70
               0
 10
0.0
 20
0.0
 30
0.0
  3
*MODEL_SPACE
  1

  0
ENDBLK
  5
E
100
AcDbEntity
  8
0
100
AcDbBlockEnd
  0
BLOCK
  5
F
100
AcDbEntity
 67
               1
  8
0
100
AcDbBlockBegin
  2
*PAPER_SPACE
 70
               0
 10
0.0
 20
0.0
 30
0.0
  3
*PAPER_SPACE
  1

  0
ENDBLK
  5
10
100
AcDbEntity
 67
               1
  8
0
100
AcDbBlockEnd
  0
BLOCK
  5
29
100
AcDbEntity
  8
0
100
AcDbBlockBegin
  2
ZSG20-1
 70
               0
 10
0.0
 20
0.0
 30
0.0
  3
ZSG20-1
  1

  0
LINE
  5
2A
100
AcDbEntity
  8
0
  6
CONTINUOUS
 62
               7
100
AcDbLine
 10
114.99999999999999
 20
-46.999999999999986
 30
0.0
 11
193.0
 21
-46.999999999999986
 31
0.0
  0
LINE
  5
2B
100
AcDbEntity
  8
0
  6
CONTINUOUS
 62
               4
100
AcDbLine
 10
114.99999999999999
 20
-48.5
 30
0.0
 11
103.99999999999999
 21
-48.5
 31
0.0
  0
LINE
  5
2C
100
AcDbEntity
  8
0
  6
CONTINUOUS
 62
               4
100
AcDbLine
 10
103.99999999999999
 20
-19.5
 30
0.0
 11
103.99999999999999
 21
-48.5
 31
0.0
  0
LINE
  5
2D
100
AcDbEntity
  8
0
  6
CONTINUOUS
 62
               4
100
AcDbLine
 10
114.99999999999999
 20
-19.5
 30
0.0
 11
114.99999999999999
 21
-48.5
 31
0.0
  0
CIRCLE
  5
2E
100
AcDbEntity
  8
0
  6
CONTINUOUS
 62
               4
100
AcDbCircle
 10
181.0
 20
-12.0
 30
0.0
 40
2.5
  0
CIRCLE
  5
2F
100
AcDbEntity
  8
0
  6
CONTINUOUS
 62
             200
100
AcDbCircle
 10
181.0
 20
-12.0
 30
0.0
 40
3.0
  0
LINE
  5
31
100
AcDbEntity
  8
0
  6
CENTER
 62
             200
100
AcDbLine
 10
181.0
 20
-7.5
 30
0.0
 11
181.0
 21
-16.5
 31
0.0
  0
LINE
  5
32
100
AcDbEntity
  8
0
  6
CENTER
 62
             200
100
AcDbLine
 10
185.5
 20
-12.0
 30
0.0
 11
176.5
 21
-12.0
 31
0.0
  0
CIRCLE
  5
33
100
AcDbEntity
  8
0
  6
CONTINUOUS
 62
             200
100
AcDbCircle
 10
181.0
 20
12.0
 30
0.0
 40
3.0
  0
CIRCLE
  5
34
100
AcDbEntity
  8
0
  6
CONTINUOUS
 62
               4
100
AcDbCircle
 10
181.0
 20
12.0
 30
0.0
 40
2.5
  0
LINE
  5
35
100
AcDbEntity
  8
0
  6
CENTER
 62
             200
100
AcDbLine
 10
181.0
 20
7.5
 30
0.0
 11
181.0
 21
16.5
 31
0.0
  0
LINE
  5
36
100
AcDbEntity
  8
0
  6
CENTER
 62
             200
100
AcDbLine
 10
185.5
 20
12.0
 30
0.0
 11
176.5
 21
12.0
 31
0.0
  0
LINE
  5
37
100
AcDbEntity
  8
0
  6
CENTER
 62
               2
100
AcDbLine
 10
59.999999999999986
 20
-3.5
 30
0.0
 11
59.999999999999986
 21
3.5
 31
0.0
  0
CIRCLE
  5
38
100
AcDbEntity
  8
0
  6
CONTINUOUS
 62
               7
100
AcDbCircle
 10
59.999999999999986
 20
0.0
 30
0.0
 40
2.0
  0
LINE
  5
39
100
AcDbEntity
  8
0
  6
CONTINUOUS
 62
               7
100
AcDbLine
 10
97.999999999999986
 20
-2.0
 30
0.0
 11
95.999999999999986
 21
-2.0
 31
0.0
  0
LINE
  5
3A
100
AcDbEntity
  8
0
  6
CONTINUOUS
 62
               7
100
AcDbLine
 10
97.999999999999986
 20
2.0
 30
0.0
 11
95.999999999999986
 21
2.0
 31
0.0
  0
LINE
  5
3B
100
AcDbEntity
  8
0
  6
CENTER
 62
               2
100
AcDbLine
 10
96.999999999999986
 20
3.5
 30
0.0
 11
96.999999999999986
 21
-3.5
 31
0.0
  0
LINE
  5
3C
100
AcDbEntity
  8
0
  6
CENTER
 62
               2
100
AcDbLine
 10
95.999999999999986
 20
-3.5
 30
0.0
 11
95.999999999999986
 21
3.5
 31
0.0
  0
ARC
  5
3D
100
AcDbEntity
  8
0
  6
CONTINUOUS
 62
               7
100
AcDbCircle
 10
97.999999999999986
 20
0.0
 30
0.0
 40
2.0
100
AcDbArc
 50
269.99999999999937
 51
89.999999999999801
  0
LINE
  5
3E
100
AcDbEntity
  8
0
  6
CENTER
 62
               2
100
AcDbLine
 10
97.999999999999986
 20
-3.5
 30
0.0
 11
97.999999999999986
 21
3.5
 31
0.0
  0
ARC
  5
3F
100
AcDbEntity
  8
0
  6
CONTINUOUS
 62
               7
100
AcDbCircle
 10
95.999999999999986
 20
0.0
 30
0.0
 40
2.0
100
AcDbArc
 50
89.999999999999815
 51
269.99999999999937
  0
CIRCLE
  5
40
100
AcDbEntity
  8
0
  6
CONTINUOUS
 62
               7
100
AcDbCircle
 10
96.999999999999986
 20
-12.0
 30
0.0
 40
2.5
  0
LINE
  5
41
100
AcDbEntity
  8
0
  6
CENTER
 62
               2
100
AcDbLine
 10
62.499999999999986
 20
-12.0
 30
0.0
 11
71.499999999999986
 21
-12.0
 31
0.0
  0
CIRCLE
  5
42
100
AcDbEntity
  8
0
  6
CONTINUOUS
 62
               7
100
AcDbCircle
 10
66.999999999999986
 20
-12.0
 30
0.0
 40
2.5
  0
CIRCLE
  5
43
100
AcDbEntity
  8
0
  6
CONTINUOUS
 62
               2
100
AcDbCircle
 10
66.999999999999986
 20
-12.0
 30
0.0
 40
3.0
  0
LINE
  5
44
100
AcDbEntity
  8
0
  6
CENTER
 62
               2
100
AcDbLine
 10
66.999999999999986
 20
-7.5
 30
0.0
 11
66.999999999999986
 21
-16.5
 31
0.0
  0
CIRCLE
  5
45
100
AcDbEntity
  8
0
  6
CONTINUOUS
 62
               2
100
AcDbCircle
 10
96.999999999999986
 20
-12.0
 30
0.0
 40
3.0
  0
LINE
  5
46
100
AcDbEntity
  8
0
  6
CENTER
 62
               2
100
AcDbLine
 10
96.999999999999986
 20
-7.5
 30
0.0
 11
96.999999999999986
 21
-16.5
 31
0.0
  0
LINE
  5
47
100
AcDbEntity
  8
0
  6
CENTER
 62
               2
100
AcDbLine
 10
101.49999999999999
 20
-12.0
 30
0.0
 11
92.499999999999986
 21
-12.0
 31
0.0
  0
LINE
  5
48
100
AcDbEntity
  8
0
  6
CENTER
 62
               2
100
AcDbLine
 10
62.499999999999986
 20
12.0
 30
0.0
 11
71.499999999999986
 21
12.0
 31
0.0
  0
CIRCLE
  5
49
100
AcDbEntity
  8
0
  6
CONTINUOUS
 62
               7
100
AcDbCircle
 10
66.999999999999986
 20
12.0
 30
0.0
 40
2.5
  0
CIRCLE
  5
4A
100
AcDbEntity
  8
0
  6
CONTINUOUS
 62
               2
100
AcDbCircle
 10
66.999999999999986
 20
12.0
 30
0.0
 40
3.0
  0
LINE
  5
4B
100
AcDbEntity
  8
0
  6
CENTER
 62
               2
100
AcDbLine
 10
66.999999999999986
 20
7.5
 30
0.0
 11
66.999999999999986
 21
16.5
 31
0.0
  0
CIRCLE
  5
4C
100
AcDbEntity
  8
0
  6
CONTINUOUS
 62
               7
100
AcDbCircle
 10
96.999999999999986
 20
12.0
 30
0.0
 40
2.5
  0
CIRCLE
  5
4D
100
AcDbEntity
  8
0
  6
CONTINUOUS
 62
               2
100
AcDbCircle
 10
96.999999999999986
 20
12.0
 30
0.0
 40
3.0
  0
LINE
  5
4E
100
AcDbEntity
  8
0
  6
CENTER
 62
               2
100
AcDbLine
 10
96.999999999999986
 20
7.5
 30
0.0
 11
96.999999999999986
 21
16.5
 31
0.0
  0
LINE
  5
4F
100
AcDbEntity
  8
0
  6
CENTER
 62
               2
100
AcDbLine
 10
101.49999999999999
 20
12.0
 30
0.0
 11
92.499999999999986
 21
12.0
 31
0.0
  0
LINE
  5
50
100
AcDbEntity
  8
0
  6
CONTINUOUS
 62
               7
100
AcDbLine
 10
43.999999983193447
 20
29.600000000000591
 30
0.0
 11
192.99999998319345
 21
29.600000000000591
 31
0.0
  0
LINE
  5
51
100
AcDbEntity
  8
0
  6
CONTINUOUS
 62
               7
100
AcDbLine
 10
43.999999983193447
 20
26.400000000000603
 30
0.0
 11
192.99999998319345
 21
26.400000000000603
 31
0.0
  0
LINE
  5
52
100
AcDbEntity
  8
0
  6
CONTINUOUS
 62
               7
100
AcDbLine
 10
43.999999983193447
 20
25.000000000000597
 30
0.0
 11
192.99999998319345
 21
25.000000000000597
 31
0.0
  0
LINE
  5
53
100
AcDbEntity
  8
0
  6
CONTINUOUS
 62
               7
100
AcDbLine
 10
43.999999983193447
 20
37.000000000000597
 30
0.0
 11
192.99999998319345
 21
37.000000000000597
 31
0.0
  0
LINE
  5
54
100
AcDbEntity
  8
0
  6
CONTINUOUS
 62
               7
100
AcDbLine
 10
43.999999983193447
 20
32.400000000000603
 30
0.0
 11
192.99999998319345
 21
32.400000000000603
 31
0.0
  0
LINE
  5
55
100
AcDbEntity
  8
0
  6
CONTINUOUS
 62
               7
100
AcDbLine
 10
43.999999983193447
 20
35.600000000000591
 30
0.0
 11
192.99999998319345
 21
35.600000000000591
 31
0.0
  0
LINE
  5
56
100
AcDbEntity
  8
0
  6
CENTER
 62
               2
100
AcDbLine
 10
48.749999999999986
 20
12.0
 30
0.0
 11
61.249999999999986
 21
12.0
 31
0.0
  0
LINE
  5
57
100
AcDbEntity
  8
0
  6
CENTER
 62
               2
100
AcDbLine
 10
54.999999999999986
 20
5.75
 30
0.0
 11
54.999999999999986
 21
18.25
 31
0.0
  0
CIRCLE
  5
58
100
AcDbEntity
  8
0
  6
CONTINUOUS
 62
               7
100
AcDbCircle
 10
54.999999999999986
 20
12.0
 30
0.0
 40
2.7000000000000002
  0
LINE
  5
59
100
AcDbEntity
  8
0
  6
CONTINUOUS
 62
               7
100
AcDbLine
 10
43.09999999999998
 20
37.000000000000597
 30
0.0
 11
43.09999999999998
 21
25.000000000000597
 31
0.0
  0
LINE
  5
5A
100
AcDbEntity
  8
0
  6
CONTINUOUS
 62
               7
100
AcDbLine
 10
41.999999999999986
 20
25.000000000000597
 30
0.0
 11
43.09999999999998
 21
25.000000000000597
 31
0.0
  0
CIRCLE
  5
5B
100
AcDbEntity
  8
0
  6
CONTINUOUS
 62
               7
100
AcDbCircle
 10
54.999999999999986
 20
12.0
 30
0.0
 40
4.75
  0
LINE
  5
5C
100
AcDbEntity
  8
0
  6
CENTER
 62
               2
100
AcDbLine
 10
103.74999999999999
 20
12.0
 30
0.0
 11
116.24999999999999
 21
12.0
 31
0.0
  0
LINE
  5
5D
100
AcDbEntity
  8
0
  6
CENTER
 62
               2
100
AcDbLine
 10
109.99999999999999
 20
5.75
 30
0.0
 11
109.99999999999999
 21
18.25
 31
0.0
  0
CIRCLE
  5
5E
100
AcDbEntity
  8
0
  6
CONTINUOUS
 62
               7
100
AcDbCircle
 10
109.99999999999999
 20
12.0
 30
0.0
 40
2.7000000000000002
  0
CIRCLE
  5
5F
100
AcDbEntity
  8
0
  6
CONTINUOUS
 62
               7
100
AcDbCircle
 10
109.99999999999999
 20
12.0
 30
0.0
 40
4.75
  0
LINE
  5
60
100
AcDbEntity
  8
0
  6
CONTINUOUS
 62
               7
100
AcDbLine
 10
43.09999999999998
 20
28.000000000000597
 30
0.0
 11
43.999999999999986
 21
28.000000000000597
 31
0.0
  0
LINE
  5
61
100
AcDbEntity
  8
0
  6
CONTINUOUS
 62
               7
100
AcDbLine
 10
43.09999999999998
 20
34.000000000000597
 30
0.0
 11
43.999999999999986
 21
34.000000000000597
 31
0.0
  0
LINE
  5
62
100
AcDbEntity
  8
0
  6
CONTINUOUS
 62
               7
100
AcDbLine
 10
41.999999999999986
 20
37.000000000000597
 30
0.0
 11
43.09999999999998
 21
37.000000000000597
 31
0.0
  0
LINE
  5
63
100
AcDbEntity
  8
0
  6
CONTINUOUS
 62
               7
100
AcDbLine
 10
19.999999999999986
 20
17.5
 30
0.0
 11
193.0
 21
17.5
 31
0.0
  0
LINE
  5
64
100
AcDbEntity
  8
0
  6
CONTINUOUS
 62
               7
100
AcDbLine
 10
19.999999999999986
 20
4.5
 30
0.0
 11
193.0
 21
4.5
 31
0.0
  0
LINE
  5
65
100
AcDbEntity
  8
0
  6
CONTINUOUS
 62
               7
100
AcDbLine
 10
19.999999999999986
 20
5.0
 30
0.0
 11
193.0
 21
5.0
 31
0.0
  0
LINE
  5
66
100
AcDbEntity
  8
0
  6
CONTINUOUS
 62
               7
100
AcDbLine
 10
43.999999983193447
 20
47.0
 30
0.0
 11
193.0
 21
47.0
 31
0.0
  0
LINE
  5
67
100
AcDbEntity
  8
0
  6
CONTINUOUS
 62
               7
100
AcDbLine
 10
43.999999999999986
 20
19.5
 30
0.0
 11
193.0
 21
19.5
 31
0.0
  0
LINE
  5
68
100
AcDbEntity
  8
0
  6
CONTINUOUS
 62
               7
100
AcDbLine
 10
19.999999999999986
 20
18.0
 30
0.0
 11
193.0
 21
18.0
 31
0.0
  0
LINE
  5
69
100
AcDbEntity
  8
0
  6
CONTINUOUS
 62
               7
100
AcDbLine
 10
43.999999999999986
 20
18.0
 30
0.0
 11
43.999999999999986
 21
51.0
 31
0.0
  0
LINE
  5
6A
100
AcDbEntity
  8
0
  6
CENTER
 62
               2
100
AcDbLine
 10
28.499999999999986
 20
31.000000000000597
 30
0.0
 11
45.499999999999986
 21
31.000000000000597
 31
0.0
  0
LINE
  5
6B
100
AcDbEntity
  8
0
  6
CONTINUOUS
 62
               7
100
AcDbLine
 10
19.999999999999986
 20
-17.5
 30
0.0
 11
193.0
 21
-17.5
 31
0.0
  0
LINE
  5
6C
100
AcDbEntity
  8
0
  6
CONTINUOUS
 62
               7
100
AcDbLine
 10
19.999999999999986
 20
-4.5
 30
0.0
 11
193.0
 21
-4.5
 31
0.0
  0
LINE
  5
6D
100
AcDbEntity
  8
0
  6
CONTINUOUS
 62
               7
100
AcDbLine
 10
19.999999999999986
 20
-5.0
 30
0.0
 11
193.0
 21
-5.0
 31
0.0
  0
LINE
  5
6E
100
AcDbEntity
  8
0
  6
CONTINUOUS
 62
               7
100
AcDbLine
 10
43.999999983193447
 20
-46.999999999999986
 30
0.0
 11
103.99999999999999
 21
-46.999999999999986
 31
0.0
  0
LINE
  5
6F
100
AcDbEntity
  8
0
  6
CONTINUOUS
 62
               7
100
AcDbLine
 10
43.999999999999986
 20
-19.5
 30
0.0
 11
193.0
 21
-19.5
 31
0.0
  0
LINE
  5
70
100
AcDbEntity
  8
0
  6
CONTINUOUS
 62
               7
100
AcDbLine
 10
19.999999999999986
 20
-18.0
 30
0.0
 11
193.0
 21
-18.0
 31
0.0
  0
LINE
  5
71
100
AcDbEntity
  8
0
  6
CONTINUOUS
 62
               7
100
AcDbLine
 10
41.999999999999986
 20
-37.000000000000597
 30
0.0
 11
43.09999999999998
 21
-37.000000000000597
 31
0.0
  0
LINE
  5
72
100
AcDbEntity
  8
0
  6
CONTINUOUS
 62
               7
100
AcDbLine
 10
43.09999999999998
 20
-34.000000000000597
 30
0.0
 11
43.999999999999986
 21
-34.000000000000597
 31
0.0
  0
LINE
  5
73
100
AcDbEntity
  8
0
  6
CONTINUOUS
 62
               7
100
AcDbLine
 10
43.09999999999998
 20
-28.000000000000597
 30
0.0
 11
43.999999999999986
 21
-28.000000000000597
 31
0.0
  0
LINE
  5
74
100
AcDbEntity
  8
0
  6
CONTINUOUS
 62
               7
100
AcDbLine
 10
193.0
 20
51.0
 30
0.0
 11
193.0
 21
-50.999999999999986
 31
0.0
  0
CIRCLE
  5
75
100
AcDbEntity
  8
0
  6
CONTINUOUS
 62
               7
100
AcDbCircle
 10
109.99999999999999
 20
-12.0
 30
0.0
 40
4.75
  0
CIRCLE
  5
76
100
AcDbEntity
  8
0
  6
CONTINUOUS
 62
               7
100
AcDbCircle
 10
109.99999999999999
 20
-12.0
 30
0.0
 40
2.7000000000000002
  0
LINE
  5
77
100
AcDbEntity
  8
0
  6
CENTER
 62
               2
100
AcDbLine
 10
109.99999999999999
 20
-5.75
 30
0.0
 11
109.99999999999999
 21
-18.25
 31
0.0
  0
LINE
  5
78
100
AcDbEntity
  8
0
  6
CENTER
 62
               2
100
AcDbLine
 10
103.74999999999999
 20
-12.0
 30
0.0
 11
116.24999999999999
 21
-12.0
 31
0.0
  0
CIRCLE
  5
79
100
AcDbEntity
  8
0
  6
CONTINUOUS
 62
               7
100
AcDbCircle
 10
54.999999999999986
 20
-12.0
 30
0.0
 40
4.75
  0
LINE
  5
7A
100
AcDbEntity
  8
0
  6
CONTINUOUS
 62
               7
100
AcDbLine
 10
43.999999999999986
 20
51.0
 30
0.0
 11
193.0
 21
51.0
 31
0.0
  0
LINE
  5
7B
100
AcDbEntity
  8
0
  6
CONTINUOUS
 62
               7
100
AcDbLine
 10
29.999999983193447
 20
40.0
 30
0.0
 11
41.999999999999986
 21
40.0
 31
0.0
  0
LINE
  5
7C
100
AcDbEntity
  8
0
  6
CONTINUOUS
 62
               7
100
AcDbLine
 10
41.999999999999986
 20
-25.000000000000597
 30
0.0
 11
43.09999999999998
 21
-25.000000000000597
 31
0.0
  0
LINE
  5
7D
100
AcDbEntity
  8
0
  6
CONTINUOUS
 62
               7
100
AcDbLine
 10
43.09999999999998
 20
-37.000000000000597
 30
0.0
 11
43.09999999999998
 21
-25.000000000000597
 31
0.0
  0
CIRCLE
  5
7E
100
AcDbEntity
  8
0
  6
CONTINUOUS
 62
               7
100
AcDbCircle
 10
54.999999999999986
 20
-12.0
 30
0.0
 40
2.7000000000000002
  0
LINE
  5
7F
100
AcDbEntity
  8
0
  6
CENTER
 62
               2
100
AcDbLine
 10
54.999999999999986
 20
-5.75
 30
0.0
 11
54.999999999999986
 21
-18.25
 31
0.0
  0
LINE
  5
80
100
AcDbEntity
  8
0
  6
CONTINUOUS
 62
               7
100
AcDbLine
 10
43.999999999999986
 20
-18.0
 30
0.0
 11
43.999999999999986
 21
-50.999999999999986
 31
0.0
  0
LINE
  5
81
100
AcDbEntity
  8
0
  6
CONTINUOUS
 62
               7
100
AcDbLine
 10
41.999999999999986
 20
40.0
 30
0.0
 11
41.999999999999986
 21
18.0
 31
0.0
  0
LINE
  5
82
100
AcDbEntity
  8
0
  6
CONTINUOUS
 62
               7
100
AcDbLine
 10
29.999999983193447
 20
-40.0
 30
0.0
 11
41.999999999999986
 21
-40.0
 31
0.0
  0
LINE
  5
83
100
AcDbEntity
  8
0
  6
CONTINUOUS
 62
               7
100
AcDbLine
 10
29.999999999999986
 20
40.0
 30
0.0
 11
29.999999999999986
 21
18.0
 31
0.0
  0
LINE
  5
84
100
AcDbEntity
  8
0
  6
CENTER
 62
               2
100
AcDbLine
 10
48.749999999999986
 20
-12.0
 30
0.0
 11
61.249999999999986
 21
-12.0
 31
0.0
  0
LINE
  5
85
100
AcDbEntity
  8
0
  6
CONTINUOUS
 62
               7
100
AcDbLine
 10
43.999999983193447
 20
-50.999999999999986
 30
0.0
 11
193.0
 21
-50.999999999999986
 31
0.0
  0
LINE
  5
86
100
AcDbEntity
  8
0
  6
CENTER
 62
               2
100
AcDbLine
 10
28.499999999999986
 20
-31.000000000000597
 30
0.0
 11
45.499999999999986
 21
-31.000000000000597
 31
0.0
  0
LINE
  5
87
100
AcDbEntity
  8
0
  6
CENTER
 62
               2
100
AcDbLine
 10
-3.0
 20
0.0
 30
0.0
 11
196.0
 21
0.0
 31
0.0
  0
LINE
  5
88
100
AcDbEntity
  8
0
  6
CENTER
 62
             200
100
AcDbLine
 10
158.75
 20
12.0
 30
0.0
 11
171.25
 21
12.0
 31
0.0
  0
LINE
  5
89
100
AcDbEntity
  8
0
  6
CENTER
 62
             200
100
AcDbLine
 10
165.0
 20
5.75
 30
0.0
 11
165.0
 21
18.25
 31
0.0
  0
CIRCLE
  5
8A
100
AcDbEntity
  8
0
  6
CONTINUOUS
 62
               4
100
AcDbCircle
 10
165.0
 20
12.0
 30
0.0
 40
4.75
  0
CIRCLE
  5
8B
100
AcDbEntity
  8
0
  6
CONTINUOUS
 62
               4
100
AcDbCircle
 10
165.0
 20
12.0
 30
0.0
 40
2.7000000000000002
  0
CIRCLE
  5
8C
100
AcDbEntity
  8
0
  6
CONTINUOUS
 62
               4
100
AcDbCircle
 10
165.0
 20
-12.0
 30
0.0
 40
4.75
  0
CIRCLE
  5
8D
100
AcDbEntity
  8
0
  6
CONTINUOUS
 62
               4
100
AcDbCircle
 10
165.0
 20
-12.0
 30
0.0
 40
2.7000000000000002
  0
LINE
  5
8E
100
AcDbEntity
  8
0
  6
CENTER
 62
             200
100
AcDbLine
 10
165.0
 20
-5.75
 30
0.0
 11
165.0
 21
-18.25
 31
0.0
  0
LINE
  5
8F
100
AcDbEntity
  8
0
  6
CENTER
 62
             200
100
AcDbLine
 10
158.75
 20
-12.0
 30
0.0
 11
171.25
 21
-12.0
 31
0.0
  0
CIRCLE
  5
90
100
AcDbEntity
  8
0
  6
CONTINUOUS
 62
               4
100
AcDbCircle
 10
109.49999999999999
 20
-41.5
 30
0.0
 40
2.0
  0
CIRCLE
  5
91
100
AcDbEntity
  8
0
  6
CONTINUOUS
 62
             200
100
AcDbCircle
 10
109.49999999999999
 20
-41.5
 30
0.0
 40
2.5
  0
LINE
  5
92
100
AcDbEntity
  8
0
  6
CENTER
 62
             200
100
AcDbLine
 10
109.49999999999999
 20
-37.5
 30
0.0
 11
109.49999999999999
 21
-45.5
 31
0.0
  0
LINE
  5
93
100
AcDbEntity
  8
0
  6
CENTER
 62
             200
100
AcDbLine
 10
105.49999999999999
 20
-41.5
 30
0.0
 11
113.49999999999999
 21
-41.5
 31
0.0
  0
LINE
  5
94
100
AcDbEntity
  8
0
  6
CONTINUOUS
 62
               7
100
AcDbLine
 10
0.0
 20
40.000000000000028
 30
0.0
 11
19.999999999999986
 21
40.000000000000028
 31
0.0
  0
LINE
  5
95
100
AcDbEntity
  8
0
  6
CONTINUOUS
 62
               7
100
AcDbLine
 10
0.0
 20
40.000000000000028
 30
0.0
 11
0.0
 21
-40.0
 31
0.0
  0
LINE
  5
96
100
AcDbEntity
  8
0
  6
CONTINUOUS
 62
               7
100
AcDbLine
 10
19.999999999999986
 20
40.000000000000028
 30
0.0
 11
19.999999999999986
 21
-40.0
 31
0.0
  0
LINE
  5
97
100
AcDbEntity
  8
0
  6
CONTINUOUS
 62
               7
100
AcDbLine
 10
0.0
 20
-40.0
 30
0.0
 11
19.999999999999986
 21
-40.0
 31
0.0
  0
LINE
  5
98
100
AcDbEntity
  8
0
  6
CONTINUOUS
 62
               7
100
AcDbLine
 10
29.999999999999986
 20
-19.5
 30
0.0
 11
41.999999999999986
 21
-19.5
 31
0.0
  0
LINE
  5
99
100
AcDbEntity
  8
0
  6
CONTINUOUS
 62
               7
100
AcDbLine
 10
29.999999999999986
 20
19.5
 30
0.0
 11
41.999999999999986
 21
19.5
 31
0.0
  0
LINE
  5
9A
100
AcDbEntity
  8
0
  6
CONTINUOUS
 62
               7
100
AcDbLine
 10
41.999999999999986
 20
-18.0
 30
0.0
 11
41.999999999999986
 21
-40.0
 31
0.0
  0
LINE
  5
9B
100
AcDbEntity
  8
0
  6
CONTINUOUS
 62
               7
100
AcDbLine
 10
29.999999999999986
 20
-18.0
 30
0.0
 11
29.999999999999986
 21
-39.999999999999993
 31
0.0
  0
LINE
  5
9D
100
AcDbEntity
  8
0
  6
PHANTOM
 62
               3
100
AcDbLine
 10
173.0
 20
77.05551362713291
 30
0.0
 11
173.0
 21
-85.999999999999972
 31
0.0
  0
ENDBLK
  5
9E
100
AcDbEntity
  8
0
100
AcDbBlockEnd
  0
BLOCK
  5
9F
100
AcDbEntity
  8
0
100
AcDbBlockBegin
  2
ZSG20-2
 70
               0
 10
0.0
 20
0.0
 30
0.0
  3
ZSG20-2
  1

  0
LINE
  5
A0
100
AcDbEntity
  8
0
  6
CONTINUOUS
 62
               4
100
AcDbLine
 10
1.2999999999998977
 20
10.650000000000006
 30
0.0
 11
1.2999999999999545
 21
6.9000000000000057
 31
0.0
  0
LINE
  5
A1
100
AcDbEntity
  8
0
  6
CONTINUOUS
 62
               4
100
AcDbLine
 10
-1.3000000000001251
 20
9.1499999999999773
 30
0.0
 11
-1.3000000000000682
 21
6.8999999999999773
 31
0.0
  0
LINE
  5
A2
100
AcDbEntity
  8
0
  6
CONTINUOUS
 62
               4
100
AcDbLine
 10
-1.25
 20
0.4999999999999716
 30
0.0
 11
1.25
 21
0.5
 31
0.0
  0
LINE
  5
A3
100
AcDbEntity
  8
0
  6
CONTINUOUS
 62
               4
100
AcDbLine
 10
1.25
 20
0.5
 30
0.0
 11
1.25
 21
-0.0000000000000284
 31
0.0
  0
LINE
  5
A4
100
AcDbEntity
  8
0
  6
CONTINUOUS
 62
             200
100
AcDbLine
 10
1.0199999999999818
 20
0.5
 30
0.0
 11
1.0200000000000387
 21
-0.0000000000000284
 31
0.0
  0
LINE
  5
A5
100
AcDbEntity
  8
0
  6
CONTINUOUS
 62
             200
100
AcDbLine
 10
-1.0200000000000387
 20
0.4999999999999716
 30
0.0
 11
-1.0199999999999818
 21
-0.0000000000000284
 31
0.0
  0
LINE
  5
A6
100
AcDbEntity
  8
0
  6
CONTINUOUS
 62
               4
100
AcDbLine
 10
-1.25
 20
0.4999999999999716
 30
0.0
 11
-1.25
 21
-0.0000000000000284
 31
0.0
  0
LINE
  5
A7
100
AcDbEntity
  8
0
  6
CONTINUOUS
 62
               4
100
AcDbLine
 10
-1.2499999999999432
 20
-3.7700000000000387
 30
0.0
 11
1.2500000000000568
 21
-3.7700000000000102
 31
0.0
  0
LINE
  5
A8
100
AcDbEntity
  8
0
  6
CONTINUOUS
 62
               4
100
AcDbLine
 10
1.2500000000000568
 20
-2.5999999999999943
 30
0.0
 11
1.2500000000000568
 21
-3.7700000000000102
 31
0.0
  0
LINE
  5
A9
100
AcDbEntity
  8
0
  6
CONTINUOUS
 62
             200
100
AcDbLine
 10
1.0200000000000387
 20
-2.5999999999999943
 30
0.0
 11
1.0200000000000387
 21
-4.0000000000000284
 31
0.0
  0
LINE
  5
AA
100
AcDbEntity
  8
0
  6
CONTINUOUS
 62
             200
100
AcDbLine
 10
-1.019999999999925
 20
-2.6000000000000512
 30
0.0
 11
-1.0199999999999818
 21
-4.0000000000000284
 31
0.0
  0
LINE
  5
AB
100
AcDbEntity
  8
0
  6
CONTINUOUS
 62
               4
100
AcDbLine
 10
-1.2499999999999432
 20
-2.6000000000000512
 30
0.0
 11
-1.2499999999999432
 21
-3.7700000000000387
 31
0.0
  0
LINE
  5
AC
100
AcDbEntity
  8
0
  6
CONTINUOUS
 62
               4
100
AcDbLine
 10
-1.0199999999999818
 20
-4.0000000000000284
 30
0.0
 11
-1.2499999999999432
 21
-3.7700000000000387
 31
0.0
  0
LINE
  5
AD
100
AcDbEntity
  8
0
  6
CONTINUOUS
 62
               4
100
AcDbLine
 10
1.0200000000000387
 20
-4.0000000000000284
 30
0.0
 11
1.2500000000000568
 21
-3.7700000000000102
 31
0.0
  0
LINE
  5
AE
100
AcDbEntity
  8
0
  6
CONTINUOUS
 62
               4
100
AcDbLine
 10
-1.0199999999999818
 20
-4.0000000000000284
 30
0.0
 11
1.0200000000000387
 21
-4.0000000000000284
 31
0.0
  0
LINE
  5
AF
100
AcDbEntity
  8
0
  6
CONTINUOUS
 62
             200
100
AcDbLine
 10
-2.1600000000000819
 20
8.6499999999999773
 30
0.0
 11
2.1599999999998545
 21
11.150000000000034
 31
0.0
  0
LINE
  5
B0
100
AcDbEntity
  8
0
  6
CONTINUOUS
 62
               4
100
AcDbLine
 10
-2.2500000000000568
 20
6.8999999999999488
 30
0.0
 11
2.2499999999999432
 21
6.9000000000000057
 31
0.0
  0
LINE
  5
B1
100
AcDbEntity
  8
0
  6
CONTINUOUS
 62
               4
100
AcDbLine
 10
-2.0493901531919048
 20
-2.6000000000000512
 30
0.0
 11
2.0493901531919345
 21
-2.5999999999999943
 31
0.0
  0
LINE
  5
B2
100
AcDbEntity
  8
0
  6
CONTINUOUS
 62
               4
100
AcDbLine
 10
-2.0499999999999545
 20
-1.8000000000000114
 30
0.0
 11
2.0500000000000682
 21
-1.7999999999999829
 31
0.0
  0
LINE
  5
B3
100
AcDbEntity
  8
0
  6
CONTINUOUS
 62
               4
100
AcDbLine
 10
-1.5
 20
-0.0000000000000284
 30
0.0
 11
1.5
 21
0.0
 31
0.0
  0
LINE
  5
B4
100
AcDbEntity
  8
0
  6
CENTER
 62
             200
100
AcDbLine
 10
-0.0000000000001705
 20
12.559999999999974
 30
0.0
 11
0.0000000000000568
 21
-6.0600000000000307
 31
0.0
  0
LINE
  5
B5
100
AcDbEntity
  8
0
  6
CONTINUOUS
 62
               4
100
AcDbLine
 10
2.2499999999999432
 20
6.9000000000000057
 30
0.0
 11
2.25
 21
1.1500000000000341
 31
0.0
  0
LINE
  5
B6
100
AcDbEntity
  8
0
  6
CONTINUOUS
 62
               4
100
AcDbLine
 10
1.5
 20
0.4000000000000057
 30
0.0
 11
2.25
 21
1.1500000000000341
 31
0.0
  0
LINE
  5
B7
100
AcDbEntity
  8
0
  6
CONTINUOUS
 62
               4
100
AcDbLine
 10
1.5
 20
-0.4499999999999886
 30
0.0
 11
1.5
 21
0.4000000000000057
 31
0.0
  0
LINE
  5
B8
100
AcDbEntity
  8
0
  6
CONTINUOUS
 62
               4
100
AcDbLine
 10
2.0500000000000114
 20
-1.0
 30
0.0
 11
1.5
 21
-0.4499999999999886
 31
0.0
  0
LINE
  5
B9
100
AcDbEntity
  8
0
  6
CONTINUOUS
 62
               4
100
AcDbLine
 10
2.0500000000000114
 20
-1.0
 30
0.0
 11
2.0500000000000114
 21
-2.5499999999999829
 31
0.0
  0
LINE
  5
BA
100
AcDbEntity
  8
0
  6
CONTINUOUS
 62
               4
100
AcDbLine
 10
-2.0499999999999545
 20
-1.0000000000000568
 30
0.0
 11
-2.0499999999999545
 21
-2.5500000000000398
 31
0.0
  0
LINE
  5
BB
100
AcDbEntity
  8
0
  6
CONTINUOUS
 62
               4
100
AcDbLine
 10
-2.0499999999999545
 20
-1.0000000000000568
 30
0.0
 11
-1.5
 21
-0.4500000000000455
 31
0.0
  0
LINE
  5
BC
100
AcDbEntity
  8
0
  6
CONTINUOUS
 62
               4
100
AcDbLine
 10
-1.5
 20
-0.4500000000000455
 30
0.0
 11
-1.5
 21
0.3999999999999488
 31
0.0
  0
LINE
  5
BD
100
AcDbEntity
  8
0
  6
CONTINUOUS
 62
               4
100
AcDbLine
 10
-1.5
 20
0.3999999999999488
 30
0.0
 11
-2.2500000000000568
 21
1.1499999999999773
 31
0.0
  0
LINE
  5
BE
100
AcDbEntity
  8
0
  6
CONTINUOUS
 62
               4
100
AcDbLine
 10
-2.2500000000000568
 20
6.8999999999999488
 30
0.0
 11
-2.2500000000000568
 21
1.1499999999999773
 31
0.0
  0
LINE
  5
BF
100
AcDbEntity
  8
0
  6
CONTINUOUS
 62
               4
100
AcDbLine
 10
-2.2500000000000568
 20
5.3999999999999773
 30
0.0
 11
2.2499999999999432
 21
5.4000000000000341
 31
0.0
  0
ARC
  5
C0
100
AcDbEntity
  8
0
  6
CONTINUOUS
 62
               4
100
AcDbCircle
 10
0.000000000000014
 20
-2.5500000000000149
 30
0.0
 40
2.0499999999999998
100
AcDbArc
 50
180.00000000000028
 51
0.000000000000916
  0
ENDBLK
  5
C1
100
AcDbEntity
  8
0
100
AcDbBlockEnd
  0
BLOCK
  5
C2
100
AcDbEntity
  8
0
100
AcDbBlockBegin
  2
ZSG20-3
 70
               0
 10
0.0
 20
0.0
 30
0.0
  3
ZSG20-3
  1

  0
CIRCLE
  5
C3
100
AcDbEntity
  8
0
  6
CONTINUOUS
 62
               4
100
AcDbCircle
 10
19.117279052734375
 20
0.3181533813476563
 30
0.0
 40
0.25
  0
CIRCLE
  5
C4
100
AcDbEntity
  8
0
  6
CONTINUOUS
 62
               4
100
AcDbCircle
 10
19.729156494140625
 20
-0.34100341796875
 30
0.0
 40
0.25
  0
CIRCLE
  5
C5
100
AcDbEntity
  8
0
  6
CONTINUOUS
 62
               4
100
AcDbCircle
 10
19.117279052734375
 20
0.3181533813476563
 30
0.0
 40
0.449999988079071
  0
CIRCLE
  5
C6
100
AcDbEntity
  8
0
  6
CONTINUOUS
 62
               4
100
AcDbCircle
 10
19.729156494140625
 20
-0.34100341796875
 30
0.0
 40
0.449999988079071
  0
CIRCLE
  5
C7
100
AcDbEntity
  8
0
  6
CONTINUOUS
 62
               4
100
AcDbCircle
 10
19.4073486328125
 20
0.0
 30
0.0
 40
1.2999992370605469
  0
CIRCLE
  5
C8
100
AcDbEntity
  8
0
  6
CONTINUOUS
 62
               4
100
AcDbCircle
 10
2.0
 20
0.0
 30
0.0
 40
1.3999996185302734
  0
CIRCLE
  5
C9
100
AcDbEntity
  8
0
  6
CONTINUOUS
 62
               4
100
AcDbCircle
 10
2.0
 20
0.0
 30
0.0
 40
1.25
  0
ARC
  5
CA
100
AcDbEntity
  8
0
  6
CONTINUOUS
 62
               4
100
AcDbCircle
 10
19.5
 20
0.0
 30
0.0
 40
3.3043758866085451
100
AcDbArc
 50
137.08479304050996
 51
222.91520695948927
  0
LINE
  5
CB
100
AcDbEntity
  8
0
  6
CONTINUOUS
 62
               4
100
AcDbLine
 10
0.9300000000000068
 20
-0.6400000000000148
 30
0.0
 11
2.6399999999999864
 21
1.0699999999999932
 31
0.0
  0
LINE
  5
CC
100
AcDbEntity
  8
0
  6
CONTINUOUS
 62
               4
100
AcDbLine
 10
1.3500000000000227
 20
-1.0699999999999932
 30
0.0
 11
3.0699999999999932
 21
0.6400000000000148
 31
0.0
  0
LINE
  5
CD
100
AcDbEntity
  8
0
  6
CONTINUOUS
 62
               4
100
AcDbLine
 10
22.0
 20
2.25
 30
0.0
 11
22.0
 21
-2.25
 31
0.0
  0
LINE
  5
CE
100
AcDbEntity
  8
0
  6
CONTINUOUS
 62
               4
100
AcDbLine
 10
17.079999999999984
 20
-2.25
 30
0.0
 11
22.0
 21
-2.25
 31
0.0
  0
LINE
  5
CF
100
AcDbEntity
  8
0
  6
CONTINUOUS
 62
               4
100
AcDbLine
 10
17.079999999999984
 20
2.25
 30
0.0
 11
22.0
 21
2.25
 31
0.0
  0
LINE
  5
D0
100
AcDbEntity
  8
0
  6
CENTER
 62
             200
100
AcDbLine
 10
2.0
 20
2.8300000000000125
 30
0.0
 11
2.0
 21
-2.75
 31
0.0
  0
LINE
  5
D1
100
AcDbEntity
  8
0
  6
CONTINUOUS
 62
               4
100
AcDbLine
 10
0.0
 20
2.0499999999999829
 30
0.0
 11
0.0
 21
-2.0499999999999829
 31
0.0
  0
LINE
  5
D2
100
AcDbEntity
  8
0
  6
CONTINUOUS
 62
               4
100
AcDbLine
 10
0.0
 20
2.0499999999999829
 30
0.0
 11
16.910000000000025
 21
2.0499999999999829
 31
0.0
  0
LINE
  5
D3
100
AcDbEntity
  8
0
  6
CONTINUOUS
 62
               4
100
AcDbLine
 10
0.0
 20
-2.0499999999999829
 30
0.0
 11
16.910000000000025
 21
-2.0499999999999829
 31
0.0
  0
LINE
  5
D4
100
AcDbEntity
  8
0
  6
CONTINUOUS
 62
               4
100
AcDbLine
 10
0.0
 20
1.5
 30
0.0
 11
16.560000000000002
 21
1.5
 31
0.0
  0
LINE
  5
D5
100
AcDbEntity
  8
0
  6
CONTINUOUS
 62
               4
100
AcDbLine
 10
0.0
 20
-1.5
 30
0.0
 11
16.560000000000002
 21
-1.5
 31
0.0
  0
LINE
  5
D6
100
AcDbEntity
  8
0
  6
CENTER
 62
             200
100
AcDbLine
 10
-1.3199999999999932
 20
0.0
 30
0.0
 11
23.579999999999984
 21
0.0
 31
0.0
  0
ENDBLK
  5
D7
100
AcDbEntity
  8
0
100
AcDbBlockEnd
  0
BLOCK
  5
D8
100
AcDbEntity
  8
0
100
AcDbBlockBegin
  2
ZSG20-4
 70
               0
 10
0.0
 20
0.0
 30
0.0
  3
ZSG20-4
  1

  0
LINE
  5
D9
100
AcDbEntity
  8
0
  6
CONTINUOUS
 62
               7
100
AcDbLine
 10
0.0
 20
-5.0
 30
0.0
 11
0.3000000000000114
 21
-4.6999999999999886
 31
0.0
  0
LINE
  5
DA
100
AcDbEntity
  8
0
  6
CONTINUOUS
 62
               7
100
AcDbLine
 10
0.0
 20
-5.0
 30
0.0
 11
0.0
 21
-21.000000000000654
 31
0.0
  0
LINE
  5
DB
100
AcDbEntity
  8
0
  6
CONTINUOUS
 62
               7
100
AcDbLine
 10
0.0
 20
5.0
 30
0.0
 11
0.3000000000000114
 21
4.6999999999999886
 31
0.0
  0
LINE
  5
DC
100
AcDbEntity
  8
0
  6
CONTINUOUS
 62
               7
100
AcDbLine
 10
0.3000000000000114
 20
4.6999999999999886
 30
0.0
 11
0.3000000000000114
 21
-4.6999999999999886
 31
0.0
  0
LINE
  5
DD
100
AcDbEntity
  8
0
  6
CONTINUOUS
 62
               7
100
AcDbLine
 10
0.0
 20
21.000000000000398
 30
0.0
 11
0.0
 21
5.0
 31
0.0
  0
LINE
  5
DE
100
AcDbEntity
  8
0
  6
CONTINUOUS
 62
               7
100
AcDbLine
 10
31.5
 20
18.0
 30
0.0
 11
32.0
 21
17.5
 31
0.0
  0
LINE
  5
DF
100
AcDbEntity
  8
0
  6
CONTINUOUS
 62
               7
100
AcDbLine
 10
32.0
 20
5.0
 30
0.0
 11
31.5
 21
4.5
 31
0.0
  0
LINE
  5
E0
100
AcDbEntity
  8
0
  6
CONTINUOUS
 62
               7
100
AcDbLine
 10
32.0
 20
17.5
 30
0.0
 11
32.0
 21
5.0
 31
0.0
  0
LINE
  5
E1
100
AcDbEntity
  8
0
  6
CONTINUOUS
 62
               7
100
AcDbLine
 10
32.0
 20
-5.0
 30
0.0
 11
31.5
 21
-4.5
 31
0.0
  0
LINE
  5
E2
100
AcDbEntity
  8
0
  6
CONTINUOUS
 62
               7
100
AcDbLine
 10
32.0
 20
-17.5
 30
0.0
 11
32.0
 21
-5.0
 31
0.0
  0
LINE
  5
E3
100
AcDbEntity
  8
0
  6
CONTINUOUS
 62
               7
100
AcDbLine
 10
31.5
 20
-18.0
 30
0.0
 11
32.0
 21
-17.5
 31
0.0
  0
ARC
  5
E4
100
AcDbEntity
  8
0
  6
CONTINUOUS
 62
               7
100
AcDbCircle
 10
0.800000000000523
 20
-50.499999999999986
 30
0.0
 40
0.5
100
AcDbArc
 50
179.99999999999963
 51
269.99999999999937
  0
LINE
  5
E5
100
AcDbEntity
  8
0
  6
CONTINUOUS
 62
               7
100
AcDbLine
 10
0.300000000000523
 20
-50.499999999999986
 30
0.0
 11
0.300000000000523
 21
-49.29999999999999
 31
0.0
  0
LINE
  5
E6
100
AcDbEntity
  8
0
  6
CONTINUOUS
 62
               7
100
AcDbLine
 10
0.3000000119214406
 20
-49.300000011920915
 30
0.0
 11
0.0000000000005116
 21
-48.999999999999986
 31
0.0
  0
LINE
  5
E7
100
AcDbEntity
  8
0
  6
CONTINUOUS
 62
               7
100
AcDbLine
 10
0.0000000000005116
 20
-48.999999999999979
 30
0.0
 11
0.0000000000004547
 21
-38.999999940396009
 31
0.0
  0
LINE
  5
E8
100
AcDbEntity
  8
0
  6
CONTINUOUS
 62
               7
100
AcDbLine
 10
0.3000000119211563
 20
-38.699999988079718
 30
0.0
 11
0.0000000596048721
 21
-38.999999940396009
 31
0.0
  0
LINE
  5
E9
100
AcDbEntity
  8
0
  6
CONTINUOUS
 62
               7
100
AcDbLine
 10
0.800000000000523
 20
-50.999999999999986
 30
0.0
 11
27.000000000000028
 21
-50.999999999999986
 31
0.0
  0
LINE
  5
EA
100
AcDbEntity
  8
0
  6
CONTINUOUS
 62
               7
100
AcDbLine
 10
0.3000000119211563
 20
-21.300000011921583
 30
0.0
 11
0.0000000000002274
 21
-21.000000000000654
 31
0.0
  0
LINE
  5
EB
100
AcDbEntity
  8
0
  6
CONTINUOUS
 62
               7
100
AcDbLine
 10
0.3000000000002387
 20
-38.700000000000635
 30
0.0
 11
0.3000000000002387
 21
-21.300000000000665
 31
0.0
  0
LINE
  5
EC
100
AcDbEntity
  8
0
  6
CONTINUOUS
 62
               7
100
AcDbLine
 10
0.3000000119211563
 20
21.300000011921583
 30
0.0
 11
0.0000000000002274
 21
21.000000000000654
 31
0.0
  0
LINE
  5
ED
100
AcDbEntity
  8
0
  6
CONTINUOUS
 62
               7
100
AcDbLine
 10
0.3000000119211563
 20
38.699999988079725
 30
0.0
 11
0.0000000596048721
 21
38.999999940396009
 31
0.0
  0
LINE
  5
EE
100
AcDbEntity
  8
0
  6
CONTINUOUS
 62
               7
100
AcDbLine
 10
0.0000000000005116
 20
48.999999999999972
 30
0.0
 11
0.0000000000004547
 21
38.999999940396009
 31
0.0
  0
LINE
  5
EF
100
AcDbEntity
  8
0
  6
CONTINUOUS
 62
               7
100
AcDbLine
 10
0.3000000119214406
 20
49.300000011920929
 30
0.0
 11
0.0000000000005116
 21
49.0
 31
0.0
  0
LINE
  5
F0
100
AcDbEntity
  8
0
  6
CONTINUOUS
 62
               7
100
AcDbLine
 10
0.300000000000523
 20
50.5
 30
0.0
 11
0.300000000000523
 21
49.299999999999983
 31
0.0
  0
ARC
  5
F1
100
AcDbEntity
  8
0
  6
CONTINUOUS
 62
               7
100
AcDbCircle
 10
0.800000000000523
 20
50.5
 30
0.0
 40
0.5
100
AcDbArc
 50
89.999999999999815
 51
179.99999999999963
  0
LINE
  5
F2
100
AcDbEntity
  8
0
  6
CONTINUOUS
 62
               7
100
AcDbLine
 10
0.800000000000523
 20
51.0
 30
0.0
 11
5.0000000000006253
 21
51.0
 31
0.0
  0
LINE
  5
F3
100
AcDbEntity
  8
0
  6
CONTINUOUS
 62
               7
100
AcDbLine
 10
0.3000000000002387
 20
38.700000000000642
 30
0.0
 11
0.3000000000002387
 21
21.300000000000665
 31
0.0
  0
LINE
  5
F4
100
AcDbEntity
  8
0
  6
CENTER
 62
               2
100
AcDbLine
 10
12.0
 20
-20.0
 30
0.0
 11
3.0
 21
-20.0
 31
0.0
  0
CIRCLE
  5
F5
100
AcDbEntity
  8
0
  6
CONTINUOUS
 62
               2
100
AcDbCircle
 10
7.5
 20
-20.0
 30
0.0
 40
3.0
  0
CIRCLE
  5
F6
100
AcDbEntity
  8
0
  6
CONTINUOUS
 62
               7
100
AcDbCircle
 10
7.5
 20
-20.0
 30
0.0
 40
2.5
  0
LINE
  5
F7
100
AcDbEntity
  8
0
  6
CENTER
 62
               2
100
AcDbLine
 10
7.5
 20
-15.5
 30
0.0
 11
7.5
 21
-24.5
 31
0.0
  0
LINE
  5
F8
100
AcDbEntity
  8
0
  6
CENTER
 62
               2
100
AcDbLine
 10
21.0
 20
-31.000000000000561
 30
0.0
 11
5.0
 21
-31.000000000000625
 31
0.0
  0
CIRCLE
  5
FA
100
AcDbEntity
  8
0
  6
DASHED
 62
               2
100
AcDbCircle
 10
13.0
 20
-31.000000000000597
 30
0.0
 40
6.5
  0
CIRCLE
  5
FB
100
AcDbEntity
  8
0
  6
DASHED
 62
               2
100
AcDbCircle
 10
13.0
 20
-31.000000000000597
 30
0.0
 40
3.5
  0
LINE
  5
FC
100
AcDbEntity
  8
0
  6
CONTINUOUS
 62
               7
100
AcDbLine
 10
12.133974596215523
 20
-32.500000000000597
 30
0.0
 11
11.267949192431104
 21
-31.000000000000597
 31
0.0
  0
LINE
  5
FD
100
AcDbEntity
  8
0
  6
CONTINUOUS
 62
               7
100
AcDbLine
 10
12.133974596215523
 20
-29.500000000000597
 30
0.0
 11
11.267949192431104
 21
-31.000000000000597
 31
0.0
  0
LINE
  5
FE
100
AcDbEntity
  8
0
  6
DASHED
 62
               2
100
AcDbLine
 10
12.133974596215523
 20
-29.500000000000597
 30
0.0
 11
13.86602540378442
 21
-29.500000000000597
 31
0.0
  0
LINE
  5
FF
100
AcDbEntity
  8
0
  6
DASHED
 62
               2
100
AcDbLine
 10
12.133974596215523
 20
-32.500000000000597
 30
0.0
 11
13.86602540378442
 21
-32.500000000000597
 31
0.0
  0
LINE
  5
100
100
AcDbEntity
  8
0
  6
DASHED
 62
               2
100
AcDbLine
 10
13.86602540378442
 20
-32.500000000000597
 30
0.0
 11
14.732050807568839
 21
-31.000000000000597
 31
0.0
  0
LINE
  5
101
100
AcDbEntity
  8
0
  6
DASHED
 62
               2
100
AcDbLine
 10
13.86602540378442
 20
-29.500000000000597
 30
0.0
 11
14.732050807568839
 21
-31.000000000000597
 31
0.0
  0
CIRCLE
  5
102
100
AcDbEntity
  8
0
  6
DASHED
 62
               2
100
AcDbCircle
 10
13.0
 20
-31.000000000000597
 30
0.0
 40
6.0
  0
LINE
  5
103
100
AcDbEntity
  8
0
  6
CONTINUOUS
 62
               7
100
AcDbLine
 10
24.345299461620755
 20
-14.0
 30
0.0
 11
26.654700538379245
 21
-14.0
 31
0.0
  0
LINE
  5
104
100
AcDbEntity
  8
0
  6
CONTINUOUS
 62
               7
100
AcDbLine
 10
23.19059892324151
 20
-12.0
 30
0.0
 11
24.345299461620755
 21
-14.0
 31
0.0
  0
LINE
  5
105
100
AcDbEntity
  8
0
  6
CONTINUOUS
 62
               7
100
AcDbLine
 10
26.654700538379245
 20
-14.0
 30
0.0
 11
27.80940107675849
 21
-12.0
 31
0.0
  0
LINE
  5
106
100
AcDbEntity
  8
0
  6
CONTINUOUS
 62
               7
100
AcDbLine
 10
24.345299461620755
 20
-10.0
 30
0.0
 11
26.654700538379245
 21
-10.0
 31
0.0
  0
LINE
  5
107
100
AcDbEntity
  8
0
  6
CONTINUOUS
 62
               7
100
AcDbLine
 10
26.654700538379245
 20
-10.0
 30
0.0
 11
27.80940107675849
 21
-12.0
 31
0.0
  0
LINE
  5
108
100
AcDbEntity
  8
0
  6
CONTINUOUS
 62
               7
100
AcDbLine
 10
23.19059892324151
 20
-12.0
 30
0.0
 11
24.345299461620755
 21
-10.0
 31
0.0
  0
LINE
  5
109
100
AcDbEntity
  8
0
  6
CENTER
 62
               2
100
AcDbLine
 10
25.5
 20
-20.5
 30
0.0
 11
25.5
 21
-29.5
 31
0.0
  0
CIRCLE
  5
10A
100
AcDbEntity
  8
0
  6
CONTINUOUS
 62
               2
100
AcDbCircle
 10
25.5
 20
-25.0
 30
0.0
 40
3.0
  0
CIRCLE
  5
10B
100
AcDbEntity
  8
0
  6
CONTINUOUS
 62
               7
100
AcDbCircle
 10
25.5
 20
-25.0
 30
0.0
 40
2.5
  0
LINE
  5
10C
100
AcDbEntity
  8
0
  6
CENTER
 62
               2
100
AcDbLine
 10
13.0
 20
-23.000000000000597
 30
0.0
 11
13.0
 21
-39.000000000000597
 31
0.0
  0
LINE
  5
10D
100
AcDbEntity
  8
0
  6
CENTER
 62
               2
100
AcDbLine
 10
30.0
 20
-25.0
 30
0.0
 11
21.0
 21
-25.0
 31
0.0
  0
CIRCLE
  5
10E
100
AcDbEntity
  8
0
  6
CONTINUOUS
 62
               7
100
AcDbCircle
 10
25.5
 20
-12.0
 30
0.0
 40
4.75
  0
LINE
  5
10F
100
AcDbEntity
  8
0
  6
CONTINUOUS
 62
               7
100
AcDbLine
 10
31.5
 20
-40.0
 30
0.0
 11
1.5
 21
-40.0
 31
0.0
  0
CIRCLE
  5
110
100
AcDbEntity
  8
0
  6
CONTINUOUS
 62
               7
100
AcDbCircle
 10
25.5
 20
-12.0
 30
0.0
 40
4.25
  0
ARC
  5
111
100
AcDbEntity
  8
0
  6
CONTINUOUS
 62
               7
100
AcDbCircle
 10
13.0
 20
-31.000000000000597
 30
0.0
 40
10.5
100
AcDbArc
 50
238.9972808661191
 51
301.00271913387962
  0
LINE
  5
112
100
AcDbEntity
  8
0
  6
CENTER
 62
               2
100
AcDbLine
 10
25.5
 20
-5.75
 30
0.0
 11
25.5
 21
-18.25
 31
0.0
  0
LINE
  5
113
100
AcDbEntity
  8
0
  6
CENTER
 62
               2
100
AcDbLine
 10
31.75
 20
-12.0
 30
0.0
 11
19.25
 21
-12.0
 31
0.0
  0
LINE
  5
114
100
AcDbEntity
  8
0
  6
CENTER
 62
               2
100
AcDbLine
 10
13.0
 20
23.000000000000597
 30
0.0
 11
13.0
 21
39.000000000000597
 31
0.0
  0
LINE
  5
115
100
AcDbEntity
  8
0
  6
CENTER
 62
               2
100
AcDbLine
 10
12.0
 20
20.0
 30
0.0
 11
3.0
 21
20.0
 31
0.0
  0
CIRCLE
  5
116
100
AcDbEntity
  8
0
  6
CONTINUOUS
 62
               2
100
AcDbCircle
 10
7.5
 20
20.0
 30
0.0
 40
3.0
  0
CIRCLE
  5
117
100
AcDbEntity
  8
0
  6
CONTINUOUS
 62
               7
100
AcDbCircle
 10
7.5
 20
20.0
 30
0.0
 40
2.5
  0
LINE
  5
118
100
AcDbEntity
  8
0
  6
CENTER
 62
               2
100
AcDbLine
 10
7.5
 20
15.5
 30
0.0
 11
7.5
 21
24.5
 31
0.0
  0
CIRCLE
  5
119
100
AcDbEntity
  8
0
  6
CONTINUOUS
 62
               7
100
AcDbCircle
 10
25.5
 20
25.0
 30
0.0
 40
2.5
  0
CIRCLE
  5
11A
100
AcDbEntity
  8
0
  6
CONTINUOUS
 62
               2
100
AcDbCircle
 10
25.5
 20
25.0
 30
0.0
 40
3.0
  0
LINE
  5
11B
100
AcDbEntity
  8
0
  6
CENTER
 62
               2
100
AcDbLine
 10
25.5
 20
20.5
 30
0.0
 11
25.5
 21
29.5
 31
0.0
  0
LINE
  5
11C
100
AcDbEntity
  8
0
  6
CENTER
 62
               2
100
AcDbLine
 10
30.0
 20
25.0
 30
0.0
 11
21.0
 21
25.0
 31
0.0
  0
LINE
  5
11D
100
AcDbEntity
  8
0
  6
CONTINUOUS
 62
               7
100
AcDbLine
 10
23.19059892324151
 20
12.0
 30
0.0
 11
24.345299461620755
 21
10.0
 31
0.0
  0
LINE
  5
11E
100
AcDbEntity
  8
0
  6
CONTINUOUS
 62
               7
100
AcDbLine
 10
26.654700538379245
 20
10.0
 30
0.0
 11
27.80940107675849
 21
12.0
 31
0.0
  0
LINE
  5
11F
100
AcDbEntity
  8
0
  6
CONTINUOUS
 62
               7
100
AcDbLine
 10
24.345299461620755
 20
10.0
 30
0.0
 11
26.654700538379245
 21
10.0
 31
0.0
  0
CIRCLE
  5
120
100
AcDbEntity
  8
0
  6
CONTINUOUS
 62
               7
100
AcDbCircle
 10
25.5
 20
12.0
 30
0.0
 40
4.75
  0
LINE
  5
121
100
AcDbEntity
  8
0
  6
CONTINUOUS
 62
               7
100
AcDbLine
 10
26.654700538379245
 20
14.0
 30
0.0
 11
27.80940107675849
 21
12.0
 31
0.0
  0
LINE
  5
122
100
AcDbEntity
  8
0
  6
CONTINUOUS
 62
               7
100
AcDbLine
 10
23.19059892324151
 20
12.0
 30
0.0
 11
24.345299461620755
 21
14.0
 31
0.0
  0
LINE
  5
123
100
AcDbEntity
  8
0
  6
CONTINUOUS
 62
               7
100
AcDbLine
 10
24.345299461620755
 20
14.0
 30
0.0
 11
26.654700538379245
 21
14.0
 31
0.0
  0
LINE
  5
124
100
AcDbEntity
  8
0
  6
CONTINUOUS
 62
               7
100
AcDbLine
 10
31.5
 20
40.0
 30
0.0
 11
1.5
 21
40.0
 31
0.0
  0
CIRCLE
  5
125
100
AcDbEntity
  8
0
  6
DASHED
 62
               2
100
AcDbCircle
 10
13.0
 20
31.000000000000597
 30
0.0
 40
6.0
  0
LINE
  5
126
100
AcDbEntity
  8
0
  6
DASHED
 62
               2
100
AcDbLine
 10
13.86602540378442
 20
29.500000000000597
 30
0.0
 11
14.732050807568839
 21
31.000000000000597
 31
0.0
  0
LINE
  5
127
100
AcDbEntity
  8
0
  6
DASHED
 62
               2
100
AcDbLine
 10
13.86602540378442
 20
32.500000000000597
 30
0.0
 11
14.732050807568839
 21
31.000000000000597
 31
0.0
  0
LINE
  5
128
100
AcDbEntity
  8
0
  6
DASHED
 62
               2
100
AcDbLine
 10
12.133974596215523
 20
32.500000000000597
 30
0.0
 11
13.86602540378442
 21
32.500000000000597
 31
0.0
  0
LINE
  5
129
100
AcDbEntity
  8
0
  6
DASHED
 62
               2
100
AcDbLine
 10
12.133974596215523
 20
29.500000000000597
 30
0.0
 11
13.86602540378442
 21
29.500000000000597
 31
0.0
  0
LINE
  5
12A
100
AcDbEntity
  8
0
  6
DASHED
 62
               2
100
AcDbLine
 10
12.133974596215523
 20
29.500000000000597
 30
0.0
 11
11.267949192431104
 21
31.000000000000597
 31
0.0
  0
LINE
  5
12B
100
AcDbEntity
  8
0
  6
DASHED
 62
               2
100
AcDbLine
 10
12.133974596215523
 20
32.500000000000597
 30
0.0
 11
11.267949192431104
 21
31.000000000000597
 31
0.0
  0
CIRCLE
  5
12C
100
AcDbEntity
  8
0
  6
DASHED
 62
               2
100
AcDbCircle
 10
13.0
 20
31.000000000000597
 30
0.0
 40
3.5
  0
CIRCLE
  5
12D
100
AcDbEntity
  8
0
  6
DASHED
 62
               2
100
AcDbCircle
 10
13.0
 20
31.000000000000597
 30
0.0
 40
6.5
  0
LINE
  5
12E
100
AcDbEntity
  8
0
  6
CONTINUOUS
 62
               7
100
AcDbLine
 10
1.5
 20
40.0
 30
0.0
 11
1.5
 21
-40.0
 31
0.0
  0
LINE
  5
12F
100
AcDbEntity
  8
0
  6
CONTINUOUS
 62
               7
100
AcDbLine
 10
31.5
 20
40.0
 30
0.0
 11
31.5
 21
-40.0
 31
0.0
  0
LINE
  5
130
100
AcDbEntity
  8
0
  6
CENTER
 62
               2
100
AcDbLine
 10
35.0
 20
0.0
 30
0.0
 11
-3.0
 21
0.0
 31
0.0
  0
LINE
  5
131
100
AcDbEntity
  8
0
  6
CONTINUOUS
 62
               7
100
AcDbLine
 10
31.0
 20
-46.999999999999993
 30
0.0
 11
27.0
 21
-51.0
 31
0.0
  0
LINE
  5
132
100
AcDbEntity
  8
0
  6
CONTINUOUS
 62
               7
100
AcDbLine
 10
31.0
 20
-40.0
 30
0.0
 11
31.0
 21
-46.999999999999993
 31
0.0
  0
LINE
  5
133
100
AcDbEntity
  8
0
  6
CONTINUOUS
 62
               7
100
AcDbLine
 10
31.0
 20
40.0
 30
0.0
 11
31.0
 21
47.0
 31
0.0
  0
LINE
  5
134
100
AcDbEntity
  8
0
  6
CONTINUOUS
 62
               7
100
AcDbLine
 10
31.0
 20
47.0
 30
0.0
 11
27.0
 21
51.0
 31
0.0
  0
LINE
  5
135
100
AcDbEntity
  8
0
  6
CONTINUOUS
 62
               7
100
AcDbLine
 10
12.074999999999989
 20
46.595000000000596
 30
0.0
 11
11.599999999999966
 21
47.070000000000618
 31
0.0
  0
LINE
  5
136
100
AcDbEntity
  8
0
  6
CONTINUOUS
 62
               7
100
AcDbLine
 10
11.599999999999966
 20
47.070000000000618
 30
0.0
 11
11.599999999999966
 21
47.30000000000058
 31
0.0
  0
ARC
  5
137
100
AcDbEntity
  8
0
  6
CONTINUOUS
 62
               7
100
AcDbCircle
 10
11.899999999999977
 20
47.30000000000058
 30
0.0
 40
0.3
100
AcDbArc
 50
89.999999999999815
 51
179.99999999999963
  0
LINE
  5
138
100
AcDbEntity
  8
0
  6
CONTINUOUS
 62
               7
100
AcDbLine
 10
12.074999999999989
 20
44.975000000000591
 30
0.0
 11
12.074999999999989
 21
46.595000000000596
 31
0.0
  0
LINE
  5
139
100
AcDbEntity
  8
0
  6
CONTINUOUS
 62
               7
100
AcDbLine
 10
8.3999999999999773
 20
47.07000000000059
 30
0.0
 11
8.3999999999999773
 21
47.600000000000591
 31
0.0
  0
LINE
  5
13A
100
AcDbEntity
  8
0
  6
CONTINUOUS
 62
               7
100
AcDbLine
 10
7.9250000000000114
 20
46.600000000000591
 30
0.0
 11
8.3999999999999773
 21
47.075000000000585
 31
0.0
  0
LINE
  5
13B
100
AcDbEntity
  8
0
  6
CONTINUOUS
 62
               7
100
AcDbLine
 10
7.9250000000000114
 20
44.975000000000591
 30
0.0
 11
7.9250000000000114
 21
46.600000000000591
 31
0.0
  0
ARC
  5
13C
100
AcDbEntity
  8
0
  6
CONTINUOUS
 62
               7
100
AcDbCircle
 10
14.099999999999966
 20
47.30000000000058
 30
0.0
 40
0.3
100
AcDbArc
 50
0.0
 51
89.999999999999815
  0
LINE
  5
13D
100
AcDbEntity
  8
0
  6
CONTINUOUS
 62
               7
100
AcDbLine
 10
14.099999999999966
 20
47.600000000000591
 30
0.0
 11
11.899999999999977
 21
47.600000000000591
 31
0.0
  0
LINE
  5
13E
100
AcDbEntity
  8
0
  6
CONTINUOUS
 62
               7
100
AcDbLine
 10
18.074999999999989
 20
46.600000000000591
 30
0.0
 11
17.599999999999966
 21
47.075000000000614
 31
0.0
  0
LINE
  5
13F
100
AcDbEntity
  8
0
  6
CONTINUOUS
 62
               7
100
AcDbLine
 10
13.925000000000011
 20
44.975000000000591
 30
0.0
 11
13.925000000000011
 21
46.595000000000596
 31
0.0
  0
LINE
  5
140
100
AcDbEntity
  8
0
  6
CONTINUOUS
 62
               7
100
AcDbLine
 10
18.074999999999989
 20
44.975000000000591
 30
0.0
 11
18.074999999999989
 21
46.600000000000591
 31
0.0
  0
LINE
  5
141
100
AcDbEntity
  8
0
  6
CONTINUOUS
 62
               7
100
AcDbLine
 10
14.399999999999977
 20
47.070000000000618
 30
0.0
 11
14.399999999999977
 21
47.30000000000058
 31
0.0
  0
LINE
  5
142
100
AcDbEntity
  8
0
  6
CONTINUOUS
 62
               7
100
AcDbLine
 10
13.925000000000011
 20
46.595000000000596
 30
0.0
 11
14.399999999999977
 21
47.070000000000618
 31
0.0
  0
LINE
  5
143
100
AcDbEntity
  8
0
  6
CONTINUOUS
 62
               7
100
AcDbLine
 10
17.599999999999966
 20
47.070000000000618
 30
0.0
 11
17.599999999999966
 21
47.600000000000591
 31
0.0
  0
LINE
  5
144
100
AcDbEntity
  8
0
  6
CENTER
 62
               2
100
AcDbLine
 10
19.56000596548256
 20
44.975000000000591
 30
0.0
 11
6.4399940345173832
 21
44.975000000000591
 31
0.0
  0
ARC
  5
145
100
AcDbEntity
  8
0
  6
CONTINUOUS
 62
               7
100
AcDbCircle
 10
16.0
 20
44.975000000000591
 30
0.0
 40
2.0750000000000002
100
AcDbArc
 50
179.99999999999963
 51
0.0
  0
LINE
  5
146
100
AcDbEntity
  8
0
  6
CONTINUOUS
 62
               7
100
AcDbLine
 10
17.599999999999966
 20
47.600000000000591
 30
0.0
 11
20.999999999999375
 21
51.0
 31
0.0
  0
LINE
  5
147
100
AcDbEntity
  8
0
  6
CONTINUOUS
 62
               7
100
AcDbLine
 10
8.3999999999999773
 20
47.600000000000591
 30
0.0
 11
5.0000000000006253
 21
51.0
 31
0.0
  0
ARC
  5
148
100
AcDbEntity
  8
0
  6
CONTINUOUS
 62
               7
100
AcDbCircle
 10
10.0
 20
44.975000000000591
 30
0.0
 40
2.0750000000000002
100
AcDbArc
 50
179.99999999999963
 51
0.0
  0
LINE
  5
149
100
AcDbEntity
  8
0
  6
CENTER
 62
               2
100
AcDbLine
 10
10.0
 20
41.399997531017448
 30
0.0
 11
10.0
 21
49.100000000000591
 31
0.0
  0
CIRCLE
  5
14A
100
AcDbEntity
  8
0
  6
CONTINUOUS
 62
               7
100
AcDbCircle
 10
25.5
 20
12.0
 30
0.0
 40
4.25
  0
ARC
  5
14B
100
AcDbEntity
  8
0
  6
CONTINUOUS
 62
               7
100
AcDbCircle
 10
13.0
 20
31.000000000000597
 30
0.0
 40
10.5
100
AcDbArc
 50
58.997280866119567
 51
121.00271913388005
  0
LINE
  5
14C
100
AcDbEntity
  8
0
  6
DASHED
 62
               2
100
AcDbLine
 10
20.0
 20
50.0
 30
0.0
 11
21.0
 21
51.0
 31
0.0
  0
LINE
  5
14D
100
AcDbEntity
  8
0
  6
CENTER
 62
               2
100
AcDbLine
 10
16.0
 20
41.399997531017448
 30
0.0
 11
16.0
 21
49.100000000000591
 31
0.0
  0
LINE
  5
14E
100
AcDbEntity
  8
0
  6
CONTINUOUS
 62
               7
100
AcDbLine
 10
27.0
 20
51.0
 30
0.0
 11
20.999999999999375
 21
51.0
 31
0.0
  0
LINE
  5
14F
100
AcDbEntity
  8
0
  6
CENTER
 62
               2
100
AcDbLine
 10
25.5
 20
5.75
 30
0.0
 11
25.5
 21
18.25
 31
0.0
  0
LINE
  5
150
100
AcDbEntity
  8
0
  6
CENTER
 62
               2
100
AcDbLine
 10
31.75
 20
12.0
 30
0.0
 11
19.25
 21
12.0
 31
0.0
  0
LINE
  5
151
100
AcDbEntity
  8
0
  6
CENTER
 62
               2
100
AcDbLine
 10
21.0
 20
31.000000000000568
 30
0.0
 11
5.0
 21
31.000000000000625
 31
0.0
  0
ARC
  5
152
100
AcDbEntity
  8
0
  6
CONTINUOUS
 62
               7
100
AcDbCircle
 10
9.3333333333333712
 20
0.0
 30
0.0
 40
6.333333333333333
100
AcDbArc
 50
241.42833676939739
 51
118.57166323060241
  0
CIRCLE
  5
153
100
AcDbEntity
  8
0
  6
CONTINUOUS
 62
               7
100
AcDbCircle
 10
10.000000000000028
 20
0.0
 30
0.0
 40
7.0
  0
CIRCLE
  5
154
100
AcDbEntity
  8
0
  6
CONTINUOUS
 62
               7
100
AcDbCircle
 10
4.953018490124208
 20
-3.1826229355804969
 30
0.0
 40
0.6666666666666666
  0
ARC
  5
155
100
AcDbEntity
  8
0
  6
CONTINUOUS
 62
               7
100
AcDbCircle
 10
4.953018490124208
 20
-3.1826229355804969
 30
0.0
 40
1.3666666666666665
100
AcDbArc
 50
320.63071319095417
 51
108.9943374345337
  0
CIRCLE
  5
156
100
AcDbEntity
  8
0
  6
CONTINUOUS
 62
               7
100
AcDbCircle
 10
4.9530184901241796
 20
3.1826229355804259
 30
0.0
 40
0.6666666666666666
  0
ARC
  5
157
100
AcDbEntity
  8
0
  6
CONTINUOUS
 62
               7
100
AcDbCircle
 10
4.9530184901241796
 20
3.1826229355804259
 30
0.0
 40
1.3666666666666665
100
AcDbArc
 50
251.00566256546679
 51
39.369286809045605
  0
LINE
  5
158
100
AcDbEntity
  8
0
  6
CENTER
 62
               2
100
AcDbLine
 10
10.000000000000028
 20
9.6916582914572871
 30
0.0
 11
10.000000000000028
 21
-9.6241206030150863
 31
0.0
  0
ARC
  5
159
100
AcDbEntity
  8
0
  6
CONTINUOUS
 62
               7
100
AcDbCircle
 10
6.7826262643210953
 20
-4.6838379447345631
 30
0.0
 40
1.0
100
AcDbArc
 50
140.63071319095474
 51
241.42833676939739
  0
ARC
  5
15A
100
AcDbEntity
  8
0
  6
CONTINUOUS
 62
               7
100
AcDbCircle
 10
6.7826262643210384
 20
4.6838379447345062
 30
0.0
 40
1.0
100
AcDbArc
 50
118.57166323060237
 51
219.36928680904501
  0
LINE
  5
15B
100
AcDbEntity
  8
0
  6
CONTINUOUS
 62
               7
100
AcDbLine
 10
4.5082030573917393
 20
-1.8903702479915694
 30
0.0
 11
3.3811447708860385
 21
-2.2783229481419767
 31
0.0
  0
LINE
  5
15C
100
AcDbEntity
  8
0
  6
CONTINUOUS
 62
               7
100
AcDbLine
 10
4.5082030573917109
 20
1.8903702479914841
 30
0.0
 11
3.3811447708860101
 21
2.2783229481418914
 31
0.0
  0
ENDBLK
  5
15D
100
AcDbEntity
  8
0
100
AcDbBlockEnd
  0
BLOCK
  5
15E
100
AcDbEntity
  8
0
100
AcDbBlockBegin
  2
ZSG20-5
 70
               0
 10
0.0
 20
0.0
 30
0.0
  3
ZSG20-5
  1

  0
LINE
  5
15F
100
AcDbEntity
  8
0
  6
CONTINUOUS
 62
               7
100
AcDbLine
 10
-31.5
 20
-18.0
 30
0.0
 11
-31.5
 21
-40.0
 31
0.0
  0
LINE
  5
160
100
AcDbEntity
  8
0
  6
CONTINUOUS
 62
               7
100
AcDbLine
 10
-31.5
 20
-40.0
 30
0.0
 11
-31.0
 21
-40.0
 31
0.0
  0
LINE
  5
161
100
AcDbEntity
  8
0
  6
CONTINUOUS
 62
               7
100
AcDbLine
 10
-31.5
 20
40.0
 30
0.0
 11
-31.5
 21
18.0
 31
0.0
  0
LINE
  5
162
100
AcDbEntity
  8
0
  6
CONTINUOUS
 62
               7
100
AcDbLine
 10
-31.5
 20
40.0
 30
0.0
 11
-31.0
 21
40.0
 31
0.0
  0
LINE
  5
163
100
AcDbEntity
  8
0
  6
CONTINUOUS
 62
               7
100
AcDbLine
 10
-25.443375672974071
 20
-46.500000000000007
 30
0.0
 11
-22.556624327025929
 21
-46.500000000000007
 31
0.0
  0
LINE
  5
164
100
AcDbEntity
  8
0
  6
CONTINUOUS
 62
               7
100
AcDbLine
 10
-25.443375672974071
 20
-46.500000000000007
 30
0.0
 11
-26.886751345948142
 21
-44.000000000000007
 31
0.0
  0
LINE
  5
165
100
AcDbEntity
  8
0
  6
CONTINUOUS
 62
               7
100
AcDbLine
 10
-25.443375672974071
 20
-41.500000000000007
 30
0.0
 11
-22.556624327025929
 21
-41.500000000000007
 31
0.0
  0
LINE
  5
166
100
AcDbEntity
  8
0
  6
CONTINUOUS
 62
               7
100
AcDbLine
 10
-25.443375672974071
 20
-41.500000000000007
 30
0.0
 11
-26.886751345948142
 21
-44.000000000000007
 31
0.0
  0
LINE
  5
167
100
AcDbEntity
  8
0
  6
CONTINUOUS
 62
               7
100
AcDbLine
 10
-22.556624327025929
 20
-41.500000000000007
 30
0.0
 11
-21.113248654051858
 21
-44.000000000000007
 31
0.0
  0
LINE
  5
168
100
AcDbEntity
  8
0
  6
CONTINUOUS
 62
               7
100
AcDbLine
 10
-22.556624327025929
 20
-46.500000000000007
 30
0.0
 11
-21.113248654051858
 21
-44.000000000000007
 31
0.0
  0
CIRCLE
  5
169
100
AcDbEntity
  8
0
  6
CONTINUOUS
 62
               2
100
AcDbCircle
 10
-24.0
 20
-44.000000000000007
 30
0.0
 40
4.0999999999999996
  0
CIRCLE
  5
16A
100
AcDbEntity
  8
0
  6
CONTINUOUS
 62
               7
100
AcDbCircle
 10
-24.0
 20
-44.000000000000007
 30
0.0
 40
5.0
  0
LINE
  5
16B
100
AcDbEntity
  8
0
  6
CENTER
 62
               2
100
AcDbLine
 10
-30.5
 20
-44.000000000000007
 30
0.0
 11
-17.5
 21
-44.000000000000007
 31
0.0
  0
LINE
  5
16C
100
AcDbEntity
  8
0
  6
CENTER
 62
               2
100
AcDbLine
 10
-24.0
 20
-37.500000000000007
 30
0.0
 11
-24.0
 21
-50.5
 31
0.0
  0
LINE
  5
16D
100
AcDbEntity
  8
0
  6
CONTINUOUS
 62
               7
100
AcDbLine
 10
-25.443375672974071
 20
41.5
 30
0.0
 11
-26.886751345948142
 21
44.0
 31
0.0
  0
LINE
  5
16E
100
AcDbEntity
  8
0
  6
CONTINUOUS
 62
               7
100
AcDbLine
 10
-22.556624327025929
 20
41.5
 30
0.0
 11
-21.113248654051858
 21
44.0
 31
0.0
  0
LINE
  5
16F
100
AcDbEntity
  8
0
  6
CONTINUOUS
 62
               7
100
AcDbLine
 10
-25.443375672974071
 20
41.5
 30
0.0
 11
-22.556624327025929
 21
41.5
 31
0.0
  0
LINE
  5
170
100
AcDbEntity
  8
0
  6
CONTINUOUS
 62
               7
100
AcDbLine
 10
-22.556624327025929
 20
46.5
 30
0.0
 11
-21.113248654051858
 21
44.0
 31
0.0
  0
LINE
  5
171
100
AcDbEntity
  8
0
  6
CONTINUOUS
 62
               7
100
AcDbLine
 10
-25.443375672974071
 20
46.5
 30
0.0
 11
-26.886751345948142
 21
44.0
 31
0.0
  0
LINE
  5
172
100
AcDbEntity
  8
0
  6
CONTINUOUS
 62
               7
100
AcDbLine
 10
-25.443375672974071
 20
46.5
 30
0.0
 11
-22.556624327025929
 21
46.5
 31
0.0
  0
CIRCLE
  5
173
100
AcDbEntity
  8
0
  6
CONTINUOUS
 62
               7
100
AcDbCircle
 10
-7.5
 20
-12.0
 30
0.0
 40
2.0
  0
CIRCLE
  5
174
100
AcDbEntity
  8
0
  6
CONTINUOUS
 62
               2
100
AcDbCircle
 10
-7.5
 20
-12.0
 30
0.0
 40
2.5
  0
LINE
  5
175
100
AcDbEntity
  8
0
  6
CENTER
 62
               2
100
AcDbLine
 10
-7.5
 20
-8.0
 30
0.0
 11
-7.5
 21
-16.0
 31
0.0
  0
LINE
  5
176
100
AcDbEntity
  8
0
  6
CENTER
 62
               2
100
AcDbLine
 10
-11.5
 20
-12.0
 30
0.0
 11
-3.5
 21
-12.0
 31
0.0
  0
CIRCLE
  5
177
100
AcDbEntity
  8
0
  6
CONTINUOUS
 62
               7
100
AcDbCircle
 10
-7.5
 20
12.0
 30
0.0
 40
2.0
  0
CIRCLE
  5
178
100
AcDbEntity
  8
0
  6
CONTINUOUS
 62
               2
100
AcDbCircle
 10
-7.5
 20
12.0
 30
0.0
 40
2.5
  0
LINE
  5
179
100
AcDbEntity
  8
0
  6
CENTER
 62
               2
100
AcDbLine
 10
-7.5
 20
8.0
 30
0.0
 11
-7.5
 21
16.0
 31
0.0
  0
LINE
  5
17A
100
AcDbEntity
  8
0
  6
CENTER
 62
               2
100
AcDbLine
 10
-11.5
 20
12.0
 30
0.0
 11
-3.5
 21
12.0
 31
0.0
  0
CIRCLE
  5
17B
100
AcDbEntity
  8
0
  6
CONTINUOUS
 62
               7
100
AcDbCircle
 10
-27.0
 20
-4.5
 30
0.0
 40
1.5
  0
LINE
  5
17C
100
AcDbEntity
  8
0
  6
CENTER
 62
               2
100
AcDbLine
 10
-27.0
 20
-1.5
 30
0.0
 11
-27.0
 21
-7.5
 31
0.0
  0
LINE
  5
17D
100
AcDbEntity
  8
0
  6
CENTER
 62
               2
100
AcDbLine
 10
-30.0
 20
-4.5
 30
0.0
 11
-24.0
 21
-4.5
 31
0.0
  0
CIRCLE
  5
17E
100
AcDbEntity
  8
0
  6
CONTINUOUS
 62
               7
100
AcDbCircle
 10
-27.0
 20
4.5
 30
0.0
 40
1.5
  0
CIRCLE
  5
17F
100
AcDbEntity
  8
0
  6
CONTINUOUS
 62
               7
100
AcDbCircle
 10
-25.5
 20
-12.0
 30
0.0
 40
2.0
  0
CIRCLE
  5
180
100
AcDbEntity
  8
0
  6
CONTINUOUS
 62
               2
100
AcDbCircle
 10
-25.5
 20
-12.0
 30
0.0
 40
2.5
  0
LINE
  5
181
100
AcDbEntity
  8
0
  6
CENTER
 62
               2
100
AcDbLine
 10
-25.5
 20
-8.0
 30
0.0
 11
-25.5
 21
-16.0
 31
0.0
  0
LINE
  5
182
100
AcDbEntity
  8
0
  6
CENTER
 62
               2
100
AcDbLine
 10
-29.5
 20
-12.0
 30
0.0
 11
-21.5
 21
-12.0
 31
0.0
  0
CIRCLE
  5
183
100
AcDbEntity
  8
0
  6
CONTINUOUS
 62
               7
100
AcDbCircle
 10
-5.4295277351862978
 20
-35.7739344033713
 30
0.0
 40
1.0
  0
ARC
  5
184
100
AcDbEntity
  8
0
  6
CONTINUOUS
 62
               7
100
AcDbCircle
 10
-5.4295277351862978
 20
-35.7739344033713
 30
0.0
 40
2.0499999999999998
100
AcDbArc
 50
71.005662565465883
 51
219.36928680904472
  0
CIRCLE
  5
185
100
AcDbEntity
  8
0
  6
CONTINUOUS
 62
               7
100
AcDbCircle
 10
-5.429527735186241
 20
-26.226065596629951
 30
0.0
 40
1.0
  0
ARC
  5
186
100
AcDbEntity
  8
0
  6
CONTINUOUS
 62
               7
100
AcDbCircle
 10
-5.429527735186241
 20
-26.226065596629951
 30
0.0
 40
2.0499999999999998
100
AcDbArc
 50
140.63071319095397
 51
288.99433743453278
  0
ARC
  5
187
100
AcDbEntity
  8
0
  6
CONTINUOUS
 62
               7
100
AcDbCircle
 10
-8.1739393964815292
 20
-23.974243082898809
 30
0.0
 40
1.5
100
AcDbArc
 50
320.63071319095462
 51
61.428336769397276
  0
CIRCLE
  5
188
100
AcDbEntity
  8
0
  6
CONTINUOUS
 62
               7
100
AcDbCircle
 10
-13.0
 20
-31.000000000000597
 30
0.0
 40
2.25
  0
CIRCLE
  5
189
100
AcDbEntity
  8
0
  6
CONTINUOUS
 62
               7
100
AcDbCircle
 10
-13.0
 20
-31.000000000000597
 30
0.0
 40
1.75
  0
LINE
  5
18A
100
AcDbEntity
  8
0
  6
CONTINUOUS
 62
               7
100
AcDbLine
 10
-4.7623045860875379
 20
-28.164444628013349
 30
0.0
 11
-3.0717171563289867
 21
-27.582515577787731
 31
0.0
  0
ARC
  5
18B
100
AcDbEntity
  8
0
  6
CONTINUOUS
 62
               7
100
AcDbCircle
 10
-8.1739393964815861
 20
-38.025756917102427
 30
0.0
 40
1.5
100
AcDbArc
 50
298.57166323060142
 51
39.369286809044837
  0
LINE
  5
18C
100
AcDbEntity
  8
0
  6
CONTINUOUS
 62
               7
100
AcDbLine
 10
-4.7623045860875663
 20
-33.835555371987915
 30
0.0
 11
-3.0717171563290151
 21
-34.417484422213548
 31
0.0
  0
ARC
  5
18D
100
AcDbEntity
  8
0
  6
CONTINUOUS
 62
               7
100
AcDbCircle
 10
-12.0
 20
-31.000000000000597
 30
0.0
 40
9.5
100
AcDbArc
 50
61.428336769397241
 51
298.57166323060142
  0
CIRCLE
  5
18E
100
AcDbEntity
  8
0
  6
CONTINUOUS
 62
               7
100
AcDbCircle
 10
-13.0
 20
-31.000000000000597
 30
0.0
 40
10.5
  0
LINE
  5
18F
100
AcDbEntity
  8
0
  6
CENTER
 62
               2
100
AcDbLine
 10
-25.0
 20
-31.00000000000054
 30
0.0
 11
-1.0
 21
-31.000000000000647
 31
0.0
  0
LINE
  5
190
100
AcDbEntity
  8
0
  6
CENTER
 62
               2
100
AcDbLine
 10
-13.0
 20
-19.000000000000597
 30
0.0
 11
-13.0
 21
-43.000000000000597
 31
0.0
  0
CIRCLE
  5
191
100
AcDbEntity
  8
0
  6
CONTINUOUS
 62
               7
100
AcDbCircle
 10
-13.0
 20
31.000000000000597
 30
0.0
 40
1.75
  0
CIRCLE
  5
192
100
AcDbEntity
  8
0
  6
CONTINUOUS
 62
               7
100
AcDbCircle
 10
-13.0
 20
31.000000000000597
 30
0.0
 40
2.25
  0
ARC
  5
193
100
AcDbEntity
  8
0
  6
CONTINUOUS
 62
               7
100
AcDbCircle
 10
-8.1739393964815292
 20
23.974243082898809
 30
0.0
 40
1.5
100
AcDbArc
 50
298.57166323060198
 51
39.369286809045349
  0
LINE
  5
194
100
AcDbEntity
  8
0
  6
CONTINUOUS
 62
               7
100
AcDbLine
 10
-4.7623045860875379
 20
28.164444628013342
 30
0.0
 11
-3.0717171563289867
 21
27.582515577787731
 31
0.0
  0
ARC
  5
195
100
AcDbEntity
  8
0
  6
CONTINUOUS
 62
               7
100
AcDbCircle
 10
-5.429527735186241
 20
26.226065596629951
 30
0.0
 40
2.0499999999999998
100
AcDbArc
 50
71.005662565466395
 51
219.36928680904521
  0
CIRCLE
  5
196
100
AcDbEntity
  8
0
  6
CONTINUOUS
 62
               7
100
AcDbCircle
 10
-5.429527735186241
 20
26.226065596629951
 30
0.0
 40
1.0
  0
ARC
  5
197
100
AcDbEntity
  8
0
  6
CONTINUOUS
 62
               7
100
AcDbCircle
 10
-8.1739393964815861
 20
38.025756917102427
 30
0.0
 40
1.5
100
AcDbArc
 50
320.63071319095513
 51
61.428336769397788
  0
ARC
  5
198
100
AcDbEntity
  8
0
  6
CONTINUOUS
 62
               7
100
AcDbCircle
 10
-5.4295277351862978
 20
35.7739344033713
 30
0.0
 40
2.0499999999999998
100
AcDbArc
 50
140.63071319095448
 51
288.99433743453329
  0
CIRCLE
  5
199
100
AcDbEntity
  8
0
  6
CONTINUOUS
 62
               7
100
AcDbCircle
 10
-5.4295277351862978
 20
35.7739344033713
 30
0.0
 40
1.0
  0
LINE
  5
19A
100
AcDbEntity
  8
0
  6
CONTINUOUS
 62
               7
100
AcDbLine
 10
-4.7623045860875663
 20
33.835555371987908
 30
0.0
 11
-3.0717171563290151
 21
34.417484422213548
 31
0.0
  0
ARC
  5
19B
100
AcDbEntity
  8
0
  6
CONTINUOUS
 62
               7
100
AcDbCircle
 10
-12.0
 20
31.000000000000597
 30
0.0
 40
9.5
100
AcDbArc
 50
61.428336769397738
 51
298.57166323060198
  0
CIRCLE
  5
19C
100
AcDbEntity
  8
0
  6
CONTINUOUS
 62
               2
100
AcDbCircle
 10
-24.0
 20
44.0
 30
0.0
 40
4.0999999999999996
  0
LINE
  5
19D
100
AcDbEntity
  8
0
  6
CENTER
 62
               2
100
AcDbLine
 10
-35.0
 20
0.0
 30
0.0
 11
3.0
 21
0.0
 31
0.0
  0
LINE
  5
19E
100
AcDbEntity
  8
0
  6
CONTINUOUS
 62
               7
100
AcDbLine
 10
0.0
 20
21.000000000000398
 30
0.0
 11
0.0
 21
5.0
 31
0.0
  0
LINE
  5
19F
100
AcDbEntity
  8
0
  6
CONTINUOUS
 62
               7
100
AcDbLine
 10
-22.5
 20
6.0
 30
0.0
 11
-22.5
 21
-6.5
 31
0.0
  0
LINE
  5
1A0
100
AcDbEntity
  8
0
  6
CONTINUOUS
 62
               7
100
AcDbLine
 10
-14.5
 20
6.0
 30
0.0
 11
-14.5
 21
-6.0
 31
0.0
  0
LINE
  5
1A1
100
AcDbEntity
  8
0
  6
CONTINUOUS
 62
               7
100
AcDbLine
 10
-22.5
 20
-6.0
 30
0.0
 11
-14.5
 21
-6.0
 31
0.0
  0
LINE
  5
1A2
100
AcDbEntity
  8
0
  6
CONTINUOUS
 62
               7
100
AcDbLine
 10
-19.5
 20
-13.5
 30
0.0
 11
-13.0
 21
-13.5
 31
0.0
  0
LINE
  5
1A3
100
AcDbEntity
  8
0
  6
CONTINUOUS
 62
               7
100
AcDbLine
 10
-19.5
 20
-6.0
 30
0.0
 11
-19.5
 21
-13.5
 31
0.0
  0
LINE
  5
1A4
100
AcDbEntity
  8
0
  6
CONTINUOUS
 62
               7
100
AcDbLine
 10
-20.0
 20
-6.0
 30
0.0
 11
-20.0
 21
-18.0
 31
0.0
  0
LINE
  5
1A5
100
AcDbEntity
  8
0
  6
CONTINUOUS
 62
               7
100
AcDbLine
 10
-32.0
 20
17.500000000000014
 30
0.0
 11
-32.0
 21
5.0
 31
0.0
  0
LINE
  5
1A6
100
AcDbEntity
  8
0
  6
CONTINUOUS
 62
               7
100
AcDbLine
 10
-22.5
 20
-6.5
 30
0.0
 11
-20.0
 21
-6.5
 31
0.0
  0
LINE
  5
1A7
100
AcDbEntity
  8
0
  6
CONTINUOUS
 62
               7
100
AcDbLine
 10
-31.5
 20
-18.0
 30
0.0
 11
-20.0
 21
-18.0
 31
0.0
  0
LINE
  5
1A8
100
AcDbEntity
  8
0
  6
CONTINUOUS
 62
               7
100
AcDbLine
 10
-31.0
 20
-47.0
 30
0.0
 11
-27.0
 21
-51.0
 31
0.0
  0
LINE
  5
1A9
100
AcDbEntity
  8
0
  6
CONTINUOUS
 62
               7
100
AcDbLine
 10
-31.0
 20
37.000000000000597
 30
0.0
 11
-31.0
 21
47.0
 31
0.0
  0
LINE
  5
1AA
100
AcDbEntity
  8
0
  6
CONTINUOUS
 62
               7
100
AcDbLine
 10
-31.0
 20
47.0
 30
0.0
 11
-27.0
 21
51.0
 31
0.0
  0
LINE
  5
1AB
100
AcDbEntity
  8
0
  6
CONTINUOUS
 62
               7
100
AcDbLine
 10
-31.0
 20
20.0
 30
0.0
 11
-31.0
 21
25.000000000000597
 31
0.0
  0
LINE
  5
1AC
100
AcDbEntity
  8
0
  6
CENTER
 62
               2
100
AcDbLine
 10
-23.399997531016851
 20
34.000000000000597
 30
0.0
 11
-31.099999999999994
 21
34.000000000000597
 31
0.0
  0
LINE
  5
1AD
100
AcDbEntity
  8
0
  6
CONTINUOUS
 62
               7
100
AcDbLine
 10
-28.599999999999994
 20
36.075000000000585
 30
0.0
 11
-29.075000000000017
 21
35.600000000000591
 31
0.0
  0
LINE
  5
1AE
100
AcDbEntity
  8
0
  6
CONTINUOUS
 62
               7
100
AcDbLine
 10
-29.070000000000022
 20
35.600000000000591
 30
0.0
 11
-29.599999999999994
 21
35.600000000000591
 31
0.0
  0
LINE
  5
1AF
100
AcDbEntity
  8
0
  6
CONTINUOUS
 62
               7
100
AcDbLine
 10
-29.599999999999994
 20
35.600000000000591
 30
0.0
 11
-31.0
 21
37.000000000000597
 31
0.0
  0
LINE
  5
1B0
100
AcDbEntity
  8
0
  6
CONTINUOUS
 62
               7
100
AcDbLine
 10
-26.974999999999994
 20
36.075000000000585
 30
0.0
 11
-28.599999999999994
 21
36.075000000000585
 31
0.0
  0
LINE
  5
1B1
100
AcDbEntity
  8
0
  6
CENTER
 62
               2
100
AcDbLine
 10
-26.974999999999994
 20
24.439994034518008
 30
0.0
 11
-26.974999999999994
 21
37.560005965483185
 31
0.0
  0
LINE
  5
1B2
100
AcDbEntity
  8
0
  6
CENTER
 62
               2
100
AcDbLine
 10
-23.399997531016851
 20
28.000000000000597
 30
0.0
 11
-31.099999999999994
 21
28.000000000000597
 31
0.0
  0
ARC
  5
1B3
100
AcDbEntity
  8
0
  6
CONTINUOUS
 62
               7
100
AcDbCircle
 10
-26.974999999999994
 20
28.000000000000597
 30
0.0
 40
2.0750000000000002
100
AcDbArc
 50
269.99999999999937
 51
89.999999999999801
  0
ARC
  5
1B4
100
AcDbEntity
  8
0
  6
CONTINUOUS
 62
               7
100
AcDbCircle
 10
-26.974999999999994
 20
34.000000000000597
 30
0.0
 40
2.0750000000000002
100
AcDbArc
 50
270.00000000000023
 51
89.999999999999801
  0
ARC
  5
1B5
100
AcDbEntity
  8
0
  6
CONTINUOUS
 62
               7
100
AcDbCircle
 10
-29.299999999999983
 20
32.100000000000591
 30
0.0
 40
0.3
100
AcDbArc
 50
89.999999999999815
 51
179.99999999999963
  0
LINE
  5
1B6
100
AcDbEntity
  8
0
  6
CONTINUOUS
 62
               7
100
AcDbLine
 10
-29.070000000000022
 20
32.400000000000603
 30
0.0
 11
-29.299999999999983
 21
32.400000000000603
 31
0.0
  0
LINE
  5
1B7
100
AcDbEntity
  8
0
  6
CONTINUOUS
 62
               7
100
AcDbLine
 10
-28.594999999999999
 20
31.925000000000608
 30
0.0
 11
-29.070000000000022
 21
32.400000000000603
 31
0.0
  0
LINE
  5
1B8
100
AcDbEntity
  8
0
  6
CONTINUOUS
 62
               7
100
AcDbLine
 10
-26.974999999999994
 20
31.925000000000608
 30
0.0
 11
-28.594999999999999
 21
31.925000000000608
 31
0.0
  0
LINE
  5
1B9
100
AcDbEntity
  8
0
  6
CONTINUOUS
 62
               7
100
AcDbLine
 10
-28.594999999999999
 20
30.075000000000585
 30
0.0
 11
-29.070000000000022
 21
29.600000000000591
 31
0.0
  0
LINE
  5
1BA
100
AcDbEntity
  8
0
  6
CONTINUOUS
 62
               7
100
AcDbLine
 10
-29.070000000000022
 20
29.600000000000591
 30
0.0
 11
-29.299999999999983
 21
29.600000000000591
 31
0.0
  0
ARC
  5
1BB
100
AcDbEntity
  8
0
  6
CONTINUOUS
 62
               7
100
AcDbCircle
 10
-29.299999999999983
 20
29.900000000000603
 30
0.0
 40
0.3
100
AcDbArc
 50
179.99999999999963
 51
269.99999999999937
  0
LINE
  5
1BC
100
AcDbEntity
  8
0
  6
CONTINUOUS
 62
               7
100
AcDbLine
 10
-29.599999999999994
 20
29.900000000000603
 30
0.0
 11
-29.599999999999994
 21
32.100000000000591
 31
0.0
  0
LINE
  5
1BD
100
AcDbEntity
  8
0
  6
CONTINUOUS
 62
               7
100
AcDbLine
 10
-26.974999999999994
 20
30.075000000000585
 30
0.0
 11
-28.594999999999999
 21
30.075000000000585
 31
0.0
  0
LINE
  5
1BE
100
AcDbEntity
  8
0
  6
CONTINUOUS
 62
               7
100
AcDbLine
 10
-29.070000000000022
 20
26.400000000000603
 30
0.0
 11
-29.599999999999994
 21
26.400000000000603
 31
0.0
  0
LINE
  5
1BF
100
AcDbEntity
  8
0
  6
CONTINUOUS
 62
               7
100
AcDbLine
 10
-28.599999999999994
 20
25.925000000000608
 30
0.0
 11
-29.075000000000017
 21
26.400000000000603
 31
0.0
  0
LINE
  5
1C0
100
AcDbEntity
  8
0
  6
CONTINUOUS
 62
               7
100
AcDbLine
 10
-26.974999999999994
 20
25.925000000000608
 30
0.0
 11
-28.599999999999994
 21
25.925000000000608
 31
0.0
  0
LINE
  5
1C1
100
AcDbEntity
  8
0
  6
CONTINUOUS
 62
               7
100
AcDbLine
 10
-29.599999999999994
 20
26.400000000000603
 30
0.0
 11
-31.0
 21
25.000000000000597
 31
0.0
  0
LINE
  5
1C2
100
AcDbEntity
  8
0
  6
CONTINUOUS
 62
               7
100
AcDbLine
 10
-12.074999999999989
 20
46.595000000000596
 30
0.0
 11
-11.599999999999994
 21
47.070000000000618
 31
0.0
  0
LINE
  5
1C3
100
AcDbEntity
  8
0
  6
CONTINUOUS
 62
               7
100
AcDbLine
 10
-11.599999999999994
 20
47.070000000000618
 30
0.0
 11
-11.599999999999994
 21
47.30000000000058
 31
0.0
  0
ARC
  5
1C4
100
AcDbEntity
  8
0
  6
CONTINUOUS
 62
               7
100
AcDbCircle
 10
-11.900000000000006
 20
47.30000000000058
 30
0.0
 40
0.3
100
AcDbArc
 50
0.0
 51
89.999999999999815
  0
LINE
  5
1C5
100
AcDbEntity
  8
0
  6
CONTINUOUS
 62
               7
100
AcDbLine
 10
-12.074999999999989
 20
44.975000000000591
 30
0.0
 11
-12.074999999999989
 21
46.595000000000596
 31
0.0
  0
LINE
  5
1C6
100
AcDbEntity
  8
0
  6
CONTINUOUS
 62
               7
100
AcDbLine
 10
-8.4000000000000057
 20
47.07000000000059
 30
0.0
 11
-8.4000000000000057
 21
47.600000000000591
 31
0.0
  0
LINE
  5
1C7
100
AcDbEntity
  8
0
  6
CONTINUOUS
 62
               7
100
AcDbLine
 10
-7.9250000000000114
 20
46.600000000000591
 30
0.0
 11
-8.4000000000000057
 21
47.075000000000585
 31
0.0
  0
LINE
  5
1C8
100
AcDbEntity
  8
0
  6
CONTINUOUS
 62
               7
100
AcDbLine
 10
-7.9250000000000114
 20
44.975000000000591
 30
0.0
 11
-7.9250000000000114
 21
46.600000000000591
 31
0.0
  0
ARC
  5
1C9
100
AcDbEntity
  8
0
  6
CONTINUOUS
 62
               7
100
AcDbCircle
 10
-14.099999999999994
 20
47.30000000000058
 30
0.0
 40
0.3
100
AcDbArc
 50
89.999999999999815
 51
179.99999999999963
  0
LINE
  5
1CA
100
AcDbEntity
  8
0
  6
CONTINUOUS
 62
               7
100
AcDbLine
 10
-14.099999999999994
 20
47.600000000000591
 30
0.0
 11
-11.900000000000006
 21
47.600000000000591
 31
0.0
  0
LINE
  5
1CB
100
AcDbEntity
  8
0
  6
CONTINUOUS
 62
               7
100
AcDbLine
 10
-18.074999999999989
 20
46.600000000000591
 30
0.0
 11
-17.599999999999994
 21
47.075000000000614
 31
0.0
  0
LINE
  5
1CC
100
AcDbEntity
  8
0
  6
CONTINUOUS
 62
               7
100
AcDbLine
 10
-13.925000000000011
 20
44.975000000000591
 30
0.0
 11
-13.925000000000011
 21
46.595000000000596
 31
0.0
  0
LINE
  5
1CD
100
AcDbEntity
  8
0
  6
CONTINUOUS
 62
               7
100
AcDbLine
 10
-18.074999999999989
 20
44.975000000000591
 30
0.0
 11
-18.074999999999989
 21
46.600000000000591
 31
0.0
  0
LINE
  5
1CE
100
AcDbEntity
  8
0
  6
CONTINUOUS
 62
               7
100
AcDbLine
 10
-14.400000000000006
 20
47.070000000000618
 30
0.0
 11
-14.400000000000006
 21
47.30000000000058
 31
0.0
  0
LINE
  5
1CF
100
AcDbEntity
  8
0
  6
CONTINUOUS
 62
               7
100
AcDbLine
 10
-13.925000000000011
 20
46.595000000000596
 30
0.0
 11
-14.400000000000006
 21
47.070000000000618
 31
0.0
  0
LINE
  5
1D0
100
AcDbEntity
  8
0
  6
CONTINUOUS
 62
               7
100
AcDbLine
 10
-17.599999999999994
 20
47.070000000000618
 30
0.0
 11
-17.599999999999994
 21
47.600000000000591
 31
0.0
  0
LINE
  5
1D1
100
AcDbEntity
  8
0
  6
CENTER
 62
               2
100
AcDbLine
 10
-19.560005965482588
 20
44.975000000000591
 30
0.0
 11
-6.4399940345174116
 21
44.975000000000591
 31
0.0
  0
ARC
  5
1D2
100
AcDbEntity
  8
0
  6
CONTINUOUS
 62
               7
100
AcDbCircle
 10
-16.0
 20
44.975000000000591
 30
0.0
 40
2.0750000000000002
100
AcDbArc
 50
179.99999999999963
 51
0.0
  0
LINE
  5
1D3
100
AcDbEntity
  8
0
  6
CONTINUOUS
 62
               7
100
AcDbLine
 10
-17.599999999999994
 20
47.600000000000591
 30
0.0
 11
-20.999999999999403
 21
51.0
 31
0.0
  0
LINE
  5
1D4
100
AcDbEntity
  8
0
  6
CONTINUOUS
 62
               7
100
AcDbLine
 10
-8.4000000000000057
 20
47.600000000000591
 30
0.0
 11
-5.0000000000006253
 21
51.0
 31
0.0
  0
ARC
  5
1D5
100
AcDbEntity
  8
0
  6
CONTINUOUS
 62
               7
100
AcDbCircle
 10
-10.0
 20
44.975000000000591
 30
0.0
 40
2.0750000000000002
100
AcDbArc
 50
180.00000000000037
 51
0.0
  0
LINE
  5
1D6
100
AcDbEntity
  8
0
  6
CENTER
 62
               2
100
AcDbLine
 10
-10.0
 20
41.399997531017448
 30
0.0
 11
-10.0
 21
49.100000000000591
 31
0.0
  0
LINE
  5
1D7
100
AcDbEntity
  8
0
  6
CONTINUOUS
 62
               7
100
AcDbLine
 10
-13.0
 20
-17.509262436768552
 30
0.0
 11
-13.0
 21
17.509262436768552
 31
0.0
  0
LINE
  5
1D8
100
AcDbEntity
  8
0
  6
CONTINUOUS
 62
               7
100
AcDbLine
 10
-30.5
 20
19.5
 30
0.0
 11
-19.062177826489943
 21
19.5
 31
0.0
  0
ARC
  5
1D9
100
AcDbEntity
  8
0
  6
CONTINUOUS
 62
               7
100
AcDbCircle
 10
-13.0
 20
31.000000000000597
 30
0.0
 40
13.0
100
AcDbArc
 50
242.20422750397711
 51
267.87744863785616
  0
LINE
  5
1DA
100
AcDbEntity
  8
0
  6
CONTINUOUS
 62
               7
100
AcDbLine
 10
-31.5
 20
18.0
 30
0.0
 11
-20.0
 21
18.0
 31
0.0
  0
LINE
  5
1DB
100
AcDbEntity
  8
0
  6
CONTINUOUS
 62
               7
100
AcDbLine
 10
-20.0
 20
6.0
 30
0.0
 11
-20.0
 21
18.0
 31
0.0
  0
CIRCLE
  5
1DC
100
AcDbEntity
  8
0
  6
CONTINUOUS
 62
               7
100
AcDbCircle
 10
-25.5
 20
12.0
 30
0.0
 40
2.0
  0
CIRCLE
  5
1DD
100
AcDbEntity
  8
0
  6
CONTINUOUS
 62
               2
100
AcDbCircle
 10
-25.5
 20
12.0
 30
0.0
 40
2.5
  0
LINE
  5
1DE
100
AcDbEntity
  8
0
  6
CONTINUOUS
 62
               7
100
AcDbLine
 10
-19.5
 20
6.0
 30
0.0
 11
-19.5
 21
13.5
 31
0.0
  0
LINE
  5
1DF
100
AcDbEntity
  8
0
  6
CONTINUOUS
 62
               7
100
AcDbLine
 10
-19.5
 20
13.5
 30
0.0
 11
-13.0
 21
13.5
 31
0.0
  0
LINE
  5
1E0
100
AcDbEntity
  8
0
  6
CONTINUOUS
 62
               7
100
AcDbLine
 10
-22.5
 20
6.0
 30
0.0
 11
-14.5
 21
6.0
 31
0.0
  0
CIRCLE
  5
1E1
100
AcDbEntity
  8
0
  6
CONTINUOUS
 62
               7
100
AcDbCircle
 10
-13.0
 20
31.000000000000597
 30
0.0
 40
10.5
  0
LINE
  5
1E2
100
AcDbEntity
  8
0
  6
CENTER
 62
               2
100
AcDbLine
 10
-27.0
 20
1.5
 30
0.0
 11
-27.0
 21
7.5
 31
0.0
  0
LINE
  5
1E3
100
AcDbEntity
  8
0
  6
CENTER
 62
               2
100
AcDbLine
 10
-30.0
 20
4.5
 30
0.0
 11
-24.0
 21
4.5
 31
0.0
  0
CIRCLE
  5
1E4
100
AcDbEntity
  8
0
  6
CONTINUOUS
 62
               7
100
AcDbCircle
 10
-24.0
 20
44.0
 30
0.0
 40
5.0
  0
LINE
  5
1E5
100
AcDbEntity
  8
0
  6
CENTER
 62
               2
100
AcDbLine
 10
-30.5
 20
44.0
 30
0.0
 11
-17.5
 21
44.0
 31
0.0
  0
LINE
  5
1E6
100
AcDbEntity
  8
0
  6
CENTER
 62
               2
100
AcDbLine
 10
-24.0
 20
37.5
 30
0.0
 11
-24.0
 21
50.5
 31
0.0
  0
LINE
  5
1E7
100
AcDbEntity
  8
0
  6
DASHED
 62
               2
100
AcDbLine
 10
-20.0
 20
50.0
 30
0.0
 11
-21.0
 21
51.0
 31
0.0
  0
LINE
  5
1E8
100
AcDbEntity
  8
0
  6
CENTER
 62
               2
100
AcDbLine
 10
-16.0
 20
41.400000000000603
 30
0.0
 11
-16.0
 21
49.100000000000591
 31
0.0
  0
LINE
  5
1E9
100
AcDbEntity
  8
0
  6
CONTINUOUS
 62
               7
100
AcDbLine
 10
-27.0
 20
51.0
 30
0.0
 11
-20.999999999999403
 21
51.0
 31
0.0
  0
LINE
  5
1EA
100
AcDbEntity
  8
0
  6
CONTINUOUS
 62
               7
100
AcDbLine
 10
-0.3000000000002672
 20
38.700000000000642
 30
0.0
 11
-0.3000000000002672
 21
21.300000000000665
 31
0.0
  0
LINE
  5
1EB
100
AcDbEntity
  8
0
  6
CONTINUOUS
 62
               7
100
AcDbLine
 10
-0.3000000119211848
 20
21.300000011921583
 30
0.0
 11
-0.0000000000002558
 21
21.000000000000654
 31
0.0
  0
LINE
  5
1EC
100
AcDbEntity
  8
0
  6
CONTINUOUS
 62
               7
100
AcDbLine
 10
-0.3000000119211848
 20
38.699999988079725
 30
0.0
 11
-0.0000000596049006
 21
38.999999940396009
 31
0.0
  0
LINE
  5
1ED
100
AcDbEntity
  8
0
  6
CENTER
 62
               2
100
AcDbLine
 10
-25.5
 20
8.0
 30
0.0
 11
-25.5
 21
16.0
 31
0.0
  0
LINE
  5
1EE
100
AcDbEntity
  8
0
  6
CENTER
 62
               2
100
AcDbLine
 10
-29.5
 20
12.0
 30
0.0
 11
-21.5
 21
12.0
 31
0.0
  0
LINE
  5
1EF
100
AcDbEntity
  8
0
  6
CENTER
 62
               2
100
AcDbLine
 10
-25.0
 20
31.00000000000054
 30
0.0
 11
-1.0
 21
31.000000000000654
 31
0.0
  0
LINE
  5
1F0
100
AcDbEntity
  8
0
  6
CENTER
 62
               2
100
AcDbLine
 10
-13.0
 20
19.000000000000597
 30
0.0
 11
-13.0
 21
43.000000000000597
 31
0.0
  0
ARC
  5
1F1
100
AcDbEntity
  8
0
  6
CONTINUOUS
 62
               7
100
AcDbCircle
 10
-30.5
 20
20.0
 30
0.0
 40
0.5
100
AcDbArc
 50
179.99999999999963
 51
269.99999999999937
  0
ARC
  5
1F2
100
AcDbEntity
  8
0
  6
CONTINUOUS
 62
               7
100
AcDbCircle
 10
-13.5
 20
17.509262436768552
 30
0.0
 40
0.5
100
AcDbArc
 50
0.0
 51
87.877448637854769
  0
LINE
  5
1F3
100
AcDbEntity
  8
0
  6
CONTINUOUS
 62
               7
100
AcDbLine
 10
-31.0
 20
-20.0
 30
0.0
 11
-31.0
 21
-47.0
 31
0.0
  0
ARC
  5
1F4
100
AcDbEntity
  8
0
  6
CONTINUOUS
 62
               7
100
AcDbCircle
 10
-30.5
 20
-20.0
 30
0.0
 40
0.5
100
AcDbArc
 50
89.999999999999815
 51
179.99999999999963
  0
LINE
  5
1F5
100
AcDbEntity
  8
0
  6
CONTINUOUS
 62
               7
100
AcDbLine
 10
-30.5
 20
-19.5
 30
0.0
 11
-19.062177826489943
 21
-19.5
 31
0.0
  0
ARC
  5
1F6
100
AcDbEntity
  8
0
  6
CONTINUOUS
 62
               7
100
AcDbCircle
 10
-13.0
 20
-31.000000000000597
 30
0.0
 40
13.0
100
AcDbArc
 50
92.122551362143071
 51
117.79577249602205
  0
ARC
  5
1F7
100
AcDbEntity
  8
0
  6
CONTINUOUS
 62
               7
100
AcDbCircle
 10
-13.5
 20
-17.509262436768552
 30
0.0
 40
0.5
100
AcDbArc
 50
272.12255136214526
 51
0.0
  0
LINE
  5
1F8
100
AcDbEntity
  8
0
  6
CONTINUOUS
 62
               7
100
AcDbLine
 10
-0.0000000000005116
 20
48.999999999999972
 30
0.0
 11
-0.0000000000004547
 21
38.999999940396009
 31
0.0
  0
LINE
  5
1F9
100
AcDbEntity
  8
0
  6
CONTINUOUS
 62
               7
100
AcDbLine
 10
-0.800000000000523
 20
51.0
 30
0.0
 11
-5.0000000000006253
 21
51.0
 31
0.0
  0
LINE
  5
1FA
100
AcDbEntity
  8
0
  6
CONTINUOUS
 62
               7
100
AcDbLine
 10
-0.3000000119214406
 20
49.300000011920929
 30
0.0
 11
-0.0000000000005116
 21
49.0
 31
0.0
  0
LINE
  5
1FB
100
AcDbEntity
  8
0
  6
CONTINUOUS
 62
               7
100
AcDbLine
 10
-0.300000000000523
 20
50.5
 30
0.0
 11
-0.300000000000523
 21
49.299999999999983
 31
0.0
  0
ARC
  5
1FC
100
AcDbEntity
  8
0
  6
CONTINUOUS
 62
               7
100
AcDbCircle
 10
-0.800000000000523
 20
50.5
 30
0.0
 40
0.5
100
AcDbArc
 50
0.0
 51
89.999999999999815
  0
LINE
  5
1FD
100
AcDbEntity
  8
0
  6
CONTINUOUS
 62
               7
100
AcDbLine
 10
-31.5
 20
4.5
 30
0.0
 11
-31.5
 21
-4.5
 31
0.0
  0
LINE
  5
1FE
100
AcDbEntity
  8
0
  6
CONTINUOUS
 62
               7
100
AcDbLine
 10
-32.0
 20
5.0
 30
0.0
 11
-31.5
 21
4.5
 31
0.0
  0
LINE
  5
1FF
100
AcDbEntity
  8
0
  6
CONTINUOUS
 62
               7
100
AcDbLine
 10
-0.3000000000002672
 20
-38.700000000000642
 30
0.0
 11
-0.3000000000002672
 21
-21.300000000000665
 31
0.0
  0
LINE
  5
200
100
AcDbEntity
  8
0
  6
CONTINUOUS
 62
               7
100
AcDbLine
 10
-0.800000000000523
 20
-50.999999999999972
 30
0.0
 11
-27.000000000000028
 21
-50.999999999999972
 31
0.0
  0
ARC
  5
201
100
AcDbEntity
  8
0
  6
CONTINUOUS
 62
               7
100
AcDbCircle
 10
-0.800000000000523
 20
-50.499999999999972
 30
0.0
 40
0.5
100
AcDbArc
 50
270.00000000000023
 51
0.0
  0
LINE
  5
202
100
AcDbEntity
  8
0
  6
CONTINUOUS
 62
               7
100
AcDbLine
 10
-0.300000000000523
 20
-50.499999999999972
 30
0.0
 11
-0.300000000000523
 21
-49.299999999999983
 31
0.0
  0
LINE
  5
203
100
AcDbEntity
  8
0
  6
CONTINUOUS
 62
               7
100
AcDbLine
 10
-0.3000000119214406
 20
-49.300000011920915
 30
0.0
 11
-0.0000000000005116
 21
-48.999999999999986
 31
0.0
  0
LINE
  5
204
100
AcDbEntity
  8
0
  6
CONTINUOUS
 62
               7
100
AcDbLine
 10
-0.0000000000005116
 20
-48.999999999999972
 30
0.0
 11
-0.0000000000004547
 21
-38.999999940396009
 31
0.0
  0
LINE
  5
205
100
AcDbEntity
  8
0
  6
CONTINUOUS
 62
               7
100
AcDbLine
 10
-0.3000000119211848
 20
-38.699999988079725
 30
0.0
 11
-0.0000000596049006
 21
-38.999999940396009
 31
0.0
  0
LINE
  5
206
100
AcDbEntity
  8
0
  6
CONTINUOUS
 62
               7
100
AcDbLine
 10
-0.3000000119211848
 20
-21.300000011921583
 30
0.0
 11
-0.0000000000002558
 21
-21.000000000000654
 31
0.0
  0
LINE
  5
207
100
AcDbEntity
  8
0
  6
CONTINUOUS
 62
               7
100
AcDbLine
 10
-32.0
 20
-17.5
 30
0.0
 11
-32.0
 21
-5.0
 31
0.0
  0
LINE
  5
208
100
AcDbEntity
  8
0
  6
CONTINUOUS
 62
               7
100
AcDbLine
 10
-32.0
 20
-5.0
 30
0.0
 11
-31.5
 21
-4.5
 31
0.0
  0
LINE
  5
209
100
AcDbEntity
  8
0
  6
CONTINUOUS
 62
               7
100
AcDbLine
 10
-31.5
 20
18.0
 30
0.0
 11
-32.0
 21
17.500000000000014
 31
0.0
  0
LINE
  5
20A
100
AcDbEntity
  8
0
  6
CONTINUOUS
 62
               7
100
AcDbLine
 10
-31.5
 20
-18.0
 30
0.0
 11
-32.0
 21
-17.5
 31
0.0
  0
LINE
  5
20B
100
AcDbEntity
  8
0
  6
CONTINUOUS
 62
               7
100
AcDbLine
 10
0.0
 20
5.0
 30
0.0
 11
-0.3000000000000114
 21
4.6999999999999886
 31
0.0
  0
LINE
  5
20C
100
AcDbEntity
  8
0
  6
CONTINUOUS
 62
               7
100
AcDbLine
 10
0.0
 20
-5.0
 30
0.0
 11
-0.3000000000000114
 21
-4.6999999999999886
 31
0.0
  0
LINE
  5
20D
100
AcDbEntity
  8
0
  6
CONTINUOUS
 62
               7
100
AcDbLine
 10
-0.3000000000000114
 20
4.6999999999999886
 30
0.0
 11
-0.3000000000000114
 21
-4.6999999999999886
 31
0.0
  0
LINE
  5
20E
100
AcDbEntity
  8
0
  6
CONTINUOUS
 62
               7
100
AcDbLine
 10
0.0
 20
-5.0
 30
0.0
 11
0.0
 21
-21.000000000000654
 31
0.0
  0
ENDBLK
  5
20F
100
AcDbEntity
  8
0
100
AcDbBlockEnd
  0
BLOCK
  5
210
100
AcDbEntity
  8
0
100
AcDbBlockBegin
  2
ZSG20-6
 70
               0
 10
0.0
 20
0.0
 30
0.0
  3
ZSG20-6
  1

  0
LINE
  5
211
100
AcDbEntity
  8
0
  6
PHANTOM
 62
               3
100
AcDbLine
 10
156.0
 20
72.0
 30
0.0
 11
173.0
 21
72.0
 31
0.0
  0
LINE
  5
212
100
AcDbEntity
  8
0
  6
CONTINUOUS
 62
               7
100
AcDbLine
 10
114.99999999999999
 20
31.0
 30
0.0
 11
193.0
 21
31.0
 31
0.0
  0
LINE
  5
213
100
AcDbEntity
  8
0
  6
CENTER
 62
             200
100
AcDbLine
 10
109.49999999999999
 20
31.0
 30
0.0
 11
109.49999999999999
 21
28.0
 31
0.0
  0
LINE
  5
214
100
AcDbEntity
  8
0
  6
CONTINUOUS
 62
               4
100
AcDbLine
 10
114.99999999999999
 20
31.0
 30
0.0
 11
114.99999999999999
 21
29.5
 31
0.0
  0
LINE
  5
215
100
AcDbEntity
  8
0
  6
CONTINUOUS
 62
               4
100
AcDbLine
 10
103.99999999999999
 20
31.0
 30
0.0
 11
103.99999999999999
 21
29.5
 31
0.0
  0
LINE
  5
216
100
AcDbEntity
  8
0
  6
CONTINUOUS
 62
               4
100
AcDbLine
 10
103.99999999999999
 20
29.5
 30
0.0
 11
114.99999999999999
 21
29.5
 31
0.0
  0
LINE
  5
217
100
AcDbEntity
  8
0
  6
CONTINUOUS
 62
               7
100
AcDbLine
 10
41.999999999999986
 20
2.0
 30
0.0
 11
43.999999999999986
 21
2.0
 31
0.0
  0
LINE
  5
218
100
AcDbEntity
  8
0
  6
CENTER
 62
               2
100
AcDbLine
 10
40.499999999999986
 20
7.0
 30
0.0
 11
45.499999999999986
 21
7.0
 31
0.0
  0
LINE
  5
219
100
AcDbEntity
  8
0
  6
CONTINUOUS
 62
               7
100
AcDbLine
 10
19.999999999999986
 20
20.0
 30
0.0
 11
43.999999999999986
 21
20.0
 31
0.0
  0
LINE
  5
21A
100
AcDbEntity
  8
0
  6
CONTINUOUS
 62
               7
100
AcDbLine
 10
43.100000007035305
 20
10.354248688935414
 30
0.0
 11
43.999999983193447
 21
10.354248688935414
 31
0.0
  0
LINE
  5
21B
100
AcDbEntity
  8
0
  6
CONTINUOUS
 62
               7
100
AcDbLine
 10
43.099999947430661
 20
10.000000060190942
 30
0.0
 11
44.000000042798092
 21
9.4803847676418087
 31
0.0
  0
LINE
  5
21C
100
AcDbEntity
  8
0
  6
CONTINUOUS
 62
               7
100
AcDbLine
 10
43.100000007035305
 20
15.645751311064586
 30
0.0
 11
43.999999983193447
 21
15.645751311064586
 31
0.0
  0
LINE
  5
21D
100
AcDbEntity
  8
0
  6
CONTINUOUS
 62
               7
100
AcDbLine
 10
43.099999947430661
 20
15.999999939809058
 30
0.0
 11
44.000000042798092
 21
16.519615232358191
 31
0.0
  0
LINE
  5
21E
100
AcDbEntity
  8
0
  6
CONTINUOUS
 62
               7
100
AcDbLine
 10
41.999999999999986
 20
7.0
 30
0.0
 11
43.09999999999998
 21
7.0
 31
0.0
  0
LINE
  5
21F
100
AcDbEntity
  8
0
  6
CONTINUOUS
 62
               7
100
AcDbLine
 10
41.999999999999986
 20
19.0
 30
0.0
 11
43.09999999999998
 21
19.0
 31
0.0
  0
LINE
  5
220
100
AcDbEntity
  8
0
  6
CONTINUOUS
 62
               7
100
AcDbLine
 10
43.09999999999998
 20
19.000000000000014
 30
0.0
 11
43.09999999999998
 21
7.0
 31
0.0
  0
LINE
  5
221
100
AcDbEntity
  8
0
  6
CENTER
 62
               2
100
AcDbLine
 10
54.499999999999986
 20
16.0
 30
0.0
 11
67.499999999999986
 21
16.0
 31
0.0
  0
CIRCLE
  5
222
100
AcDbEntity
  8
0
  6
CONTINUOUS
 62
               7
100
AcDbCircle
 10
60.999999999999986
 20
16.0
 30
0.0
 40
1.0
  0
CIRCLE
  5
223
100
AcDbEntity
  8
0
  6
CONTINUOUS
 62
               2
100
AcDbCircle
 10
60.999999999999986
 20
16.0
 30
0.0
 40
5.0
  0
CIRCLE
  5
224
100
AcDbEntity
  8
0
  6
CONTINUOUS
 62
               7
100
AcDbCircle
 10
60.999999999999986
 20
16.0
 30
0.0
 40
4.0999999999999996
  0
LINE
  5
225
100
AcDbEntity
  8
0
  6
CENTER
 62
               2
100
AcDbLine
 10
60.999999999999986
 20
9.5
 30
0.0
 11
60.999999999999986
 21
22.5
 31
0.0
  0
CIRCLE
  5
226
100
AcDbEntity
  8
0
  6
CONTINUOUS
 62
               2
100
AcDbCircle
 10
177.0
 20
16.0
 30
0.0
 40
5.0
  0
CIRCLE
  5
227
100
AcDbEntity
  8
0
  6
CONTINUOUS
 62
               7
100
AcDbCircle
 10
177.0
 20
16.0
 30
0.0
 40
4.0999999999999996
  0
CIRCLE
  5
228
100
AcDbEntity
  8
0
  6
CONTINUOUS
 62
               7
100
AcDbCircle
 10
177.0
 20
16.0
 30
0.0
 40
1.0
  0
LINE
  5
229
100
AcDbEntity
  8
0
  6
CENTER
 62
               2
100
AcDbLine
 10
177.0
 20
9.5
 30
0.0
 11
177.0
 21
22.5
 31
0.0
  0
LINE
  5
22A
100
AcDbEntity
  8
0
  6
CENTER
 62
               2
100
AcDbLine
 10
170.5
 20
16.0
 30
0.0
 11
183.5
 21
16.0
 31
0.0
  0
LINE
  5
22B
100
AcDbEntity
  8
0
  6
CENTER
 62
               2
100
AcDbLine
 10
-3.0
 20
13.0
 30
0.0
 11
196.0
 21
13.0
 31
0.0
  0
LINE
  5
22C
100
AcDbEntity
  8
0
  6
CONTINUOUS
 62
               7
100
AcDbLine
 10
29.999999999999986
 20
1.5
 30
0.0
 11
41.999999999999986
 21
1.5
 31
0.0
  0
LINE
  5
22D
100
AcDbEntity
  8
0
  6
CONTINUOUS
 62
               7
100
AcDbLine
 10
43.999999983193447
 20
27.0
 30
0.0
 11
193.0
 21
27.0
 31
0.0
  0
LINE
  5
22E
100
AcDbEntity
  8
0
  6
CONTINUOUS
 62
               7
100
AcDbLine
 10
43.999999983193447
 20
31.0
 30
0.0
 11
103.99999999999999
 21
31.0
 31
0.0
  0
LINE
  5
22F
100
AcDbEntity
  8
0
  6
CONTINUOUS
 62
               7
100
AcDbLine
 10
0.0
 20
31.5
 30
0.0
 11
193.0
 21
31.5
 31
0.0
  0
LINE
  5
230
100
AcDbEntity
  8
0
  6
CONTINUOUS
 62
               7
100
AcDbLine
 10
43.999999999999986
 20
0.5
 30
0.0
 11
193.0
 21
0.5
 31
0.0
  0
LINE
  5
231
100
AcDbEntity
  8
0
  6
CONTINUOUS
 62
               7
100
AcDbLine
 10
193.0
 20
32.0
 30
0.0
 11
193.0
 21
0.0
 31
0.0
  0
LINE
  5
232
100
AcDbEntity
  8
0
  6
CONTINUOUS
 62
               7
100
AcDbLine
 10
43.999999999999986
 20
31.0
 30
0.0
 11
43.999999999999986
 21
0.0
 31
0.0
  0
LINE
  5
233
100
AcDbEntity
  8
0
  6
CONTINUOUS
 62
               7
100
AcDbLine
 10
41.999999999999986
 20
20.0
 30
0.0
 11
41.999999999999986
 21
1.5
 31
0.0
  0
LINE
  5
234
100
AcDbEntity
  8
0
  6
CONTINUOUS
 62
               7
100
AcDbLine
 10
29.999999999999986
 20
20.0
 30
0.0
 11
29.999999999999986
 21
1.5
 31
0.0
  0
LINE
  5
235
100
AcDbEntity
  8
0
  6
CONTINUOUS
 62
               7
100
AcDbLine
 10
43.999999999999986
 20
0.0
 30
0.0
 11
193.0
 21
0.0
 31
0.0
  0
LINE
  5
236
100
AcDbEntity
  8
0
  6
CONTINUOUS
 62
               7
100
AcDbLine
 10
19.999999999999986
 20
32.0
 30
0.0
 11
193.0
 21
32.0
 31
0.0
  0
LINE
  5
237
100
AcDbEntity
  8
0
  6
CONTINUOUS
 62
               7
100
AcDbLine
 10
0.0
 20
31.499999999999993
 30
0.0
 11
0.0
 21
1.4999999999999858
 31
0.0
  0
LINE
  5
238
100
AcDbEntity
  8
0
  6
CONTINUOUS
 62
               7
100
AcDbLine
 10
19.999999999999986
 20
31.999999999999993
 30
0.0
 11
19.999999999999986
 21
1.4999999999999858
 31
0.0
  0
LINE
  5
239
100
AcDbEntity
  8
0
  6
CONTINUOUS
 62
               7
100
AcDbLine
 10
0.0
 20
1.4999999999999858
 30
0.0
 11
19.999999999999986
 21
1.4999999999999858
 31
0.0
  0
LINE
  5
23A
100
AcDbEntity
  8
0
  6
CENTER
 62
               2
100
AcDbLine
 10
-1.5
 20
9.9999999999999858
 30
0.0
 11
31.499999999999986
 21
9.9999999999999858
 31
0.0
  0
LINE
  5
23B
100
AcDbEntity
  8
0
  6
CENTER
 62
               2
100
AcDbLine
 10
19.999999999999986
 20
16.59999999999998
 30
0.0
 11
29.999999999999986
 21
16.59999999999998
 31
0.0
  0
LINE
  5
23C
100
AcDbEntity
  8
0
  6
CENTER
 62
               2
100
AcDbLine
 10
19.999999999999986
 20
15.399999999999991
 30
0.0
 11
29.999999999999986
 21
15.399999999999991
 31
0.0
  0
LINE
  5
23D
100
AcDbEntity
  8
0
  6
DASHED
 62
               2
100
AcDbLine
 10
29.999999999999986
 20
18.499999999999986
 30
0.0
 11
42.000000000000007
 21
18.499999999999986
 31
0.0
  0
LINE
  5
23E
100
AcDbEntity
  8
0
  6
CENTER
 62
               2
100
AcDbLine
 10
18.499999999999986
 20
15.999999999999986
 30
0.0
 11
31.499999999999986
 21
15.999999999999986
 31
0.0
  0
LINE
  5
23F
100
AcDbEntity
  8
0
  6
CENTER
 62
               2
100
AcDbLine
 10
19.999999999999986
 20
3.3999999999999915
 30
0.0
 11
29.999999999999986
 21
3.3999999999999915
 31
0.0
  0
LINE
  5
240
100
AcDbEntity
  8
0
  6
CENTER
 62
               2
100
AcDbLine
 10
19.999999999999986
 20
4.5999999999999801
 30
0.0
 11
29.999999999999986
 21
4.5999999999999801
 31
0.0
  0
LINE
  5
241
100
AcDbEntity
  8
0
  6
CENTER
 62
               2
100
AcDbLine
 10
18.499999999999986
 20
3.9999999999999858
 30
0.0
 11
31.499999999999986
 21
3.9999999999999858
 31
0.0
  0
LINE
  5
242
100
AcDbEntity
  8
0
  6
PHANTOM
 62
               3
100
AcDbLine
 10
156.0
 20
72.0
 30
0.0
 11
156.0
 21
-35.0
 31
0.0
  0
ENDBLK
  5
243
100
AcDbEntity
  8
0
100
AcDbBlockEnd
  0
BLOCK
  5
244
100
AcDbEntity
  8
0
100
AcDbBlockBegin
  2
ZSG20-7
 70
               0
 10
0.0
 20
0.0
 30
0.0
  3
ZSG20-7
  1

  0
LINE
  5
245
100
AcDbEntity
  8
0
  6
PHANTOM
 62
               3
100
AcDbLine
 10
182.0
 20
90.999999999999986
 30
0.0
 11
156.0
 21
90.999999999999986
 31
0.0
  0
LINE
  5
246
100
AcDbEntity
  8
0
  6
CONTINUOUS
 62
               7
100
AcDbLine
 10
193.0
 20
-50.999999999999986
 30
0.0
 11
193.0
 21
50.999999999999986
 31
0.0
  0
LINE
  5
247
100
AcDbEntity
  8
0
  6
CONTINUOUS
 62
               7
100
AcDbLine
 10
41.999999999999986
 20
-40.0
 30
0.0
 11
41.999999999999986
 21
40.0
 31
0.0
  0
LINE
  5
248
100
AcDbEntity
  8
0
  6
CONTINUOUS
 62
               7
100
AcDbLine
 10
29.999999999999986
 20
-40.0
 30
0.0
 11
29.999999999999986
 21
40.0
 31
0.0
  0
LINE
  5
249
100
AcDbEntity
  8
0
  6
CENTER
 62
               2
100
AcDbLine
 10
-3.0
 20
0.0
 30
0.0
 11
196.0
 21
0.0
 31
0.0
  0
LINE
  5
24A
100
AcDbEntity
  8
0
  6
CENTER
 62
               2
100
AcDbLine
 10
28.499999999999986
 20
31.000000000000597
 30
0.0
 11
45.499999999999986
 21
31.000000000000597
 31
0.0
  0
LINE
  5
24B
100
AcDbEntity
  8
0
  6
CONTINUOUS
 62
               7
100
AcDbLine
 10
43.999999983193447
 20
50.999999999999986
 30
0.0
 11
193.0
 21
50.999999999999986
 31
0.0
  0
LINE
  5
24C
100
AcDbEntity
  8
0
  6
CONTINUOUS
 62
               7
100
AcDbLine
 10
29.999999983193447
 20
40.0
 30
0.0
 11
41.999999999999986
 21
40.0
 31
0.0
  0
LINE
  5
24D
100
AcDbEntity
  8
0
  6
CONTINUOUS
 62
               7
100
AcDbLine
 10
43.999999999999986
 20
-50.999999999999986
 30
0.0
 11
43.999999999999986
 21
50.999999999999986
 31
0.0
  0
LINE
  5
24E
100
AcDbEntity
  8
0
  6
CONTINUOUS
 62
               7
100
AcDbLine
 10
43.09999999999998
 20
37.000000000000597
 30
0.0
 11
43.09999999999998
 21
25.000000000000597
 31
0.0
  0
LINE
  5
24F
100
AcDbEntity
  8
0
  6
CONTINUOUS
 62
               7
100
AcDbLine
 10
41.999999999999986
 20
25.000000000000597
 30
0.0
 11
43.09999999999998
 21
25.000000000000597
 31
0.0
  0
LINE
  5
250
100
AcDbEntity
  8
0
  6
CONTINUOUS
 62
               7
100
AcDbLine
 10
43.09999999999998
 20
28.000000000000597
 30
0.0
 11
43.999999999999986
 21
28.000000000000597
 31
0.0
  0
LINE
  5
251
100
AcDbEntity
  8
0
  6
CONTINUOUS
 62
               7
100
AcDbLine
 10
43.09999999999998
 20
34.000000000000597
 30
0.0
 11
43.999999999999986
 21
34.000000000000597
 31
0.0
  0
LINE
  5
252
100
AcDbEntity
  8
0
  6
CONTINUOUS
 62
               7
100
AcDbLine
 10
41.999999999999986
 20
37.000000000000597
 30
0.0
 11
43.09999999999998
 21
37.000000000000597
 31
0.0
  0
LINE
  5
253
100
AcDbEntity
  8
0
  6
CONTINUOUS
 62
               7
100
AcDbLine
 10
19.999999999999986
 20
18.0
 30
0.0
 11
29.999999999999986
 21
18.0
 31
0.0
  0
LINE
  5
254
100
AcDbEntity
  8
0
  6
CONTINUOUS
 62
               7
100
AcDbLine
 10
19.999999999999986
 20
6.5
 30
0.0
 11
29.999999999999986
 21
6.5
 31
0.0
  0
LINE
  5
255
100
AcDbEntity
  8
0
  6
CONTINUOUS
 62
               7
100
AcDbLine
 10
193.0
 20
49.000000000000028
 30
0.0
 11
43.999999999999986
 21
49.000000000000028
 31
0.0
  0
LINE
  5
256
100
AcDbEntity
  8
0
  6
CONTINUOUS
 62
               7
100
AcDbLine
 10
193.0
 20
39.000000000000028
 30
0.0
 11
43.999999999999986
 21
39.000000000000028
 31
0.0
  0
LINE
  5
257
100
AcDbEntity
  8
0
  6
CONTINUOUS
 62
               7
100
AcDbLine
 10
193.0
 20
21.000000000000028
 30
0.0
 11
43.999999999999986
 21
21.000000000000028
 31
0.0
  0
LINE
  5
258
100
AcDbEntity
  8
0
  6
CONTINUOUS
 62
               7
100
AcDbLine
 10
193.0
 20
5.0000000000000284
 30
0.0
 11
43.999999999999986
 21
5.0000000000000284
 31
0.0
  0
LINE
  5
259
100
AcDbEntity
  8
0
  6
CONTINUOUS
 62
               7
100
AcDbLine
 10
193.0
 20
49.500000000000028
 30
0.0
 11
43.999999999999986
 21
49.500000000000028
 31
0.0
  0
LINE
  5
25A
100
AcDbEntity
  8
0
  6
CONTINUOUS
 62
               7
100
AcDbLine
 10
193.0
 20
38.500000000000028
 30
0.0
 11
43.999999999999986
 21
38.500000000000028
 31
0.0
  0
LINE
  5
25B
100
AcDbEntity
  8
0
  6
CONTINUOUS
 62
               7
100
AcDbLine
 10
193.0
 20
21.500000000000028
 30
0.0
 11
43.999999999999986
 21
21.500000000000028
 31
0.0
  0
LINE
  5
25C
100
AcDbEntity
  8
0
  6
CONTINUOUS
 62
               7
100
AcDbLine
 10
193.0
 20
4.5000000000000284
 30
0.0
 11
43.999999999999986
 21
4.5000000000000284
 31
0.0
  0
CIRCLE
  5
25D
100
AcDbEntity
  8
0
  6
CONTINUOUS
 62
               7
100
AcDbCircle
 10
54.999999999999986
 20
12.000000000000028
 30
0.0
 40
2.2000000000000002
  0
CIRCLE
  5
25E
100
AcDbEntity
  8
0
  6
CONTINUOUS
 62
               2
100
AcDbCircle
 10
54.999999999999986
 20
12.000000000000028
 30
0.0
 40
3.0
  0
LINE
  5
25F
100
AcDbEntity
  8
0
  6
CENTER
 62
               2
100
AcDbLine
 10
50.499999999999986
 20
12.000000000000028
 30
0.0
 11
59.499999999999986
 21
12.000000000000028
 31
0.0
  0
LINE
  5
260
100
AcDbEntity
  8
0
  6
CENTER
 62
               2
100
AcDbLine
 10
54.999999999999986
 20
7.5000000000000284
 30
0.0
 11
54.999999999999986
 21
16.500000000000028
 31
0.0
  0
LINE
  5
261
100
AcDbEntity
  8
0
  6
CENTER
 62
               2
100
AcDbLine
 10
54.999999999999986
 20
-3.4999999999999716
 30
0.0
 11
54.999999999999986
 21
3.5000000000000284
 31
0.0
  0
CIRCLE
  5
262
100
AcDbEntity
  8
0
  6
CONTINUOUS
 62
               7
100
AcDbCircle
 10
54.999999999999986
 20
0.0000000000000284
 30
0.0
 40
2.0
  0
LINE
  5
263
100
AcDbEntity
  8
0
  6
CONTINUOUS
 62
               7
100
AcDbLine
 10
108.99999999999999
 20
2.0000000000000284
 30
0.0
 11
110.99999999999999
 21
2.0000000000000284
 31
0.0
  0
LINE
  5
264
100
AcDbEntity
  8
0
  6
CONTINUOUS
 62
               7
100
AcDbLine
 10
108.99999999999999
 20
-1.9999999999999716
 30
0.0
 11
110.99999999999999
 21
-1.9999999999999716
 31
0.0
  0
LINE
  5
265
100
AcDbEntity
  8
0
  6
CENTER
 62
               2
100
AcDbLine
 10
109.99999999999999
 20
3.5000000000000284
 30
0.0
 11
109.99999999999999
 21
-3.4999999999999716
 31
0.0
  0
LINE
  5
266
100
AcDbEntity
  8
0
  6
CENTER
 62
               2
100
AcDbLine
 10
110.99999999999999
 20
-3.4999999999999716
 30
0.0
 11
110.99999999999999
 21
3.5000000000000284
 31
0.0
  0
ARC
  5
267
100
AcDbEntity
  8
0
  6
CONTINUOUS
 62
               7
100
AcDbCircle
 10
108.99999999999999
 20
0.0000000000000284
 30
0.0
 40
2.0
100
AcDbArc
 50
89.999999999999815
 51
269.99999999999937
  0
LINE
  5
268
100
AcDbEntity
  8
0
  6
CENTER
 62
               2
100
AcDbLine
 10
108.99999999999999
 20
-3.4999999999999716
 30
0.0
 11
108.99999999999999
 21
3.5000000000000284
 31
0.0
  0
ARC
  5
269
100
AcDbEntity
  8
0
  6
CONTINUOUS
 62
               7
100
AcDbCircle
 10
110.99999999999999
 20
0.0000000000000284
 30
0.0
 40
2.0
100
AcDbArc
 50
269.99999999999937
 51
89.999999999999801
  0
LINE
  5
26A
100
AcDbEntity
  8
0
  6
CENTER
 62
               2
100
AcDbLine
 10
105.49999999999999
 20
12.000000000000028
 30
0.0
 11
114.49999999999999
 21
12.000000000000028
 31
0.0
  0
LINE
  5
26B
100
AcDbEntity
  8
0
  6
CENTER
 62
               2
100
AcDbLine
 10
109.99999999999999
 20
7.5000000000000284
 30
0.0
 11
109.99999999999999
 21
16.500000000000028
 31
0.0
  0
CIRCLE
  5
26C
100
AcDbEntity
  8
0
  6
CONTINUOUS
 62
               2
100
AcDbCircle
 10
109.99999999999999
 20
12.000000000000028
 30
0.0
 40
3.0
  0
CIRCLE
  5
26D
100
AcDbEntity
  8
0
  6
CONTINUOUS
 62
               7
100
AcDbCircle
 10
109.99999999999999
 20
12.000000000000028
 30
0.0
 40
2.2000000000000002
  0
LINE
  5
26E
100
AcDbEntity
  8
0
  6
CENTER
 62
             200
100
AcDbLine
 10
160.5
 20
12.000000000000028
 30
0.0
 11
169.5
 21
12.000000000000028
 31
0.0
  0
LINE
  5
26F
100
AcDbEntity
  8
0
  6
CENTER
 62
             200
100
AcDbLine
 10
165.0
 20
7.5000000000000284
 30
0.0
 11
165.0
 21
16.500000000000028
 31
0.0
  0
CIRCLE
  5
270
100
AcDbEntity
  8
0
  6
CONTINUOUS
 62
             200
100
AcDbCircle
 10
165.0
 20
12.000000000000028
 30
0.0
 40
3.0
  0
CIRCLE
  5
271
100
AcDbEntity
  8
0
  6
CONTINUOUS
 62
               4
100
AcDbCircle
 10
165.0
 20
12.000000000000028
 30
0.0
 40
2.2000000000000002
  0
LINE
  5
272
100
AcDbEntity
  8
0
  6
CENTER
 62
               2
100
AcDbLine
 10
71.999999999999986
 20
14.750000000000028
 30
0.0
 11
71.999999999999986
 21
5.2500000000000284
 31
0.0
  0
CIRCLE
  5
273
100
AcDbEntity
  8
0
  6
CONTINUOUS
 62
               7
100
AcDbCircle
 10
71.999999999999986
 20
10.000000000000028
 30
0.0
 40
3.25
  0
CIRCLE
  5
274
100
AcDbEntity
  8
0
  6
CONTINUOUS
 62
               7
100
AcDbCircle
 10
71.999999999999986
 20
10.000000000000028
 30
0.0
 40
2.75
  0
LINE
  5
275
100
AcDbEntity
  8
0
  6
CENTER
 62
               2
100
AcDbLine
 10
76.749999999999986
 20
10.000000000000028
 30
0.0
 11
67.249999999999986
 21
10.000000000000028
 31
0.0
  0
LINE
  5
276
100
AcDbEntity
  8
0
  6
CONTINUOUS
 62
               7
100
AcDbLine
 10
71.278312163512965
 20
11.250000000000028
 30
0.0
 11
72.721687836487007
 21
11.250000000000028
 31
0.0
  0
LINE
  5
277
100
AcDbEntity
  8
0
  6
CONTINUOUS
 62
               7
100
AcDbLine
 10
70.556624327025929
 20
10.000000000000028
 30
0.0
 11
71.278312163512965
 21
11.250000000000028
 31
0.0
  0
LINE
  5
278
100
AcDbEntity
  8
0
  6
CONTINUOUS
 62
               7
100
AcDbLine
 10
73.443375672974042
 20
10.000000000000028
 30
0.0
 11
72.721687836487007
 21
11.250000000000028
 31
0.0
  0
LINE
  5
279
100
AcDbEntity
  8
0
  6
CONTINUOUS
 62
               7
100
AcDbLine
 10
73.443375672974042
 20
10.000000000000028
 30
0.0
 11
72.721687836487007
 21
8.7500000000000284
 31
0.0
  0
LINE
  5
27A
100
AcDbEntity
  8
0
  6
CONTINUOUS
 62
               7
100
AcDbLine
 10
71.278312163512965
 20
8.7500000000000284
 30
0.0
 11
72.721687836487007
 21
8.7500000000000284
 31
0.0
  0
LINE
  5
27B
100
AcDbEntity
  8
0
  6
CONTINUOUS
 62
               7
100
AcDbLine
 10
70.556624327025929
 20
10.000000000000028
 30
0.0
 11
71.278312163512965
 21
8.7500000000000284
 31
0.0
  0
LINE
  5
27C
100
AcDbEntity
  8
0
  6
CENTER
 62
               2
100
AcDbLine
 10
91.999999999999986
 20
14.750000000000028
 30
0.0
 11
91.999999999999986
 21
5.2500000000000284
 31
0.0
  0
CIRCLE
  5
27D
100
AcDbEntity
  8
0
  6
CONTINUOUS
 62
               7
100
AcDbCircle
 10
91.999999999999986
 20
10.000000000000028
 30
0.0
 40
3.25
  0
LINE
  5
27E
100
AcDbEntity
  8
0
  6
CONTINUOUS
 62
               7
100
AcDbLine
 10
90.556624327025929
 20
10.000000000000028
 30
0.0
 11
91.278312163512965
 21
8.7500000000000284
 31
0.0
  0
LINE
  5
27F
100
AcDbEntity
  8
0
  6
CONTINUOUS
 62
               7
100
AcDbLine
 10
91.278312163512965
 20
8.7500000000000284
 30
0.0
 11
92.721687836487007
 21
8.7500000000000284
 31
0.0
  0
LINE
  5
280
100
AcDbEntity
  8
0
  6
CONTINUOUS
 62
               7
100
AcDbLine
 10
93.443375672974042
 20
10.000000000000028
 30
0.0
 11
92.721687836487007
 21
8.7500000000000284
 31
0.0
  0
LINE
  5
281
100
AcDbEntity
  8
0
  6
CONTINUOUS
 62
               7
100
AcDbLine
 10
93.443375672974042
 20
10.000000000000028
 30
0.0
 11
92.721687836487007
 21
11.250000000000028
 31
0.0
  0
LINE
  5
282
100
AcDbEntity
  8
0
  6
CONTINUOUS
 62
               7
100
AcDbLine
 10
90.556624327025929
 20
10.000000000000028
 30
0.0
 11
91.278312163512965
 21
11.250000000000028
 31
0.0
  0
LINE
  5
283
100
AcDbEntity
  8
0
  6
CONTINUOUS
 62
               7
100
AcDbLine
 10
91.278312163512965
 20
11.250000000000028
 30
0.0
 11
92.721687836487007
 21
11.250000000000028
 31
0.0
  0
LINE
  5
284
100
AcDbEntity
  8
0
  6
CENTER
 62
               2
100
AcDbLine
 10
96.749999999999986
 20
10.000000000000028
 30
0.0
 11
87.249999999999986
 21
10.000000000000028
 31
0.0
  0
CIRCLE
  5
285
100
AcDbEntity
  8
0
  6
CONTINUOUS
 62
               7
100
AcDbCircle
 10
91.999999999999986
 20
10.000000000000028
 30
0.0
 40
2.75
  0
LINE
  5
286
100
AcDbEntity
  8
0
  6
CONTINUOUS
 62
               7
100
AcDbLine
 10
0.0
 20
-40.000000000000028
 30
0.0
 11
0.0
 21
40.000000000000028
 31
0.0
  0
LINE
  5
287
100
AcDbEntity
  8
0
  6
CONTINUOUS
 62
               7
100
AcDbLine
 10
19.999999999999986
 20
-40.000000000000028
 30
0.0
 11
19.999999999999986
 21
40.000000000000028
 31
0.0
  0
LINE
  5
288
100
AcDbEntity
  8
0
  6
CONTINUOUS
 62
               7
100
AcDbLine
 10
0.0
 20
40.000000000000028
 30
0.0
 11
19.999999999999986
 21
40.000000000000028
 31
0.0
  0
LINE
  5
289
100
AcDbEntity
  8
0
  6
CONTINUOUS
 62
               7
100
AcDbLine
 10
41.999999999999986
 20
18.0
 30
0.0
 11
43.999999999999986
 21
18.0
 31
0.0
  0
LINE
  5
28A
100
AcDbEntity
  8
0
  6
CONTINUOUS
 62
               7
100
AcDbLine
 10
41.999999999999986
 20
5.0
 30
0.0
 11
43.999999999999986
 21
5.0
 31
0.0
  0
LINE
  5
28B
100
AcDbEntity
  8
0
  6
CONTINUOUS
 62
               7
100
AcDbLine
 10
41.999999999999986
 20
6.5
 30
0.0
 11
43.999999999999986
 21
6.5
 31
0.0
  0
LINE
  5
28C
100
AcDbEntity
  8
0
  6
CENTER
 62
               2
100
AcDbLine
 10
19.999999999999986
 20
6.5999999999999943
 30
0.0
 11
29.999999999999986
 21
6.5999999999999943
 31
0.0
  0
LINE
  5
28D
100
AcDbEntity
  8
0
  6
CENTER
 62
               2
100
AcDbLine
 10
19.999999999999986
 20
5.4000000000000057
 30
0.0
 11
29.999999999999986
 21
5.4000000000000057
 31
0.0
  0
LINE
  5
28E
100
AcDbEntity
  8
0
  6
CENTER
 62
               2
100
AcDbLine
 10
18.499999999999986
 20
6.0
 30
0.0
 11
31.499999999999986
 21
6.0
 31
0.0
  0
LINE
  5
28F
100
AcDbEntity
  8
0
  6
PHANTOM
 62
               3
100
AcDbLine
 10
182.0
 20
-75.999999999999986
 30
0.0
 11
182.0
 21
90.999999999999986
 31
0.0
  0
LINE
  5
290
100
AcDbEntity
  8
0
  6
CONTINUOUS
 62
               7
100
AcDbLine
 10
43.999999983193447
 20
-50.999999999999986
 30
0.0
 11
193.0
 21
-50.999999999999986
 31
0.0
  0
LINE
  5
291
100
AcDbEntity
  8
0
  6
CONTINUOUS
 62
               7
100
AcDbLine
 10
193.0
 20
-49.000000000000028
 30
0.0
 11
43.999999999999986
 21
-49.000000000000028
 31
0.0
  0
LINE
  5
292
100
AcDbEntity
  8
0
  6
CONTINUOUS
 62
               7
100
AcDbLine
 10
193.0
 20
-39.000000000000028
 30
0.0
 11
43.999999999999986
 21
-39.000000000000028
 31
0.0
  0
LINE
  5
293
100
AcDbEntity
  8
0
  6
CONTINUOUS
 62
               7
100
AcDbLine
 10
193.0
 20
-21.000000000000028
 30
0.0
 11
43.999999999999986
 21
-21.000000000000028
 31
0.0
  0
LINE
  5
294
100
AcDbEntity
  8
0
  6
CONTINUOUS
 62
               7
100
AcDbLine
 10
193.0
 20
-5.0000000000000284
 30
0.0
 11
43.999999999999986
 21
-5.0000000000000284
 31
0.0
  0
LINE
  5
295
100
AcDbEntity
  8
0
  6
CONTINUOUS
 62
               7
100
AcDbLine
 10
193.0
 20
-49.500000000000028
 30
0.0
 11
43.999999999999986
 21
-49.500000000000028
 31
0.0
  0
LINE
  5
296
100
AcDbEntity
  8
0
  6
CONTINUOUS
 62
               7
100
AcDbLine
 10
193.0
 20
-38.500000000000028
 30
0.0
 11
43.999999999999986
 21
-38.500000000000028
 31
0.0
  0
LINE
  5
297
100
AcDbEntity
  8
0
  6
CONTINUOUS
 62
               7
100
AcDbLine
 10
193.0
 20
-21.500000000000028
 30
0.0
 11
43.999999999999986
 21
-21.500000000000028
 31
0.0
  0
LINE
  5
298
100
AcDbEntity
  8
0
  6
CONTINUOUS
 62
               7
100
AcDbLine
 10
193.0
 20
-4.5000000000000284
 30
0.0
 11
43.999999999999986
 21
-4.5000000000000284
 31
0.0
  0
LINE
  5
299
100
AcDbEntity
  8
0
  6
CENTER
 62
               2
100
AcDbLine
 10
18.499999999999986
 20
-6.0
 30
0.0
 11
31.499999999999986
 21
-6.0
 31
0.0
  0
LINE
  5
29A
100
AcDbEntity
  8
0
  6
CENTER
 62
               2
100
AcDbLine
 10
19.999999999999986
 20
-5.4000000000000057
 30
0.0
 11
29.999999999999986
 21
-5.4000000000000057
 31
0.0
  0
LINE
  5
29B
100
AcDbEntity
  8
0
  6
CENTER
 62
               2
100
AcDbLine
 10
19.999999999999986
 20
-6.5999999999999943
 30
0.0
 11
29.999999999999986
 21
-6.5999999999999943
 31
0.0
  0
LINE
  5
29C
100
AcDbEntity
  8
0
  6
CONTINUOUS
 62
               7
100
AcDbLine
 10
41.999999999999986
 20
-6.5
 30
0.0
 11
43.999999999999986
 21
-6.5
 31
0.0
  0
LINE
  5
29D
100
AcDbEntity
  8
0
  6
CONTINUOUS
 62
               7
100
AcDbLine
 10
41.999999999999986
 20
-5.0
 30
0.0
 11
43.999999999999986
 21
-5.0
 31
0.0
  0
LINE
  5
29E
100
AcDbEntity
  8
0
  6
CONTINUOUS
 62
               7
100
AcDbLine
 10
41.999999999999986
 20
-18.0
 30
0.0
 11
43.999999999999986
 21
-18.0
 31
0.0
  0
LINE
  5
29F
100
AcDbEntity
  8
0
  6
CONTINUOUS
 62
               7
100
AcDbLine
 10
0.0
 20
-40.000000000000028
 30
0.0
 11
19.999999999999986
 21
-40.000000000000028
 31
0.0
  0
LINE
  5
2A0
100
AcDbEntity
  8
0
  6
CONTINUOUS
 62
               7
100
AcDbLine
 10
19.999999999999986
 20
-6.5
 30
0.0
 11
29.999999999999986
 21
-6.5
 31
0.0
  0
LINE
  5
2A1
100
AcDbEntity
  8
0
  6
CONTINUOUS
 62
               7
100
AcDbLine
 10
19.999999999999986
 20
-18.0
 30
0.0
 11
29.999999999999986
 21
-18.0
 31
0.0
  0
LINE
  5
2A2
100
AcDbEntity
  8
0
  6
CONTINUOUS
 62
               7
100
AcDbLine
 10
41.999999999999986
 20
-37.000000000000597
 30
0.0
 11
43.09999999999998
 21
-37.000000000000597
 31
0.0
  0
LINE
  5
2A3
100
AcDbEntity
  8
0
  6
CONTINUOUS
 62
               7
100
AcDbLine
 10
43.09999999999998
 20
-34.000000000000597
 30
0.0
 11
43.999999999999986
 21
-34.000000000000597
 31
0.0
  0
LINE
  5
2A4
100
AcDbEntity
  8
0
  6
CONTINUOUS
 62
               7
100
AcDbLine
 10
43.09999999999998
 20
-28.000000000000597
 30
0.0
 11
43.999999999999986
 21
-28.000000000000597
 31
0.0
  0
LINE
  5
2A5
100
AcDbEntity
  8
0
  6
CONTINUOUS
 62
               7
100
AcDbLine
 10
41.999999999999986
 20
-25.000000000000597
 30
0.0
 11
43.09999999999998
 21
-25.000000000000597
 31
0.0
  0
LINE
  5
2A6
100
AcDbEntity
  8
0
  6
CONTINUOUS
 62
               7
100
AcDbLine
 10
43.09999999999998
 20
-37.000000000000597
 30
0.0
 11
43.09999999999998
 21
-25.000000000000597
 31
0.0
  0
LINE
  5
2A7
100
AcDbEntity
  8
0
  6
CONTINUOUS
 62
               7
100
AcDbLine
 10
29.999999983193447
 20
-40.0
 30
0.0
 11
41.999999999999986
 21
-40.0
 31
0.0
  0
LINE
  5
2A8
100
AcDbEntity
  8
0
  6
CENTER
 62
               2
100
AcDbLine
 10
28.499999999999986
 20
-31.000000000000597
 30
0.0
 11
45.499999999999986
 21
-31.000000000000597
 31
0.0
  0
LINE
  5
2A9
100
AcDbEntity
  8
0
  6
CENTER
 62
               2
100
AcDbLine
 10
71.999999999999986
 20
-14.750000000000028
 30
0.0
 11
71.999999999999986
 21
-5.2500000000000284
 31
0.0
  0
LINE
  5
2AA
100
AcDbEntity
  8
0
  6
CENTER
 62
               2
100
AcDbLine
 10
91.999999999999986
 20
-14.750000000000028
 30
0.0
 11
91.999999999999986
 21
-5.2500000000000284
 31
0.0
  0
CIRCLE
  5
2AB
100
AcDbEntity
  8
0
  6
CONTINUOUS
 62
               7
100
AcDbCircle
 10
91.999999999999986
 20
-10.000000000000028
 30
0.0
 40
2.75
  0
LINE
  5
2AC
100
AcDbEntity
  8
0
  6
CENTER
 62
               2
100
AcDbLine
 10
96.749999999999986
 20
-10.000000000000028
 30
0.0
 11
87.249999999999986
 21
-10.000000000000028
 31
0.0
  0
LINE
  5
2AD
100
AcDbEntity
  8
0
  6
CONTINUOUS
 62
               7
100
AcDbLine
 10
91.278312163512965
 20
-11.250000000000028
 30
0.0
 11
92.721687836487007
 21
-11.250000000000028
 31
0.0
  0
LINE
  5
2AE
100
AcDbEntity
  8
0
  6
CONTINUOUS
 62
               7
100
AcDbLine
 10
90.556624327025929
 20
-10.000000000000028
 30
0.0
 11
91.278312163512965
 21
-11.250000000000028
 31
0.0
  0
LINE
  5
2AF
100
AcDbEntity
  8
0
  6
CONTINUOUS
 62
               7
100
AcDbLine
 10
93.443375672974042
 20
-10.000000000000028
 30
0.0
 11
92.721687836487007
 21
-11.250000000000028
 31
0.0
  0
LINE
  5
2B0
100
AcDbEntity
  8
0
  6
CONTINUOUS
 62
               7
100
AcDbLine
 10
93.443375672974042
 20
-10.000000000000028
 30
0.0
 11
92.721687836487007
 21
-8.7500000000000284
 31
0.0
  0
LINE
  5
2B1
100
AcDbEntity
  8
0
  6
CONTINUOUS
 62
               7
100
AcDbLine
 10
91.278312163512965
 20
-8.7500000000000284
 30
0.0
 11
92.721687836487007
 21
-8.7500000000000284
 31
0.0
  0
LINE
  5
2B2
100
AcDbEntity
  8
0
  6
CONTINUOUS
 62
               7
100
AcDbLine
 10
90.556624327025929
 20
-10.000000000000028
 30
0.0
 11
91.278312163512965
 21
-8.7500000000000284
 31
0.0
  0
CIRCLE
  5
2B3
100
AcDbEntity
  8
0
  6
CONTINUOUS
 62
               7
100
AcDbCircle
 10
91.999999999999986
 20
-10.000000000000028
 30
0.0
 40
3.25
  0
LINE
  5
2B4
100
AcDbEntity
  8
0
  6
CONTINUOUS
 62
               7
100
AcDbLine
 10
70.556624327025929
 20
-10.000000000000028
 30
0.0
 11
71.278312163512965
 21
-8.7500000000000284
 31
0.0
  0
LINE
  5
2B5
100
AcDbEntity
  8
0
  6
CONTINUOUS
 62
               7
100
AcDbLine
 10
71.278312163512965
 20
-8.7500000000000284
 30
0.0
 11
72.721687836487007
 21
-8.7500000000000284
 31
0.0
  0
LINE
  5
2B6
100
AcDbEntity
  8
0
  6
CONTINUOUS
 62
               7
100
AcDbLine
 10
73.443375672974042
 20
-10.000000000000028
 30
0.0
 11
72.721687836487007
 21
-8.7500000000000284
 31
0.0
  0
LINE
  5
2B7
100
AcDbEntity
  8
0
  6
CONTINUOUS
 62
               7
100
AcDbLine
 10
73.443375672974042
 20
-10.000000000000028
 30
0.0
 11
72.721687836487007
 21
-11.250000000000028
 31
0.0
  0
LINE
  5
2B8
100
AcDbEntity
  8
0
  6
CONTINUOUS
 62
               7
100
AcDbLine
 10
70.556624327025929
 20
-10.000000000000028
 30
0.0
 11
71.278312163512965
 21
-11.250000000000028
 31
0.0
  0
LINE
  5
2B9
100
AcDbEntity
  8
0
  6
CONTINUOUS
 62
               7
100
AcDbLine
 10
71.278312163512965
 20
-11.250000000000028
 30
0.0
 11
72.721687836487007
 21
-11.250000000000028
 31
0.0
  0
LINE
  5
2BA
100
AcDbEntity
  8
0
  6
CENTER
 62
               2
100
AcDbLine
 10
76.749999999999986
 20
-10.000000000000028
 30
0.0
 11
67.249999999999986
 21
-10.000000000000028
 31
0.0
  0
CIRCLE
  5
2BB
100
AcDbEntity
  8
0
  6
CONTINUOUS
 62
               7
100
AcDbCircle
 10
71.999999999999986
 20
-10.000000000000028
 30
0.0
 40
2.75
  0
CIRCLE
  5
2BC
100
AcDbEntity
  8
0
  6
CONTINUOUS
 62
               7
100
AcDbCircle
 10
71.999999999999986
 20
-10.000000000000028
 30
0.0
 40
3.25
  0
CIRCLE
  5
2BD
100
AcDbEntity
  8
0
  6
CONTINUOUS
 62
               4
100
AcDbCircle
 10
165.0
 20
-12.000000000000028
 30
0.0
 40
2.2000000000000002
  0
CIRCLE
  5
2BE
100
AcDbEntity
  8
0
  6
CONTINUOUS
 62
             200
100
AcDbCircle
 10
165.0
 20
-12.000000000000028
 30
0.0
 40
3.0
  0
LINE
  5
2BF
100
AcDbEntity
  8
0
  6
CENTER
 62
             200
100
AcDbLine
 10
165.0
 20
-7.5000000000000284
 30
0.0
 11
165.0
 21
-16.500000000000028
 31
0.0
  0
LINE
  5
2C0
100
AcDbEntity
  8
0
  6
CENTER
 62
             200
100
AcDbLine
 10
160.5
 20
-12.000000000000028
 30
0.0
 11
169.5
 21
-12.000000000000028
 31
0.0
  0
CIRCLE
  5
2C1
100
AcDbEntity
  8
0
  6
CONTINUOUS
 62
               7
100
AcDbCircle
 10
109.99999999999999
 20
-12.000000000000028
 30
0.0
 40
2.2000000000000002
  0
CIRCLE
  5
2C2
100
AcDbEntity
  8
0
  6
CONTINUOUS
 62
               2
100
AcDbCircle
 10
109.99999999999999
 20
-12.000000000000028
 30
0.0
 40
3.0
  0
LINE
  5
2C3
100
AcDbEntity
  8
0
  6
CENTER
 62
               2
100
AcDbLine
 10
109.99999999999999
 20
-7.5000000000000284
 30
0.0
 11
109.99999999999999
 21
-16.500000000000028
 31
0.0
  0
LINE
  5
2C4
100
AcDbEntity
  8
0
  6
CENTER
 62
               2
100
AcDbLine
 10
105.49999999999999
 20
-12.000000000000028
 30
0.0
 11
114.49999999999999
 21
-12.000000000000028
 31
0.0
  0
LINE
  5
2C5
100
AcDbEntity
  8
0
  6
CENTER
 62
               2
100
AcDbLine
 10
54.999999999999986
 20
-7.5000000000000284
 30
0.0
 11
54.999999999999986
 21
-16.500000000000028
 31
0.0
  0
LINE
  5
2C6
100
AcDbEntity
  8
0
  6
CENTER
 62
               2
100
AcDbLine
 10
50.499999999999986
 20
-12.000000000000028
 30
0.0
 11
59.499999999999986
 21
-12.000000000000028
 31
0.0
  0
CIRCLE
  5
2C7
100
AcDbEntity
  8
0
  6
CONTINUOUS
 62
               2
100
AcDbCircle
 10
54.999999999999986
 20
-12.000000000000028
 30
0.0
 40
3.0
  0
CIRCLE
  5
2C8
100
AcDbEntity
  8
0
  6
CONTINUOUS
 62
               7
100
AcDbCircle
 10
54.999999999999986
 20
-12.000000000000028
 30
0.0
 40
2.2000000000000002
  0
ENDBLK
  5
2C9
100
AcDbEntity
  8
0
100
AcDbBlockEnd
  0
BLOCK
  5
2CA
100
AcDbEntity
  8
0
100
AcDbBlockBegin
  2
ZSG20-8
 70
               0
 10
0.0
 20
0.0
 30
0.0
  3
ZSG20-8
  1

  0
LINE
  5
2CB
100
AcDbEntity
  8
0
  6
CONTINUOUS
 62
               4
100
AcDbLine
 10
27.25
 20
-3.5999999999999943
 30
0.0
 11
30.5
 21
-3.5999999999999943
 31
0.0
  0
LINE
  5
2CC
100
AcDbEntity
  8
0
  6
CONTINUOUS
 62
               4
100
AcDbLine
 10
25.75
 20
-1.0
 30
0.0
 11
30.5
 21
-1.0
 31
0.0
  0
LINE
  5
2CD
100
AcDbEntity
  8
0
  6
CONTINUOUS
 62
               4
100
AcDbLine
 10
22.0
 20
-3.5999999999999943
 30
0.0
 11
25.75
 21
-3.5999999999999943
 31
0.0
  0
LINE
  5
2CE
100
AcDbEntity
  8
0
  6
CONTINUOUS
 62
               4
100
AcDbLine
 10
22.0
 20
-1.0
 30
0.0
 11
24.25
 21
-1.0
 31
0.0
  0
LINE
  5
2CF
100
AcDbEntity
  8
0
  6
CONTINUOUS
 62
               4
100
AcDbLine
 10
0.0
 20
-0.4500000000000028
 30
0.0
 11
22.0
 21
-0.4500000000000028
 31
0.0
  0
LINE
  5
2D0
100
AcDbEntity
  8
0
  6
CONTINUOUS
 62
               4
100
AcDbLine
 10
0.0
 20
-1.0
 30
0.0
 11
22.0
 21
-1.0
 31
0.0
  0
LINE
  5
2D1
100
AcDbEntity
  8
0
  6
CONTINUOUS
 62
               4
100
AcDbLine
 10
0.75
 20
0.5
 30
0.0
 11
3.25
 21
0.5
 31
0.0
  0
LINE
  5
2D2
100
AcDbEntity
  8
0
  6
CONTINUOUS
 62
               4
100
AcDbLine
 10
3.25
 20
0.5
 30
0.0
 11
3.25
 21
0.0
 31
0.0
  0
LINE
  5
2D3
100
AcDbEntity
  8
0
  6
CONTINUOUS
 62
             200
100
AcDbLine
 10
3.0200000000000387
 20
0.5
 30
0.0
 11
3.0200000000000387
 21
0.0
 31
0.0
  0
LINE
  5
2D4
100
AcDbEntity
  8
0
  6
CONTINUOUS
 62
             200
100
AcDbLine
 10
0.9700000000000273
 20
0.5
 30
0.0
 11
0.9700000000000273
 21
0.0
 31
0.0
  0
LINE
  5
2D5
100
AcDbEntity
  8
0
  6
CONTINUOUS
 62
               4
100
AcDbLine
 10
0.75
 20
0.5
 30
0.0
 11
0.75
 21
0.0
 31
0.0
  0
LINE
  5
2D6
100
AcDbEntity
  8
0
  6
CONTINUOUS
 62
               4
100
AcDbLine
 10
0.75
 20
-3.769999999999996
 30
0.0
 11
3.25
 21
-3.769999999999996
 31
0.0
  0
LINE
  5
2D7
100
AcDbEntity
  8
0
  6
CONTINUOUS
 62
               4
100
AcDbLine
 10
3.25
 20
-2.5900000000000034
 30
0.0
 11
3.25
 21
-3.769999999999996
 31
0.0
  0
LINE
  5
2D8
100
AcDbEntity
  8
0
  6
CONTINUOUS
 62
             200
100
AcDbLine
 10
3.0200000000000387
 20
-2.5900000000000034
 30
0.0
 11
3.0200000000000387
 21
-4.0
 31
0.0
  0
LINE
  5
2D9
100
AcDbEntity
  8
0
  6
CONTINUOUS
 62
             200
100
AcDbLine
 10
0.9700000000000273
 20
-2.5900000000000034
 30
0.0
 11
0.9700000000000273
 21
-4.0
 31
0.0
  0
LINE
  5
2DA
100
AcDbEntity
  8
0
  6
CONTINUOUS
 62
               4
100
AcDbLine
 10
0.75
 20
-2.5900000000000034
 30
0.0
 11
0.75
 21
-3.769999999999996
 31
0.0
  0
LINE
  5
2DB
100
AcDbEntity
  8
0
  6
CONTINUOUS
 62
               4
100
AcDbLine
 10
0.9700000000000273
 20
-4.0
 30
0.0
 11
0.75
 21
-3.769999999999996
 31
0.0
  0
LINE
  5
2DC
100
AcDbEntity
  8
0
  6
CONTINUOUS
 62
               4
100
AcDbLine
 10
3.0200000000000387
 20
-4.0
 30
0.0
 11
3.25
 21
-3.769999999999996
 31
0.0
  0
LINE
  5
2DD
100
AcDbEntity
  8
0
  6
CONTINUOUS
 62
               4
100
AcDbLine
 10
0.9700000000000273
 20
-4.0
 30
0.0
 11
3.0200000000000387
 21
-4.0
 31
0.0
  0
LINE
  5
2DE
100
AcDbEntity
  8
0
  6
CONTINUOUS
 62
             200
100
AcDbLine
 10
23.75
 20
-0.1299999999999955
 30
0.0
 11
26.25
 21
-4.4599999999999937
 31
0.0
  0
LINE
  5
2DF
100
AcDbEntity
  8
0
  6
CONTINUOUS
 62
             200
100
AcDbLine
 10
25.25
 20
-0.1299999999999955
 30
0.0
 11
27.75
 21
-4.4599999999999937
 31
0.0
  0
LINE
  5
2E0
100
AcDbEntity
  8
0
  6
CONTINUOUS
 62
             200
100
AcDbLine
 10
32.730000000000018
 20
-0.1299999999999955
 30
0.0
 11
35.230000000000018
 21
-4.4599999999999937
 31
0.0
  0
LINE
  5
2E1
100
AcDbEntity
  8
0
  6
CENTER
 62
             200
100
AcDbLine
 10
20.680000000000064
 20
-2.2999999999999972
 30
0.0
 11
30.5
 21
-2.2999999999999972
 31
0.0
  0
LINE
  5
2E2
100
AcDbEntity
  8
0
  6
CONTINUOUS
 62
             200
100
AcDbLine
 10
34.230000000000018
 20
-0.1299999999999955
 30
0.0
 11
36.730000000000018
 21
-4.4599999999999937
 31
0.0
  0
LINE
  5
2E3
100
AcDbEntity
  8
0
  6
CONTINUOUS
 62
               4
100
AcDbLine
 10
34.960000000000036
 20
-1.4000000000000057
 30
0.0
 11
37.5
 21
-1.4000000000000057
 31
0.0
  0
LINE
  5
2E4
100
AcDbEntity
  8
0
  6
CONTINUOUS
 62
               4
100
AcDbLine
 10
30.5
 20
-1.4000000000000057
 30
0.0
 11
33.460000000000036
 21
-1.4000000000000057
 31
0.0
  0
LINE
  5
2E5
100
AcDbEntity
  8
0
  6
CONTINUOUS
 62
               4
100
AcDbLine
 10
36.0
 20
-3.2000000000000028
 30
0.0
 11
37.5
 21
-3.2000000000000028
 31
0.0
  0
LINE
  5
2E6
100
AcDbEntity
  8
0
  6
CONTINUOUS
 62
               4
100
AcDbLine
 10
35.480000000000018
 20
-2.2999999999999972
 30
0.0
 11
37.5
 21
-2.2999999999999972
 31
0.0
  0
LINE
  5
2E7
100
AcDbEntity
  8
0
  6
CONTINUOUS
 62
               4
100
AcDbLine
 10
30.5
 20
-2.2999999999999972
 30
0.0
 11
33.980000000000018
 21
-2.2999999999999972
 31
0.0
  0
LINE
  5
2E8
100
AcDbEntity
  8
0
  6
CONTINUOUS
 62
               4
100
AcDbLine
 10
30.5
 20
-3.2000000000000028
 30
0.0
 11
34.5
 21
-3.2000000000000028
 31
0.0
  0
LINE
  5
2E9
100
AcDbEntity
  8
0
  6
CONTINUOUS
 62
               4
100
AcDbLine
 10
37.5
 20
-1.4000000000000057
 30
0.0
 11
37.5
 21
-3.2000000000000028
 31
0.0
  0
LINE
  5
2EA
100
AcDbEntity
  8
0
  6
CONTINUOUS
 62
               4
100
AcDbLine
 10
30.5
 20
-1.0
 30
0.0
 11
30.5
 21
-3.5999999999999943
 31
0.0
  0
LINE
  5
2EB
100
AcDbEntity
  8
0
  6
CONTINUOUS
 62
               4
100
AcDbLine
 10
4.25
 20
-3.0400000000000063
 30
0.0
 11
4.7000000000000455
 21
-3.0400000000000063
 31
0.0
  0
LINE
  5
2EC
100
AcDbEntity
  8
0
  6
CONTINUOUS
 62
               4
100
AcDbLine
 10
4.2000000000000455
 20
-3.7999999999999972
 30
0.0
 11
4.7000000000000455
 21
-3.7999999999999972
 31
0.0
  0
LINE
  5
2ED
100
AcDbEntity
  8
0
  6
CONTINUOUS
 62
               4
100
AcDbLine
 10
4.2000000000000455
 20
-1.7999999999999972
 30
0.0
 11
4.2000000000000455
 21
-3.7999999999999972
 31
0.0
  0
LINE
  5
2EE
100
AcDbEntity
  8
0
  6
CONTINUOUS
 62
               4
100
AcDbLine
 10
0.0
 20
-2.5999999999999943
 30
0.0
 11
4.0
 21
-2.5999999999999943
 31
0.0
  0
LINE
  5
2EF
100
AcDbEntity
  8
0
  6
CONTINUOUS
 62
               4
100
AcDbLine
 10
0.0
 20
-1.7999999999999972
 30
0.0
 11
0.0
 21
-2.5999999999999943
 31
0.0
  0
LINE
  5
2F0
100
AcDbEntity
  8
0
  6
CONTINUOUS
 62
               4
100
AcDbLine
 10
4.0
 20
-1.7999999999999972
 30
0.0
 11
4.0
 21
-2.5999999999999943
 31
0.0
  0
LINE
  5
2F1
100
AcDbEntity
  8
0
  6
CONTINUOUS
 62
               4
100
AcDbLine
 10
4.25
 20
-1.7999999999999972
 30
0.0
 11
4.25
 21
-3.0400000000000063
 31
0.0
  0
LINE
  5
2F2
100
AcDbEntity
  8
0
  6
CENTER
 62
             200
100
AcDbLine
 10
2.0
 20
0.7999999999999972
 30
0.0
 11
2.0
 21
-5.4300000000000068
 31
0.0
  0
LINE
  5
2F3
100
AcDbEntity
  8
0
  6
CONTINUOUS
 62
               4
100
AcDbLine
 10
0.0
 20
-1.7999999999999972
 30
0.0
 11
4.25
 21
-1.7999999999999972
 31
0.0
  0
LINE
  5
2F4
100
AcDbEntity
  8
0
  6
CONTINUOUS
 62
               4
100
AcDbLine
 10
4.7000000000000455
 20
-3.0400000000000063
 30
0.0
 11
4.7000000000000455
 21
-4.5999999999999943
 31
0.0
  0
LINE
  5
2F5
100
AcDbEntity
  8
0
  6
CONTINUOUS
 62
               4
100
AcDbLine
 10
0.0
 20
-1.7999999999999972
 30
0.0
 11
0.0
 21
0.0
 31
0.0
  0
LINE
  5
2F6
100
AcDbEntity
  8
0
  6
CONTINUOUS
 62
               4
100
AcDbLine
 10
22.0
 20
0.0
 30
0.0
 11
22.0
 21
-4.5999999999999943
 31
0.0
  0
LINE
  5
2F7
100
AcDbEntity
  8
0
  6
CONTINUOUS
 62
               4
100
AcDbLine
 10
4.7000000000000455
 20
-4.5999999999999943
 30
0.0
 11
22.0
 21
-4.5999999999999943
 31
0.0
  0
LINE
  5
2F8
100
AcDbEntity
  8
0
  6
CONTINUOUS
 62
               4
100
AcDbLine
 10
0.0
 20
0.0
 30
0.0
 11
22.0
 21
0.0
 31
0.0
  0
LINE
  5
2F9
100
AcDbEntity
  8
0
  6
CENTER
 62
             200
100
AcDbLine
 10
28.769999999999982
 20
-1.8499999999999943
 30
0.0
 11
40.700000000000045
 21
-1.8499999999999943
 31
0.0
  0
LINE
  5
2FA
100
AcDbEntity
  8
0
  6
CENTER
 62
             200
100
AcDbLine
 10
28.82000000000005
 20
-2.75
 30
0.0
 11
40.75
 21
-2.75
 31
0.0
  0
LINE
  5
2FB
100
AcDbEntity
  8
0
  6
CONTINUOUS
 62
               4
100
AcDbLine
 10
37.5
 20
-1.5999999999999943
 30
0.0
 11
40.5
 21
-1.5999999999999943
 31
0.0
  0
LINE
  5
2FC
100
AcDbEntity
  8
0
  6
CONTINUOUS
 62
               4
100
AcDbLine
 10
37.5
 20
-2.0999999999999943
 30
0.0
 11
40.5
 21
-2.0999999999999943
 31
0.0
  0
LINE
  5
2FD
100
AcDbEntity
  8
0
  6
CONTINUOUS
 62
               4
100
AcDbLine
 10
37.5
 20
-2.5
 30
0.0
 11
40.5
 21
-2.5
 31
0.0
  0
LINE
  5
2FE
100
AcDbEntity
  8
0
  6
CONTINUOUS
 62
               4
100
AcDbLine
 10
37.5
 20
-3.0
 30
0.0
 11
40.5
 21
-3.0
 31
0.0
  0
ENDBLK
  5
2FF
100
AcDbEntity
  8
0
100
AcDbBlockEnd
  0
BLOCK
  5
300
100
AcDbEntity
  8
0
100
AcDbBlockBegin
  2
ZSG20-9
 70
               0
 10
0.0
 20
0.0
 30
0.0
  3
ZSG20-9
  1

  0
LINE
  5
301
100
AcDbEntity
  8
0
  6
CONTINUOUS
 62
               4
100
AcDbLine
 10
-1.25
 20
0.5
 30
0.0
 11
1.25
 21
0.5
 31
0.0
  0
LINE
  5
302
100
AcDbEntity
  8
0
  6
CONTINUOUS
 62
               4
100
AcDbLine
 10
1.25
 20
0.5
 30
0.0
 11
1.25
 21
0.0
 31
0.0
  0
LINE
  5
303
100
AcDbEntity
  8
0
  6
CONTINUOUS
 62
             200
100
AcDbLine
 10
1.0199999999999818
 20
0.5
 30
0.0
 11
1.0199999999999818
 21
0.0
 31
0.0
  0
LINE
  5
304
100
AcDbEntity
  8
0
  6
CONTINUOUS
 62
             200
100
AcDbLine
 10
-1.0199999999999818
 20
0.5
 30
0.0
 11
-1.0199999999999818
 21
0.0
 31
0.0
  0
LINE
  5
305
100
AcDbEntity
  8
0
  6
CONTINUOUS
 62
               4
100
AcDbLine
 10
-1.25
 20
0.5
 30
0.0
 11
-1.25
 21
0.0
 31
0.0
  0
LINE
  5
306
100
AcDbEntity
  8
0
  6
CONTINUOUS
 62
               4
100
AcDbLine
 10
-1.25
 20
-3.769999999999996
 30
0.0
 11
1.25
 21
-3.769999999999996
 31
0.0
  0
LINE
  5
307
100
AcDbEntity
  8
0
  6
CONTINUOUS
 62
               4
100
AcDbLine
 10
1.25
 20
-2.5900000000000034
 30
0.0
 11
1.25
 21
-3.769999999999996
 31
0.0
  0
LINE
  5
308
100
AcDbEntity
  8
0
  6
CONTINUOUS
 62
             200
100
AcDbLine
 10
1.0199999999999818
 20
-2.5900000000000034
 30
0.0
 11
1.0199999999999818
 21
-4.0
 31
0.0
  0
LINE
  5
309
100
AcDbEntity
  8
0
  6
CONTINUOUS
 62
             200
100
AcDbLine
 10
-1.0199999999999818
 20
-2.5900000000000034
 30
0.0
 11
-1.0199999999999818
 21
-4.0
 31
0.0
  0
LINE
  5
30A
100
AcDbEntity
  8
0
  6
CONTINUOUS
 62
               4
100
AcDbLine
 10
-1.25
 20
-2.5900000000000034
 30
0.0
 11
-1.25
 21
-3.769999999999996
 31
0.0
  0
LINE
  5
30B
100
AcDbEntity
  8
0
  6
CONTINUOUS
 62
               4
100
AcDbLine
 10
-1.0199999999999818
 20
-4.0
 30
0.0
 11
-1.25
 21
-3.769999999999996
 31
0.0
  0
LINE
  5
30C
100
AcDbEntity
  8
0
  6
CONTINUOUS
 62
               4
100
AcDbLine
 10
1.0199999999999818
 20
-4.0
 30
0.0
 11
1.25
 21
-3.769999999999996
 31
0.0
  0
LINE
  5
30D
100
AcDbEntity
  8
0
  6
CONTINUOUS
 62
               4
100
AcDbLine
 10
-1.0199999999999818
 20
-4.0
 30
0.0
 11
1.0199999999999818
 21
-4.0
 31
0.0
  0
LINE
  5
30E
100
AcDbEntity
  8
0
  6
CONTINUOUS
 62
               4
100
AcDbLine
 10
-2.0496097189465119
 20
-2.5900000000000034
 30
0.0
 11
2.0496097189465114
 21
-2.5900000000000034
 31
0.0
  0
LINE
  5
30F
100
AcDbEntity
  8
0
  6
CONTINUOUS
 62
               4
100
AcDbLine
 10
-2.0499999999999545
 20
-1.7999999999999972
 30
0.0
 11
2.0500000000000682
 21
-1.7999999999999972
 31
0.0
  0
LINE
  5
310
100
AcDbEntity
  8
0
  6
CONTINUOUS
 62
               4
100
AcDbLine
 10
2.0500000000000682
 20
-1.0
 30
0.0
 11
2.0500000000000682
 21
-2.5499999999999972
 31
0.0
  0
LINE
  5
311
100
AcDbEntity
  8
0
  6
CONTINUOUS
 62
               4
100
AcDbLine
 10
2.0500000000000682
 20
-1.0
 30
0.0
 11
1.5
 21
-0.4500000000000028
 31
0.0
  0
LINE
  5
312
100
AcDbEntity
  8
0
  6
CONTINUOUS
 62
               4
100
AcDbLine
 10
1.5
 20
0.0
 30
0.0
 11
1.5
 21
-0.4500000000000028
 31
0.0
  0
LINE
  5
313
100
AcDbEntity
  8
0
  6
CONTINUOUS
 62
               4
100
AcDbLine
 10
-1.5
 20
0.0
 30
0.0
 11
1.5
 21
0.0
 31
0.0
  0
LINE
  5
314
100
AcDbEntity
  8
0
  6
CONTINUOUS
 62
               4
100
AcDbLine
 10
-1.5
 20
0.0
 30
0.0
 11
-1.5
 21
-0.4500000000000028
 31
0.0
  0
LINE
  5
315
100
AcDbEntity
  8
0
  6
CONTINUOUS
 62
               4
100
AcDbLine
 10
-2.0499999999999545
 20
-1.0
 30
0.0
 11
-1.5
 21
-0.4500000000000028
 31
0.0
  0
LINE
  5
316
100
AcDbEntity
  8
0
  6
CONTINUOUS
 62
               4
100
AcDbLine
 10
-2.0499999999999545
 20
-1.0
 30
0.0
 11
-2.0499999999999545
 21
-2.5499999999999972
 31
0.0
  0
LINE
  5
317
100
AcDbEntity
  8
0
  6
CENTER
 62
             200
100
AcDbLine
 10
0.0
 20
2.0499999999999972
 30
0.0
 11
0.0
 21
-6.6599999999999966
 31
0.0
  0
ARC
  5
318
100
AcDbEntity
  8
0
  6
CONTINUOUS
 62
               4
100
AcDbCircle
 10
0.0
 20
-2.5499999999999998
 30
0.0
 40
2.0499999999999998
100
AcDbArc
 50
179.99999999999952
 51
0.0000000000001018
  0
ENDBLK
  5
319
100
AcDbEntity
  8
0
100
AcDbBlockEnd
  0
BLOCK
  5
31A
100
AcDbEntity
  8
0
100
AcDbBlockBegin
  2
ZSG20-10
 70
               0
 10
0.0
 20
0.0
 30
0.0
  3
ZSG20-10
  1

  0
CIRCLE
  5
31B
100
AcDbEntity
  8
0
  6
CONTINUOUS
 62
               4
100
AcDbCircle
 10
2.0000152587890625
 20
0.0
 30
0.0
 40
1.3999996185302734
  0
CIRCLE
  5
31C
100
AcDbEntity
  8
0
  6
CONTINUOUS
 62
               4
100
AcDbCircle
 10
2.0000152587890625
 20
0.0
 30
0.0
 40
1.25
  0
LINE
  5
31D
100
AcDbEntity
  8
0
  6
CONTINUOUS
 62
               4
100
AcDbLine
 10
22.0
 20
-1.2999999999999972
 30
0.0
 11
25.090000000000032
 21
-1.2999999999999972
 31
0.0
  0
LINE
  5
31E
100
AcDbEntity
  8
0
  6
CONTINUOUS
 62
               4
100
AcDbLine
 10
22.0
 20
1.2999999999999972
 30
0.0
 11
23.580000000000041
 21
1.2999999999999972
 31
0.0
  0
LINE
  5
31F
100
AcDbEntity
  8
0
  6
CONTINUOUS
 62
             200
100
AcDbLine
 10
23.080000000000041
 20
2.1599999999999966
 30
0.0
 11
25.580000000000041
 21
-2.1599999999999966
 31
0.0
  0
LINE
  5
320
100
AcDbEntity
  8
0
  6
CONTINUOUS
 62
               4
100
AcDbLine
 10
1.3000000000000682
 20
-1.0600000000000023
 30
0.0
 11
2.9400000000000546
 21
0.5600000000000023
 31
0.0
  0
LINE
  5
321
100
AcDbEntity
  8
0
  6
CONTINUOUS
 62
               4
100
AcDbLine
 10
0.9500000000000455
 20
-0.710000000000008
 30
0.0
 11
2.6800000000000637
 21
1.0200000000000102
 31
0.0
  0
LINE
  5
322
100
AcDbEntity
  8
0
  6
CENTER
 62
             200
100
AcDbLine
 10
2.0
 20
2.8299999999999983
 30
0.0
 11
2.0
 21
-2.75
 31
0.0
  0
LINE
  5
323
100
AcDbEntity
  8
0
  6
CONTINUOUS
 62
               4
100
AcDbLine
 10
22.0
 20
2.0499999999999972
 30
0.0
 11
22.0
 21
-2.0499999999999972
 31
0.0
  0
LINE
  5
324
100
AcDbEntity
  8
0
  6
CONTINUOUS
 62
               4
100
AcDbLine
 10
0.0
 20
2.0499999999999972
 30
0.0
 11
0.0
 21
-2.0499999999999972
 31
0.0
  0
LINE
  5
325
100
AcDbEntity
  8
0
  6
CONTINUOUS
 62
               4
100
AcDbLine
 10
0.0
 20
2.0499999999999972
 30
0.0
 11
22.0
 21
2.0499999999999972
 31
0.0
  0
LINE
  5
326
100
AcDbEntity
  8
0
  6
CONTINUOUS
 62
               4
100
AcDbLine
 10
0.0
 20
-2.0499999999999972
 30
0.0
 11
22.0
 21
-2.0499999999999972
 31
0.0
  0
LINE
  5
327
100
AcDbEntity
  8
0
  6
CONTINUOUS
 62
               4
100
AcDbLine
 10
0.0
 20
1.5
 30
0.0
 11
22.0
 21
1.5
 31
0.0
  0
LINE
  5
328
100
AcDbEntity
  8
0
  6
CONTINUOUS
 62
               4
100
AcDbLine
 10
0.0
 20
-1.5
 30
0.0
 11
22.0
 21
-1.5
 31
0.0
  0
LINE
  5
329
100
AcDbEntity
  8
0
  6
CENTER
 62
             200
100
AcDbLine
 10
-2.7999999999999545
 20
0.0
 30
0.0
 11
27.400000000000034
 21
0.0
 31
0.0
  0
ENDBLK
  5
32A
100
AcDbEntity
  8
0
100
AcDbBlockEnd
  0
BLOCK
  5
32B
100
AcDbEntity
  8
0
100
AcDbBlockBegin
  2
ZSG20-11
 70
               0
 10
0.0
 20
0.0
 30
0.0
  3
ZSG20-11
  1

  0
LINE
  5
32C
100
AcDbEntity
  8
0
  6
CONTINUOUS
 62
               4
100
AcDbLine
 10
20.700000000000045
 20
12.150000000000006
 30
0.0
 11
20.700000000000045
 21
15.399999999999977
 31
0.0
  0
LINE
  5
32D
100
AcDbEntity
  8
0
  6
CONTINUOUS
 62
               4
100
AcDbLine
 10
18.100000000000023
 20
10.649999999999977
 30
0.0
 11
18.10000000000008
 21
15.399999999999977
 31
0.0
  0
LINE
  5
32E
100
AcDbEntity
  8
0
  6
CONTINUOUS
 62
               4
100
AcDbLine
 10
18.100000000000023
 20
6.9000000000000057
 30
0.0
 11
18.10000000000008
 21
9.1499999999999773
 31
0.0
  0
LINE
  5
32F
100
AcDbEntity
  8
0
  6
CONTINUOUS
 62
               4
100
AcDbLine
 10
20.699999999999989
 20
6.9000000000000057
 30
0.0
 11
20.699999999999989
 21
10.650000000000006
 31
0.0
  0
LINE
  5
330
100
AcDbEntity
  8
0
  6
CONTINUOUS
 62
               4
100
AcDbLine
 10
0.7500000000000568
 20
0.4999999999999716
 30
0.0
 11
3.25
 21
0.4999999999999716
 31
0.0
  0
LINE
  5
331
100
AcDbEntity
  8
0
  6
CONTINUOUS
 62
               4
100
AcDbLine
 10
3.25
 20
0.4999999999999716
 30
0.0
 11
3.2500000000000568
 21
0.0
 31
0.0
  0
LINE
  5
332
100
AcDbEntity
  8
0
  6
CONTINUOUS
 62
             200
100
AcDbLine
 10
3.0199999999999818
 20
0.5
 30
0.0
 11
3.0199999999999818
 21
-0.0000000000000284
 31
0.0
  0
LINE
  5
333
100
AcDbEntity
  8
0
  6
CONTINUOUS
 62
             200
100
AcDbLine
 10
0.9700000000000273
 20
0.5
 30
0.0
 11
0.9700000000000841
 21
-0.0000000000000284
 31
0.0
  0
LINE
  5
334
100
AcDbEntity
  8
0
  6
CONTINUOUS
 62
               4
100
AcDbLine
 10
0.7500000000000568
 20
0.4999999999999716
 30
0.0
 11
0.7500000000000568
 21
0.0
 31
0.0
  0
LINE
  5
335
100
AcDbEntity
  8
0
  6
CONTINUOUS
 62
               4
100
AcDbLine
 10
0.75
 20
-3.7700000000000102
 30
0.0
 11
3.2500000000000568
 21
-3.7700000000000102
 31
0.0
  0
LINE
  5
336
100
AcDbEntity
  8
0
  6
CONTINUOUS
 62
               4
100
AcDbLine
 10
3.25
 20
-2.6000000000000227
 30
0.0
 11
3.2500000000000568
 21
-3.7700000000000102
 31
0.0
  0
LINE
  5
337
100
AcDbEntity
  8
0
  6
CONTINUOUS
 62
             200
100
AcDbLine
 10
3.0200000000000387
 20
-2.6000000000000227
 30
0.0
 11
3.0200000000000387
 21
-4.0
 31
0.0
  0
LINE
  5
338
100
AcDbEntity
  8
0
  6
CONTINUOUS
 62
             200
100
AcDbLine
 10
0.9700000000000841
 20
-2.6000000000000227
 30
0.0
 11
0.9700000000000273
 21
-4.0
 31
0.0
  0
LINE
  5
339
100
AcDbEntity
  8
0
  6
CONTINUOUS
 62
               4
100
AcDbLine
 10
0.75
 20
-2.6000000000000227
 30
0.0
 11
0.75
 21
-3.7700000000000102
 31
0.0
  0
LINE
  5
33A
100
AcDbEntity
  8
0
  6
CONTINUOUS
 62
               4
100
AcDbLine
 10
0.9700000000000273
 20
-4.0
 30
0.0
 11
0.75
 21
-3.7700000000000102
 31
0.0
  0
LINE
  5
33B
100
AcDbEntity
  8
0
  6
CONTINUOUS
 62
               4
100
AcDbLine
 10
3.0200000000000387
 20
-4.0
 30
0.0
 11
3.2500000000000568
 21
-3.7700000000000102
 31
0.0
  0
LINE
  5
33C
100
AcDbEntity
  8
0
  6
CONTINUOUS
 62
               4
100
AcDbLine
 10
0.9700000000000273
 20
-4.0
 30
0.0
 11
3.0200000000000387
 21
-4.0
 31
0.0
  0
LINE
  5
33D
100
AcDbEntity
  8
0
  6
CONTINUOUS
 62
             200
100
AcDbLine
 10
17.240000000000009
 20
8.6500000000000057
 30
0.0
 11
21.57000000000005
 21
11.149999999999977
 31
0.0
  0
LINE
  5
33E
100
AcDbEntity
  8
0
  6
CONTINUOUS
 62
             200
100
AcDbLine
 10
17.240000000000066
 20
10.150000000000006
 30
0.0
 11
21.569999999999993
 21
12.649999999999977
 31
0.0
  0
LINE
  5
33F
100
AcDbEntity
  8
0
  6
CONTINUOUS
 62
             200
100
AcDbLine
 10
17.240000000000066
 20
17.629999999999967
 30
0.0
 11
21.57000000000005
 21
20.129999999999995
 31
0.0
  0
LINE
  5
340
100
AcDbEntity
  8
0
  6
CENTER
 62
             200
100
AcDbLine
 10
19.400000000000091
 20
5.5799999999999841
 30
0.0
 11
19.400000000000091
 21
15.399999999999977
 31
0.0
  0
LINE
  5
341
100
AcDbEntity
  8
0
  6
CONTINUOUS
 62
             200
100
AcDbLine
 10
17.240000000000009
 20
19.129999999999967
 30
0.0
 11
21.57000000000005
 21
21.629999999999995
 31
0.0
  0
LINE
  5
342
100
AcDbEntity
  8
0
  6
CONTINUOUS
 62
               4
100
AcDbLine
 10
20.100000000000023
 20
22.400000000000006
 30
0.0
 11
20.100000000000023
 21
25.400000000000006
 31
0.0
  0
LINE
  5
343
100
AcDbEntity
  8
0
  6
CONTINUOUS
 62
               4
100
AcDbLine
 10
19.60000000000008
 20
22.399999999999977
 30
0.0
 11
19.60000000000008
 21
25.399999999999977
 31
0.0
  0
LINE
  5
344
100
AcDbEntity
  8
0
  6
CONTINUOUS
 62
               4
100
AcDbLine
 10
19.200000000000045
 20
22.399999999999977
 30
0.0
 11
19.200000000000045
 21
25.399999999999977
 31
0.0
  0
LINE
  5
345
100
AcDbEntity
  8
0
  6
CONTINUOUS
 62
               4
100
AcDbLine
 10
18.699999999999989
 20
22.399999999999977
 30
0.0
 11
18.700000000000045
 21
25.399999999999977
 31
0.0
  0
LINE
  5
346
100
AcDbEntity
  8
0
  6
CONTINUOUS
 62
               4
100
AcDbLine
 10
18.500000000000057
 20
19.859999999999957
 30
0.0
 11
18.500000000000057
 21
22.400000000000006
 31
0.0
  0
LINE
  5
347
100
AcDbEntity
  8
0
  6
CONTINUOUS
 62
               4
100
AcDbLine
 10
18.500000000000057
 20
15.400000000000006
 30
0.0
 11
18.500000000000057
 21
18.359999999999957
 31
0.0
  0
LINE
  5
348
100
AcDbEntity
  8
0
  6
CONTINUOUS
 62
               4
100
AcDbLine
 10
20.300000000000011
 20
20.900000000000006
 30
0.0
 11
20.300000000000068
 21
22.400000000000006
 31
0.0
  0
LINE
  5
349
100
AcDbEntity
  8
0
  6
CONTINUOUS
 62
               4
100
AcDbLine
 10
19.400000000000091
 20
20.379999999999967
 30
0.0
 11
19.400000000000091
 21
22.400000000000006
 31
0.0
  0
LINE
  5
34A
100
AcDbEntity
  8
0
  6
CONTINUOUS
 62
               4
100
AcDbLine
 10
19.400000000000091
 20
15.399999999999977
 30
0.0
 11
19.400000000000091
 21
18.879999999999967
 31
0.0
  0
LINE
  5
34B
100
AcDbEntity
  8
0
  6
CONTINUOUS
 62
               4
100
AcDbLine
 10
20.300000000000068
 20
15.400000000000006
 30
0.0
 11
20.300000000000068
 21
19.400000000000006
 31
0.0
  0
LINE
  5
34C
100
AcDbEntity
  8
0
  6
CONTINUOUS
 62
               4
100
AcDbLine
 10
18.500000000000057
 20
22.400000000000006
 30
0.0
 11
20.300000000000068
 21
22.400000000000006
 31
0.0
  0
LINE
  5
34D
100
AcDbEntity
  8
0
  6
CONTINUOUS
 62
               4
100
AcDbLine
 10
19.60000000000008
 20
25.399999999999977
 30
0.0
 11
20.100000000000023
 21
25.400000000000006
 31
0.0
  0
LINE
  5
34E
100
AcDbEntity
  8
0
  6
CONTINUOUS
 62
               4
100
AcDbLine
 10
18.700000000000045
 20
25.399999999999977
 30
0.0
 11
19.200000000000045
 21
25.399999999999977
 31
0.0
  0
LINE
  5
34F
100
AcDbEntity
  8
0
  6
CENTER
 62
             200
100
AcDbLine
 10
19.850000000000023
 20
13.71999999999997
 30
0.0
 11
19.85000000000008
 21
25.650000000000006
 31
0.0
  0
LINE
  5
350
100
AcDbEntity
  8
0
  6
CENTER
 62
             200
100
AcDbLine
 10
18.949999999999989
 20
13.669999999999987
 30
0.0
 11
18.950000000000045
 21
25.599999999999994
 31
0.0
  0
LINE
  5
351
100
AcDbEntity
  8
0
  6
CONTINUOUS
 62
               4
100
AcDbLine
 10
18.10000000000008
 20
15.399999999999977
 30
0.0
 11
20.700000000000045
 21
15.399999999999977
 31
0.0
  0
LINE
  5
352
100
AcDbEntity
  8
0
  6
CONTINUOUS
 62
               4
100
AcDbLine
 10
16.10000000000008
 20
5.3999999999999773
 30
0.0
 11
22.0
 21
5.3999999999999773
 31
0.0
  0
LINE
  5
353
100
AcDbEntity
  8
0
  6
CONTINUOUS
 62
               4
100
AcDbLine
 10
16.100000000000023
 20
0.4000000000000057
 30
0.0
 11
22.000000000000057
 21
0.4000000000000057
 31
0.0
  0
LINE
  5
354
100
AcDbEntity
  8
0
  6
CONTINUOUS
 62
               4
100
AcDbLine
 10
16.10000000000008
 20
1.1500000000000057
 30
0.0
 11
22.0
 21
1.1500000000000057
 31
0.0
  0
LINE
  5
355
100
AcDbEntity
  8
0
  6
CONTINUOUS
 62
               4
100
AcDbLine
 10
0.0
 20
-0.4500000000000171
 30
0.0
 11
22.000000000000057
 21
-0.4500000000000171
 31
0.0
  0
LINE
  5
356
100
AcDbEntity
  8
0
  6
CONTINUOUS
 62
               4
100
AcDbLine
 10
0.0000000000000568
 20
-1.0000000000000284
 30
0.0
 11
22.000000000000057
 21
-1.0000000000000284
 31
0.0
  0
LINE
  5
357
100
AcDbEntity
  8
0
  6
CONTINUOUS
 62
               4
100
AcDbLine
 10
4.2699999999999818
 20
-1.8000000000000114
 30
0.0
 11
4.2699999999999818
 21
-2.9800000000000182
 31
0.0
  0
LINE
  5
358
100
AcDbEntity
  8
0
  6
CONTINUOUS
 62
               4
100
AcDbLine
 10
4.2699999999999818
 20
-2.9800000000000182
 30
0.0
 11
4.7000000000000455
 21
-2.9800000000000182
 31
0.0
  0
LINE
  5
359
100
AcDbEntity
  8
0
  6
CONTINUOUS
 62
               4
100
AcDbLine
 10
4.2000000000000455
 20
-1.8000000000000114
 30
0.0
 11
4.1999999999999886
 21
-3.7999999999999829
 31
0.0
  0
LINE
  5
35A
100
AcDbEntity
  8
0
  6
CONTINUOUS
 62
               4
100
AcDbLine
 10
4.1999999999999886
 20
-3.7999999999999829
 30
0.0
 11
4.6999999999999886
 21
-3.8000000000000114
 31
0.0
  0
LINE
  5
35B
100
AcDbEntity
  8
0
  6
CONTINUOUS
 62
               4
100
AcDbLine
 10
16.100000000000023
 20
6.8999999999999773
 30
0.0
 11
22.000000000000057
 21
6.8999999999999773
 31
0.0
  0
LINE
  5
35C
100
AcDbEntity
  8
0
  6
CONTINUOUS
 62
               4
100
AcDbLine
 10
4.0
 20
-1.8000000000000114
 30
0.0
 11
4.0000000000000568
 21
-2.6000000000000227
 31
0.0
  0
LINE
  5
35D
100
AcDbEntity
  8
0
  6
CONTINUOUS
 62
               4
100
AcDbLine
 10
0.0
 20
-2.5999999999999943
 30
0.0
 11
4.0000000000000568
 21
-2.6000000000000227
 31
0.0
  0
LINE
  5
35E
100
AcDbEntity
  8
0
  6
CONTINUOUS
 62
               4
100
AcDbLine
 10
0.0000000000000568
 20
-1.8000000000000114
 30
0.0
 11
4.2699999999999818
 21
-1.8000000000000114
 31
0.0
  0
LINE
  5
35F
100
AcDbEntity
  8
0
  6
CONTINUOUS
 62
               4
100
AcDbLine
 10
16.100000000000023
 20
6.8999999999999773
 30
0.0
 11
16.100000000000023
 21
0.0
 31
0.0
  0
LINE
  5
360
100
AcDbEntity
  8
0
  6
CENTER
 62
             200
100
AcDbLine
 10
2.0000000000000568
 20
0.7300000000000182
 30
0.0
 11
2.0
 21
-5.1700000000000159
 31
0.0
  0
LINE
  5
361
100
AcDbEntity
  8
0
  6
CONTINUOUS
 62
               4
100
AcDbLine
 10
4.7000000000000455
 20
-2.9800000000000182
 30
0.0
 11
4.6999999999999886
 21
-4.6000000000000227
 31
0.0
  0
LINE
  5
362
100
AcDbEntity
  8
0
  6
CONTINUOUS
 62
               4
100
AcDbLine
 10
0.0
 20
-2.5999999999999943
 30
0.0
 11
0.0
 21
0.0
 31
0.0
  0
LINE
  5
363
100
AcDbEntity
  8
0
  6
CONTINUOUS
 62
               4
100
AcDbLine
 10
22.000000000000057
 20
6.8999999999999773
 30
0.0
 11
22.0
 21
-4.6000000000000227
 31
0.0
  0
LINE
  5
364
100
AcDbEntity
  8
0
  6
CONTINUOUS
 62
               4
100
AcDbLine
 10
4.6999999999999886
 20
-4.6000000000000227
 30
0.0
 11
22.0
 21
-4.6000000000000227
 31
0.0
  0
LINE
  5
365
100
AcDbEntity
  8
0
  6
CONTINUOUS
 62
               4
100
AcDbLine
 10
0.0
 20
0.0
 30
0.0
 11
16.100000000000023
 21
0.0
 31
0.0
  0
ENDBLK
  5
366
100
AcDbEntity
  8
0
100
AcDbBlockEnd
  0
BLOCK
  5
383
100
AcDbEntity
  8
0
  6
ByBlock
 62
               0
100
AcDbBlockBegin
  2
_OPEN30
 70
               2
 10
0.0
 20
0.0
 30
0.0
  3
_OPEN30
  1

  0
LINE
  5
384
100
AcDbEntity
  8
0
  6
ByBlock
 62
               0
100
AcDbLine
 10
-1.0
 20
0.267949
 30
0.0
 11
0.0
 21
0.0
 31
0.0
  0
LINE
  5
385
100
AcDbEntity
  8
0
  6
ByBlock
 62
               0
100
AcDbLine
 10
0.0
 20
0.0
 30
0.0
 11
-1.0
 21
-0.267949
 31
0.0
  0
LINE
  5
386
100
AcDbEntity
  8
0
  6
ByBlock
 62
               0
100
AcDbLine
 10
0.0
 20
0.0
 30
0.0
 11
-1.0
 21
0.0
 31
0.0
  0
ENDBLK
  5
387
100
AcDbEntity
  8
0
  6
ByBlock
 62
               0
100
AcDbBlockEnd
  0
ENDSEC
  0
SECTION
  2
ENTITIES
  0
INSERT
  5
367
100
AcDbEntity
  8
0
  6
ByBlock
100
AcDbBlockReference
  2
ZSG20-1
 10
-111.63872832369935
 20
141.78148059252027
 30
0.0
  0
INSERT
  5
368
100
AcDbEntity
  8
0
  6
ByBlock
100
AcDbBlockReference
  2
ZSG20-4
 10
-238.63872832369935
 20
141.78148059252027
 30
0.0
  0
INSERT
  5
369
100
AcDbEntity
  8
0
  6
ByBlock
100
AcDbBlockReference
  2
ZSG20-5
 10
228.36127167630065
 20
141.78148059252027
 30
0.0
  0
INSERT
  5
36A
100
AcDbEntity
  8
0
  6
ByBlock
100
AcDbBlockReference
  2
ZSG20-6
 10
-111.63872832369935
 20
-16.218519407479718
 30
0.0
  0
INSERT
  5
36B
100
AcDbEntity
  8
0
  6
ByBlock
100
AcDbBlockReference
  2
ZSG20-7
 10
-111.63872832369935
 20
-142.2185194074797
 30
0.0
  0
INSERT
  5
36C
100
AcDbEntity
  8
0
  6
ByBlock
100
AcDbBlockReference
  2
ZSG20-8
 10
322.90312516284081
 20
-92.147329752673784
 30
0.0
  0
INSERT
  5
36D
100
AcDbEntity
  8
0
  6
ByBlock
100
AcDbBlockReference
  2
ZSG20-9
 10
258.36040055346581
 20
-92.147329752673784
 30
0.0
 50
359.99999999999915
  0
INSERT
  5
36E
100
AcDbEntity
  8
0
  6
ByBlock
100
AcDbBlockReference
  2
ZSG20-10
 10
322.90312516284081
 20
-49.597326700915985
 30
0.0
  0
INSERT
  5
36F
100
AcDbEntity
  8
0
  6
ByBlock
100
AcDbBlockReference
  2
ZSG20-11
 10
321.40315629139764
 20
-225.84192309949592
 30
0.0
 50
0.0000794785097516
  0
INSERT
  5
370
100
AcDbEntity
  8
0
  6
ByBlock
100
AcDbBlockReference
  2
ZSG20-2
 10
258.3604469408117
 20
-225.84195361707404
 30
0.0
  0
INSERT
  5
371
100
AcDbEntity
  8
0
  6
ByBlock
100
AcDbBlockReference
  2
ZSG20-3
 10
321.4031715501867
 20
-178.24196277250272
 30
0.0
  0
LINE
  5
372
100
AcDbEntity
  8
0
  6
CONTINUOUS
 62
               7
100
AcDbLine
 10
399.52490234375
 20
276.5
 30
0.0
 11
399.52490234375
 21
-276.5
 31
0.0
  0
LINE
  5
373
100
AcDbEntity
  8
0
  6
CONTINUOUS
 62
               7
100
AcDbLine
 10
-399.52490234375
 20
276.5
 30
0.0
 11
-399.52490234375
 21
-276.5
 31
0.0
  0
LINE
  5
374
100
AcDbEntity
  8
0
  6
CONTINUOUS
 62
               7
100
AcDbLine
 10
-399.52490234375
 20
276.5
 30
0.0
 11
399.52490234375
 21
276.5
 31
0.0
  0
LINE
  5
375
100
AcDbEntity
  8
0
  6
CONTINUOUS
 62
               7
100
AcDbLine
 10
-399.52490234375
 20
-276.5
 30
0.0
 11
399.52490234375
 21
-276.5
 31
0.0
  0
MTEXT
  5
376
100
AcDbEntity
  8
0
  6
CONTINUOUS
 62
               7
100
AcDbMText
 10
-363.56893980331643
 20
266.5
 30
0.0
 40
6.3000001907348633
 41
0.0
 71
               4
 72
               1
  1
\W1.101;\A1;Z SLIDER
  0
LINE
  5
377
100
AcDbEntity
  8
0
  6
CONTINUOUS
 62
               7
100
AcDbLine
 10
-279.52490234375
 20
276.5
 30
0.0
 11
-279.52490234375
 21
256.5
 31
0.0
  0
LINE
  5
378
100
AcDbEntity
  8
0
  6
CONTINUOUS
 62
               7
100
AcDbLine
 10
-399.52490234375
 20
256.5
 30
0.0
 11
-279.52490234375
 21
256.5
 31
0.0
  0
MTEXT
  5
379
100
AcDbEntity
  8
0
  6
CONTINUOUS
 62
               7
100
AcDbMText
 10
-386.54413316786167
 20
241.5
 30
0.0
 40
6.3000001907348633
 41
0.0
 71
               4
 72
               1
  1
\W1.077;\A1;MODEL:ZSG20*80
  0
LINE
  5
37A
100
AcDbEntity
  8
0
  6
CONTINUOUS
 62
               7
100
AcDbLine
 10
279.5250244140625
 20
276.5
 30
0.0
 11
279.5250244140625
 21
256.5
 31
0.0
  0
LINE
  5
37B
100
AcDbEntity
  8
0
  6
CONTINUOUS
 62
               7
100
AcDbLine
 10
279.5250244140625
 20
256.5
 30
0.0
 11
399.52490234375
 21
256.5
 31
0.0
  0
MTEXT
  5
37C
100
AcDbEntity
  8
0
  6
CONTINUOUS
 62
               7
100
AcDbMText
 10
315.74075401876524
 20
266.5
 30
0.0
 40
6.3000001907348633
 41
0.0
 71
               4
 72
               1
  1
\W1.348;\A1;Ver. 1.1
  0
MTEXT
  5
37D
100
AcDbEntity
  8
0
  6
CONTINUOUS
 62
               7
100
AcDbMText
 10
287.70605892243776
 20
-266.5
 30
0.0
 40
9.0
 41
0.0
 71
               4
 72
               1
  1
\W1.121;\A1;KOGANEI CORP.
  0
LINE
  5
37E
100
AcDbEntity
  8
0
  6
CONTINUOUS
 62
               7
100
AcDbLine
 10
279.5250244140625
 20
-256.5
 30
0.0
 11
279.5250244140625
 21
-276.5
 31
0.0
  0
LINE
  5
37F
100
AcDbEntity
  8
0
  6
CONTINUOUS
 62
               7
100
AcDbLine
 10
279.5250244140625
 20
-256.5
 30
0.0
 11
399.52490234375
 21
-256.5
 31
0.0
  0
MTEXT
  5
380
100
AcDbEntity
  8
0
  6
CONTINUOUS
 62
               3
100
AcDbMText
 10
24.679613782045159
 20
228.83699421965318
 30
0.0
 40
6.3000001907348633
 41
0.0
 71
               4
 72
               1
  1
\W1.065;\A1;STRETCH LINE
  0
MTEXT
  5
381
100
AcDbEntity
  8
0
  6
CONTINUOUS
 62
               2
100
AcDbMText
 10
107.20463496755362
 20
220.23865660238471
 30
0.0
 40
6.3000001907348633
 41
0.0
 71
               4
 72
               1
  1
\W1.286;\A1;ST:20,30,40,50,60,70,80,90,100
  0
LEADER
  5
388
100
AcDbEntity
  8
0
  6
CONTINUOUS
 62
               2
100
AcDbLeader
  3
MXDIMSTYLE
 73
               3
 74
               0
 75
               0
 40
0.0
 76
               3
 10
70.86127167630066
 20
156.37955680387358
 30
0.0
 10
104.1976783958155
 20
214.11990698385443
 30
0.0
 10
296.20464069516242
 20
214.11990698385443
 30
0.0
 77
               2
1001
ACAD
1000
DSTYLE
1002
{
1070
               6
1000
_OPEN30
1070
               7
1000
_OPEN30
1070
              41
1040
2.77
1070
             173
1070
               1
1070
             341
1005
382
1002
}
  0
MTEXT
  5
389
100
AcDbEntity
  8
0
  6
CONTINUOUS
 62
               2
100
AcDbMText
 10
-60.087464172712103
 20
219.06807601463413
 30
0.0
 40
6.3000001907348633
 41
0.0
 71
               4
 72
               1
  1
\W1.286;\A1;ST:80,90,100
  0
LEADER
  5
38A
100
AcDbEntity
  8
0
  6
CONTINUOUS
 62
               2
100
AcDbLeader
  3
MXDIMSTYLE
 73
               3
 74
               0
 75
               0
 40
0.0
 76
               3
 10
52.011271676300652
 20
156.11974918273825
 30
0.0
 10
19.200699974231753
 20
212.94932639610386
 30
0.0
 10
-60.087464164562192
 20
212.94932639610386
 30
0.0
 77
               2
1001
ACAD
1000
DSTYLE
1002
{
1070
               6
1000
_OPEN30
1070
               7
1000
_OPEN30
1070
              41
1040
2.77
1070
             173
1070
               1
1070
             341
1005
382
1002
}
  0
MTEXT
  5
38B
100
AcDbEntity
  8
0
  6
CONTINUOUS
 62
               2
100
AcDbMText
 10
-214.53815610388065
 20
48.341577555157762
 30
0.0
 40
6.3000001907348633
 41
0.0
 71
               4
 72
               1
  1
\W1.286;\A1;ST:20,30,40,50,60,70,80,90,100
  0
LEADER
  5
38C
100
AcDbEntity
  8
0
  6
CONTINUOUS
 62
               2
100
AcDbLeader
  3
MXDIMSTYLE
 73
               3
 74
               0
 75
               0
 40
0.0
 76
               3
 10
-4.1594542658630438
 20
16.781480592520282
 30
0.0
 10
-18.84802300353013
 20
42.222827936627489
 30
0.0
 10
-214.53815609831773
 20
42.222827936627489
 30
0.0
 77
               2
1001
ACAD
1000
DSTYLE
1002
{
1070
               6
1000
_OPEN30
1070
               7
1000
_OPEN30
1070
              41
1040
2.77
1070
             173
1070
               1
1070
             341
1005
382
1002
}
  0
MTEXT
  5
38D
100
AcDbEntity
  8
0
  6
CONTINUOUS
 62
               2
100
AcDbMText
 10
-65.855490593257741
 20
-62.271833663362685
 30
0.0
 40
6.3000001907348633
 41
0.0
 71
               4
 72
               1
  1
\W1.286;\A1;ST:80,90,100
  0
LEADER
  5
38E
100
AcDbEntity
  8
0
  6
CONTINUOUS
 62
               2
100
AcDbLeader
  3
MXDIMSTYLE
 73
               3
 74
               0
 75
               0
 40
0.0
 76
               3
 10
51.861271676300632
 20
-127.62044319612636
 30
0.0
 10
17.664896110753972
 20
-68.390583281892958
 30
0.0
 10
-65.855490585107844
 20
-68.390583281892958
 30
0.0
 77
               2
1001
ACAD
1000
DSTYLE
1002
{
1070
               6
1000
_OPEN30
1070
               7
1000
_OPEN30
1070
              41
1040
2.77
1070
             173
1070
               1
1070
             341
1005
382
1002
}
  0
LINE
  5
38F
100
AcDbEntity
  8
0
  6
CONTINUOUS
 62
               7
100
AcDbLine
 10
199.52490234375
 20
-6.5
 30
0.0
 11
399.52490234375
 21
-6.5
 31
0.0
  0
LINE
  5
390
100
AcDbEntity
  8
0
  6
CONTINUOUS
 62
               7
100
AcDbLine
 10
199.52490234375
 20
-276.5
 30
0.0
 11
199.52490234375
 21
-6.5
 31
0.0
  0
LINE
  5
391
100
AcDbEntity
  8
0
  6
CONTINUOUS
 62
               7
100
AcDbLine
 10
199.52490234375
 20
-136.5
 30
0.0
 11
399.52490234375
 21
-136.5
 31
0.0
  0
MTEXT
  5
392
100
AcDbEntity
  8
0
  6
CONTINUOUS
 62
               7
100
AcDbMText
 10
202.57242236133771
 20
-141.5
 30
0.0
 40
6.3000001907348633
 41
0.0
 71
               4
 72
               1
  1
\W1.140;\A1;MODEL:ZE235,255,202,201
  0
MTEXT
  5
393
100
AcDbEntity
  8
0
  6
CONTINUOUS
 62
               7
100
AcDbMText
 10
202.65720320563611
 20
-11.5
 30
0.0
 40
6.3000001907348633
 41
0.0
 71
               4
 72
               1
  1
\W1.221;\A1;MODEL:ZE135,155,102,101
  0
MTEXT
  5
394
100
AcDbEntity
  8
0
  6
CONTINUOUS
 62
               7
100
AcDbMText
 10
-106.61490264177321
 20
-266.5
 30
0.0
 40
6.3000001907348633
 41
0.0
 71
               4
 72
               1
  1
\W1.200;\A1;-10
  0
MTEXT
  5
395
100
AcDbEntity
  8
0
  6
CONTINUOUS
 62
               7
100
AcDbMText
 10
-144.56313789155257
 20
-266.5
 30
0.0
 40
6.3000001907348633
 41
0.0
 71
               4
 72
               1
  1
\W1.059;\A1;-20
  0
MTEXT
  5
396
100
AcDbEntity
  8
0
  6
CONTINUOUS
 62
               7
100
AcDbMText
 10
-182.36313789155258
 20
-266.5
 30
0.0
 40
6.3000001907348633
 41
0.0
 71
               4
 72
               1
  1
\W1.059;\A1;-30
  0
MTEXT
  5
397
100
AcDbEntity
  8
0
  6
CONTINUOUS
 62
               7
100
AcDbMText
 10
-220.16313789155259
 20
-266.5
 30
0.0
 40
6.3000001907348633
 41
0.0
 71
               4
 72
               1
  1
\W1.059;\A1;-40
  0
MTEXT
  5
398
100
AcDbEntity
  8
0
  6
CONTINUOUS
 62
               7
100
AcDbMText
 10
-257.96313789155261
 20
-266.5
 30
0.0
 40
6.3000001907348633
 41
0.0
 71
               4
 72
               1
  1
\W1.059;\A1;-50
  0
MTEXT
  5
399
100
AcDbEntity
  8
0
  6
CONTINUOUS
 62
               7
100
AcDbMText
 10
-295.76313789155262
 20
-266.5
 30
0.0
 40
6.3000001907348633
 41
0.0
 71
               4
 72
               1
  1
\W1.059;\A1;-60
  0
MTEXT
  5
39A
100
AcDbEntity
  8
0
  6
CONTINUOUS
 62
               1
100
AcDbMText
 10
4.0932791456042796
 20
-256.4999999877013
 30
0.0
 40
6.3000001907348633
 41
0.0
 71
               4
 72
               1
  1
\W1.364;\A1;(100)
  0
MTEXT
  5
39B
100
AcDbEntity
  8
0
  6
CONTINUOUS
 62
               1
100
AcDbMText
 10
-30.915428828789477
 20
-256.49999997540255
 30
0.0
 40
6.3000001907348633
 41
0.0
 71
               4
 72
               1
  1
\W1.263;\A1;(90)
  0
MTEXT
  5
39C
100
AcDbEntity
  8
0
  6
CONTINUOUS
 62
               1
100
AcDbMText
 10
-65.779447888886523
 20
-256.50000002459745
 30
0.0
 40
6.3000001907348633
 41
0.0
 71
               4
 72
               1
  1
\W1.091;\A1;80
  0
MTEXT
  5
39D
100
AcDbEntity
  8
0
  6
CONTINUOUS
 62
               1
100
AcDbMText
 10
-144.31542882878941
 20
-256.49999993850639
 30
0.0
 40
6.3000001907348633
 41
0.0
 71
               4
 72
               1
  1
\W1.263;\A1;(60)
  0
MTEXT
  5
39E
100
AcDbEntity
  8
0
  6
CONTINUOUS
 62
               7
100
AcDbMText
 10
-333.56313789155263
 20
-266.5
 30
0.0
 40
6.3000001907348633
 41
0.0
 71
               4
 72
               1
  1
\W1.059;\A1;-70
  0
MTEXT
  5
39F
100
AcDbEntity
  8
0
  6
CONTINUOUS
 62
               7
100
AcDbMText
 10
-330.12490243248413
 20
-256.4999999877013
 30
0.0
 40
6.3000001907348633
 41
0.0
 71
               4
 72
               1
  1
\W1.333;\A1;10
  0
MTEXT
  5
3A0
100
AcDbEntity
  8
0
  6
CONTINUOUS
 62
               7
100
AcDbMText
 10
-62.514902390956884
 20
-266.5
 30
0.0
 40
6.3000001907348633
 41
0.0
 71
               4
 72
               1
  1
\W1.200;\A1;0
  0
MTEXT
  5
3A1
100
AcDbEntity
  8
0
  6
CONTINUOUS
 62
               1
100
AcDbMText
 10
-106.51542882878944
 20
-256.49999995080515
 30
0.0
 40
6.3000001907348633
 41
0.0
 71
               4
 72
               1
  1
\W1.263;\A1;(70)
  0
MTEXT
  5
3A2
100
AcDbEntity
  8
0
  6
CONTINUOUS
 62
               1
100
AcDbMText
 10
-179.17944788888647
 20
-256.4999999877013
 30
0.0
 40
6.3000001907348633
 41
0.0
 71
               4
 72
               1
  1
\W1.091;\A1;50
  0
MTEXT
  5
3A3
100
AcDbEntity
  8
0
  6
CONTINUOUS
 62
               1
100
AcDbMText
 10
-216.97944788888648
 20
-256.49999997540255
 30
0.0
 40
6.3000001907348633
 41
0.0
 71
               4
 72
               1
  1
\W1.091;\A1;40
  0
MTEXT
  5
3A4
100
AcDbEntity
  8
0
  6
CONTINUOUS
 62
               7
100
AcDbMText
 10
-390.32490297953291
 20
-266.5
 30
0.0
 40
6.3000001907348633
 41
0.0
 71
               4
 72
               1
  1
\A1;STRETCH
  0
MTEXT
  5
3A5
100
AcDbEntity
  8
0
  6
CONTINUOUS
 62
               7
100
AcDbMText
 10
-254.77944788888652
 20
-256.4999999877013
 30
0.0
 40
6.3000001907348633
 41
0.0
 71
               4
 72
               1
  1
\W1.091;\A1;30
  0
MTEXT
  5
3A6
100
AcDbEntity
  8
0
  6
CONTINUOUS
 62
               7
100
AcDbMText
 10
-292.57944788888648
 20
-256.4999999877013
 30
0.0
 40
6.3000001907348633
 41
0.0
 71
               4
 72
               1
  1
\W1.091;\A1;20
  0
MTEXT
  5
3A7
100
AcDbEntity
  8
0
  6
CONTINUOUS
 62
               7
100
AcDbMText
 10
-387.17490288416548
 20
-256.5
 30
0.0
 40
6.3000001907348633
 41
0.0
 71
               4
 72
               1
  1
\A1;STROKE
  0
LINE
  5
3A8
100
AcDbEntity
  8
0
  6
CONTINUOUS
 62
               7
100
AcDbLine
 10
-41.724902343750017
 20
-271.5
 30
0.0
 11
-41.724902343750017
 21
-251.5
 31
0.0
  0
LINE
  5
3A9
100
AcDbEntity
  8
0
  6
CONTINUOUS
 62
               7
100
AcDbLine
 10
-79.524902343749986
 20
-271.5
 30
0.0
 11
-79.524902343749986
 21
-251.4999999754026
 31
0.0
  0
LINE
  5
3AA
100
AcDbEntity
  8
0
  6
CONTINUOUS
 62
               7
100
AcDbLine
 10
-117.32490234374994
 20
-271.5
 30
0.0
 11
-117.32490234374994
 21
-251.4999999754026
 31
0.0
  0
LINE
  5
3AB
100
AcDbEntity
  8
0
  6
CONTINUOUS
 62
               7
100
AcDbLine
 10
-155.12490234374994
 20
-271.5
 30
0.0
 11
-155.12490234374994
 21
-251.4999999754026
 31
0.0
  0
LINE
  5
3AC
100
AcDbEntity
  8
0
  6
CONTINUOUS
 62
               7
100
AcDbLine
 10
-192.92490234374995
 20
-271.5
 30
0.0
 11
-192.92490234374995
 21
-251.4999999754026
 31
0.0
  0
LINE
  5
3AD
100
AcDbEntity
  8
0
  6
CONTINUOUS
 62
               7
100
AcDbLine
 10
-230.72490234374999
 20
-271.5
 30
0.0
 11
-230.72490234374999
 21
-251.4999999754026
 31
0.0
  0
LINE
  5
3AE
100
AcDbEntity
  8
0
  6
CONTINUOUS
 62
               7
100
AcDbLine
 10
-268.52490234375
 20
-271.5
 30
0.0
 11
-268.52490234375
 21
-251.4999999754026
 31
0.0
  0
LINE
  5
3AF
100
AcDbEntity
  8
0
  6
CONTINUOUS
 62
               7
100
AcDbLine
 10
-306.32490234375001
 20
-271.5
 30
0.0
 11
-306.32490234375001
 21
-251.4999999754026
 31
0.0
  0
LINE
  5
3B0
100
AcDbEntity
  8
0
  6
CONTINUOUS
 62
               7
100
AcDbLine
 10
-344.12490234375002
 20
-271.5
 30
0.0
 11
-344.12490234375002
 21
-251.4999999754026
 31
0.0
  0
LINE
  5
3B1
100
AcDbEntity
  8
0
  6
CONTINUOUS
 62
               7
100
AcDbLine
 10
-394.52490234375
 20
-271.5
 30
0.0
 11
-394.52490234375
 21
-251.5
 31
0.0
  0
LINE
  5
3B2
100
AcDbEntity
  8
0
  6
CONTINUOUS
 62
               7
100
AcDbLine
 10
-394.52490234375
 20
-251.5
 30
0.0
 11
33.875097656249977
 21
-251.5
 31
0.0
  0
LINE
  5
3B3
100
AcDbEntity
  8
0
  6
CONTINUOUS
 62
               7
100
AcDbLine
 10
-394.52490234375
 20
-261.5
 30
0.0
 11
33.875097656249977
 21
-261.5
 31
0.0
  0
LINE
  5
3B4
100
AcDbEntity
  8
0
  6
CONTINUOUS
 62
               7
100
AcDbLine
 10
-394.52490234375
 20
-271.5
 30
0.0
 11
33.875097656249977
 21
-271.5
 31
0.0
  0
LINE
  5
3B5
100
AcDbEntity
  8
0
  6
CONTINUOUS
 62
               7
100
AcDbLine
 10
-3.9249023437500092
 20
-271.5
 30
0.0
 11
-3.9249023437500092
 21
-251.5
 31
0.0
  0
LINE
  5
3B6
100
AcDbEntity
  8
0
  6
CONTINUOUS
 62
               7
100
AcDbLine
 10
33.875097656250006
 20
-271.5
 30
0.0
 11
33.875097656250006
 21
-251.5
 31
0.0
  0
MTEXT
  5
3B7
100
AcDbEntity
  8
0
  6
CONTINUOUS
 62
               7
100
AcDbMText
 10
-27.724902432484114
 20
-266.5
 30
0.0
 40
6.3000001907348633
 41
0.0
 71
               4
 72
               1
  1
\W1.333;\A1;10
  0
MTEXT
  5
3B8
100
AcDbEntity
  8
0
  6
CONTINUOUS
 62
               7
100
AcDbMText
 10
9.8205521111134715
 20
-266.5
 30
0.0
 40
6.3000001907348633
 41
0.0
 71
               4
 72
               1
  1
\W1.091;\A1;20
  0
MTEXT
  5
3B9
100
AcDbEntity
  8
0
  6
CONTINUOUS
 62
               7
100
AcDbMText
 10
-217.00656042874027
 20
-244.90536175985395
 30
0.0
 40
6.3000001907348633
 41
0.0
 71
               4
 72
               1
  1
\W1.065;\A1;STRETCH LIST
  0
MTEXT
  5
3BA
100
AcDbEntity
  8
0
  6
CONTINUOUS
 62
               7
100
AcDbMText
 10
15.559097132110589
 20
-244.90536175985395
 30
0.0
 40
6.3000001907348633
 41
0.0
 71
               4
 72
               1
  1
\W1.200;\A1;(mm)
  0
ENDSEC
  0
SECTION
  2
OBJECTS
  0
DICTIONARY
  5
19
100
AcDbDictionary
  3
ACAD_GROUP
350
1A
  3
ACAD_MLINESTYLE
350
1B
  0
DICTIONARY
  5
1A
102
{ACAD_REACTORS
330
19
102
}
100
AcDbDictionary
  0
DICTIONARY
  5
1B
102
{ACAD_REACTORS
330
19
102
}
100
AcDbDictionary
  3
STANDARD
350
1C
  0
MLINESTYLE
  5
1C
102
{ACAD_REACTORS
330
1B
102
}
100
AcDbMlineStyle
  2
Standard
 70
               0
  3

 62
               0
 51
90.0
 52
90.0
 71
               2
 49
0.5
 62
             256
  6
ByLayer
 49
-0.5
 62
             256
  6
ByLayer
  0
ENDSEC
  0
EOF
