  0
SECTION
  2
HEADER
  9
$ACADVER
  1
AC1012
  9
$DWGCODEPAGE
  3
dos932
  9
$INSBASE
 10
0.0
 20
0.0
 30
0.0
  9
$EXTMIN
 10
-281.25
 20
-195.0
 30
0.0
  9
$EXTMAX
 10
285.63191774774975
 20
195.5
 30
0.0
  9
$LIMMIN
 10
-281.25
 20
-195.0
  9
$LIMMAX
 10
285.63191774774975
 20
195.5
  9
$ORTHOMODE
 70
               0
  9
$REGENMODE
 70
               1
  9
$FILLMODE
 70
               1
  9
$QTEXTMODE
 70
               0
  9
$MIRRTEXT
 70
               1
  9
$DRAGMODE
 70
               2
  9
$LTSCALE
 40
1.0
  9
$OSMODE
 70
               0
  9
$ATTMODE
 70
               1
  9
$TEXTSIZE
 40
3.2000000476837158
  9
$TRACEWID
 40
0.05
  9
$TEXTSTYLE
  7
MX_NOTE_STANDARD
  9
$CLAYER
  8
0
  9
$CELTYPE
  6
CONTINUOUS
  9
$CECOLOR
 62
             256
  9
$CELTSCALE
 40
1.0
  9
$DELOBJ
 70
               1
  9
$DISPSILH
 70
               0
  9
$DIMSCALE
 40
1.0
  9
$DIMASZ
 40
2.5
  9
$DIMEXO
 40
1.5
  9
$DIMDLI
 40
3.75
  9
$DIMRND
 40
0.0
  9
$DIMDLE
 40
0.0
  9
$DIMEXE
 40
1.5
  9
$DIMTP
 40
0.0
  9
$DIMTM
 40
0.0
  9
$DIMTXT
 40
3.2000000476837158
  9
$DIMCEN
 40
2.5
  9
$DIMTSZ
 40
0.0
  9
$DIMTOL
 70
               0
  9
$DIMLIM
 70
               0
  9
$DIMTIH
 70
               0
  9
$DIMTOH
 70
               0
  9
$DIMSE1
 70
               0
  9
$DIMSE2
 70
               0
  9
$DIMTAD
 70
               1
  9
$DIMZIN
 70
               8
  9
$DIMBLK
  1

  9
$DIMASO
 70
               1
  9
$DIMSHO
 70
               1
  9
$DIMPOST
  1

  9
$DIMAPOST
  1

  9
$DIMALT
 70
               0
  9
$DIMALTD
 70
               4
  9
$DIMALTF
 40
0.03937007874016
  9
$DIMLFAC
 40
1.0
  9
$DIMTOFL
 70
               1
  9
$DIMTVP
 40
0.0
  9
$DIMTIX
 70
               0
  9
$DIMSOXD
 70
               0
  9
$DIMSAH
 70
               0
  9
$DIMBLK1
  1

  9
$DIMBLK2
  1

  9
$DIMSTYLE
  2
MXDIMSTYLE
  9
$DIMCLRD
 70
               0
  9
$DIMCLRE
 70
               0
  9
$DIMCLRT
 70
               0
  9
$DIMTFAC
 40
1.0
  9
$DIMGAP
 40
1.0
  9
$DIMJUST
 70
               0
  9
$DIMSD1
 70
               0
  9
$DIMSD2
 70
               0
  9
$DIMTOLJ
 70
               1
  9
$DIMTZIN
 70
               0
  9
$DIMALTZ
 70
               0
  9
$DIMALTTZ
 70
               0
  9
$DIMFIT
 70
               3
  9
$DIMUPT
 70
               1
  9
$DIMUNIT
 70
               2
  9
$DIMDEC
 70
               4
  9
$DIMTDEC
 70
               4
  9
$DIMALTU
 70
               2
  9
$DIMALTTD
 70
               4
  9
$DIMTXSTY
  7
MX_NOTE_STANDARD
  9
$DIMAUNIT
 70
               0
  9
$LUNITS
 70
               2
  9
$LUPREC
 70
               4
  9
$SKETCHINC
 40
0.1
  9
$FILLETRAD
 40
0.0
  9
$AUNITS
 70
               0
  9
$AUPREC
 70
               0
  9
$MENU
  1
acad
  9
$ELEVATION
 40
0.0
  9
$PELEVATION
 40
0.0
  9
$THICKNESS
 40
0.0
  9
$LIMCHECK
 70
               0
  9
$BLIPMODE
 70
               1
  9
$CHAMFERA
 40
0.0
  9
$CHAMFERB
 40
0.0
  9
$CHAMFERC
 40
0.0
  9
$CHAMFERD
 40
0.0
  9
$SKPOLY
 70
               0
  9
$TDCREATE
 40
2453378.356875000
  9
$TDUPDATE
 40
2453378.356875000
  9
$TDINDWG
 40
0.0000000000
  9
$TDUSRTIMER
 40
0.0000000000
  9
$USRTIMER
 70
               1
  9
$ANGBASE
 50
0.0
  9
$ANGDIR
 70
               0
  9
$PDMODE
 70
               0
  9
$PDSIZE
 40
0.0
  9
$PLINEWID
 40
0.0
  9
$COORDS
 70
               1
  9
$SPLFRAME
 70
               0
  9
$SPLINETYPE
 70
               6
  9
$SPLINESEGS
 70
               8
  9
$ATTDIA
 70
               0
  9
$ATTREQ
 70
               1
  9
$HANDLING
 70
               1
  9
$HANDSEED
  5
47C
  9
$SURFTAB1
 70
               6
  9
$SURFTAB2
 70
               6
  9
$SURFTYPE
 70
               6
  9
$SURFU
 70
               6
  9
$SURFV
 70
               6
  9
$UCSNAME
  2

  9
$UCSORG
 10
0.0
 20
0.0
 30
0.0
  9
$UCSXDIR
 10
1.0
 20
0.0
 30
0.0
  9
$UCSYDIR
 10
0.0
 20
1.0
 30
0.0
  9
$PUCSNAME
  2

  9
$PUCSORG
 10
0.0
 20
0.0
 30
0.0
  9
$PUCSXDIR
 10
1.0
 20
0.0
 30
0.0
  9
$PUCSYDIR
 10
0.0
 20
1.0
 30
0.0
  9
$USERI1
 70
               0
  9
$USERI2
 70
               0
  9
$USERI3
 70
               0
  9
$USERI4
 70
               0
  9
$USERI5
 70
               0
  9
$USERR1
 40
0.0
  9
$USERR2
 40
0.0
  9
$USERR3
 40
0.0
  9
$USERR4
 40
0.0
  9
$USERR5
 40
0.0
  9
$WORLDVIEW
 70
               1
  9
$SHADEDGE
 70
               3
  9
$SHADEDIF
 70
              70
  9
$TILEMODE
 70
               1
  9
$MAXACTVP
 70
              16
  9
$PINSBASE
 10
0.0
 20
0.0
 30
0.0
  9
$PLIMCHECK
 70
               0
  9
$PEXTMIN
 10
1.0000000000000000E+20
 20
1.0000000000000000E+20
 30
1.0000000000000000E+20
  9
$PEXTMAX
 10
-1.0000000000000000E+20
 20
-1.0000000000000000E+20
 30
-1.0000000000000000E+20
  9
$PLIMMIN
 10
0.0
 20
0.0
  9
$PLIMMAX
 10
12.0
 20
9.0
  9
$UNITMODE
 70
               0
  9
$VISRETAIN
 70
               0
  9
$PLINEGEN
 70
               1
  9
$PSLTSCALE
 70
               0
  9
$TREEDEPTH
 70
            3020
  9
$PICKSTYLE
 70
               1
  9
$CMLSTYLE
  2
Standard
  9
$CMLJUST
 70
               0
  9
$CMLSCALE
 40
1.0
  9
$SAVEIMAGES
 70
               0
  0
ENDSEC
  0
SECTION
  2
CLASSES
  0
CLASS
  1
LWPOLYLINE
  2
AcDbPolyline
  3
"AutoCAD"
 90
        0
280
               0
281
               1
  0
CLASS
  1
IMAGE
  2
AcDbRasterImage
  3
ISM
 90
      127
280
               0
281
               1
  0
CLASS
  1
OLE2FRAME
  2
AcDbOle2Frame
  3
""
 90
        0
280
               0
281
               1
  0
CLASS
  1
HATCH
  2
AcDbHatch
  3
"ACAD_SEDONA"
 90
        0
280
               0
281
               1
  0
CLASS
  1
DICTIONARYVAR
  2
AcDbDictionaryVar
  3
"AutoCAD"
 90
        0
280
               0
281
               0
  0
CLASS
  1
RASTERVARIABLES
  2
AcDbRasterVariables
  3
ISM
 90
        0
280
               0
281
               0
  0
CLASS
  1
IMAGEDEF
  2
AcDbRasterImageDef
  3
ISM
 90
        0
280
               0
281
               0
  0
CLASS
  1
IMAGEDEF_REACTOR
  2
AcDbRasterImageDefReactor
  3
ISM
 90
        1
280
               0
281
               0
  0
CLASS
  1
IDBUFFER
  2
AcDbIdBuffer
  3
"Acad"
 90
        0
280
               0
281
               0
  0
CLASS
  1
SPATIAL_FILTER
  2
AcDbSpatialFilter
  3
"Acad"
 90
        0
280
               0
281
               0
  0
CLASS
  1
XRECORD
  2
AcDbXrecord
  3
"<Built In>"
 90
        0
280
               0
281
               0
  0
CLASS
  1
SORTENTSTABLE
  2
AcDbSortentsTable
  3
"AutoCAD"
 90
        0
280
               0
281
               0
  0
CLASS
  1
LAYER_INDEX
  2
AcDbLayerIndex
  3
"Acad"
 90
        0
280
               0
281
               0
  0
CLASS
  1
SPATIAL_INDEX
  2
AcDbSpatialIndex
  3
"Acad"
 90
        0
280
               0
281
               0
  0
CLASS
  1
OBJECT_PTR
  2
CAseDLPNTableRecord
  3
"ASE-LPNTableRecord"
 90
        1
280
               0
281
               0
  0
CLASS
  1
LAYOUT
  2
AcDbLayout
  3
"AutoCAD 2000"
 90
        1
280
               0
281
               0
  0
CLASS
  1
PLOTSETTINGS
  2
AcDbPlotSettings
  3
"AutoCAD 2000"
 90
        1
280
               0
281
               0
  0
CLASS
  1
ACDBDICTIONARYWDFLT
  2
AcDbDictionaryWithDefault
  3
"AutoCAD 2000"
 90
        1
280
               0
281
               0
  0
CLASS
  1
ACDBPLACEHOLDER
  2
AcDbPlaceHolder
  3
"AutoCAD 2000"
 90
        1
280
               0
281
               0
  0
ENDSEC
  0
SECTION
  2
TABLES
  0
TABLE
  2
VPORT
  5
7
100
AcDbSymbolTable
 70
               1
  0
VPORT
  5
15
100
AcDbSymbolTableRecord
100
AcDbViewportTableRecord
  2
*ACTIVE
 70
               0
 10
0.0
 20
0.0
 11
1.0
 21
1.0
 12
2.1909588738748766
 22
0.25
 13
0.0
 23
0.0
 14
1.0
 24
1.0
 15
0.0
 25
0.0
 16
0.0
 26
0.0
 36
1.0
 17
0.0
 27
0.0
 37
0.0
 40
394.40500000000003
 41
1.7320508075688772
 42
50.0
 43
0.0
 44
0.0
 50
0.0
 51
0.0
 71
               0
 72
             100
 73
               1
 74
               1
 75
               0
 76
               0
 77
               0
 78
               0
  0
ENDTAB
  0
TABLE
  2
LTYPE
  5
4
100
AcDbSymbolTable
 70
               5
  0
LTYPE
  5
11
100
AcDbSymbolTableRecord
100
AcDbLinetypeTableRecord
  2
BYBLOCK
 70
              64
  3

 72
              65
 73
               0
 40
0.0
  0
LTYPE
  5
12
100
AcDbSymbolTableRecord
100
AcDbLinetypeTableRecord
  2
BYLAYER
 70
              64
  3

 72
              65
 73
               0
 40
0.0
  0
LTYPE
  5
13
100
AcDbSymbolTableRecord
100
AcDbLinetypeTableRecord
  2
CONTINUOUS
 70
              64
  3
Solid line
 72
              65
 73
               0
 40
0.0
  0
LTYPE
  5
2A
100
AcDbSymbolTableRecord
100
AcDbLinetypeTableRecord
  2
PHANTOM
 70
              64
  3
Phantom ______  __  __  ______  __  __  ______
 72
              65
 73
               6
 40
30.0
 49
20.0
 74
               0
 49
-2.0
 74
               0
 49
2.0
 74
               0
 49
-2.0
 74
               0
 49
2.0
 74
               0
 49
-2.0
 74
               0
  0
LTYPE
  5
33
100
AcDbSymbolTableRecord
100
AcDbLinetypeTableRecord
  2
CENTER
 70
              64
  3
Center ____ _ ____ _ ____ _ ____ _ ____ _ ____
 72
              65
 73
               4
 40
26.0
 49
20.0
 74
               0
 49
-2.0
 74
               0
 49
2.0
 74
               0
 49
-2.0
 74
               0
  0
ENDTAB
  0
TABLE
  2
LAYER
  5
2
100
AcDbSymbolTable
 70
               2
  0
LAYER
  5
14
100
AcDbSymbolTableRecord
100
AcDbLayerTableRecord
  2
0
 70
               0
 62
               7
  6
CONTINUOUS
  0
LAYER
  5
1D
100
AcDbSymbolTableRecord
100
AcDbLayerTableRecord
  2
DEFPOINTS
 70
               0
 62
               7
  6
CONTINUOUS
  0
ENDTAB
  0
TABLE
  2
STYLE
  5
3
100
AcDbSymbolTable
 70
               1
  0
STYLE
  5
17
100
AcDbSymbolTableRecord
100
AcDbTextStyleTableRecord
  2
MX_NOTE_STANDARD
 70
               0
 40
0.0
 41
1.0
 50
0.0
 71
               0
 42
3.2000000476837158
  3
txt.shx
  4
extfont.shx
  0
ENDTAB
  0
TABLE
  2
VIEW
  5
5
100
AcDbSymbolTable
 70
               0
  0
ENDTAB
  0
TABLE
  2
UCS
  5
6
100
AcDbSymbolTable
 70
               0
  0
ENDTAB
  0
TABLE
  2
APPID
  5
8
100
AcDbSymbolTable
 70
               1
  0
APPID
  5
16
100
AcDbSymbolTableRecord
100
AcDbRegAppTableRecord
  2
ACAD
 70
               0
  0
ENDTAB
  0
TABLE
  2
DIMSTYLE
  5
9
100
AcDbSymbolTable
 70
               1
  0
DIMSTYLE
105
18
100
AcDbSymbolTableRecord
100
AcDbDimStyleTableRecord
  2
MXDIMSTYLE
 70
               0
  3

  4

  5

  6

  7

 40
1.0
 41
2.5
 42
1.5
 43
3.75
 44
1.5
 45
0.0
 46
0.0
 47
0.0
 48
0.0
 71
               0
 72
               0
 73
               0
 74
               0
 75
               0
 76
               0
 77
               1
 78
               8
140
3.2000000476837158
141
2.5
142
0.0
143
0.03937007874016
144
1.0
145
0.0
146
1.0
147
1.0
170
               0
171
               4
172
               1
173
               0
174
               0
175
               0
176
               0
177
               0
178
               0
270
               2
271
               4
272
               4
273
               2
274
               4
275
               0
280
               0
281
               0
282
               0
283
               1
284
               0
285
               0
286
               0
287
               3
288
               1
340
17
  0
ENDTAB
  0
TABLE
  2
BLOCK_RECORD
  5
1
100
AcDbSymbolTable
 70
              12
  0
BLOCK_RECORD
  5
A
100
AcDbSymbolTableRecord
100
AcDbBlockTableRecord
  2
*MODEL_SPACE
  0
BLOCK_RECORD
  5
B
100
AcDbSymbolTableRecord
100
AcDbBlockTableRecord
  2
*PAPER_SPACE
  0
BLOCK_RECORD
  5
1E
100
AcDbSymbolTableRecord
100
AcDbBlockTableRecord
  2
ZS6RS-1
  0
BLOCK_RECORD
  5
1F
100
AcDbSymbolTableRecord
100
AcDbBlockTableRecord
  2
ZS6RS-2
  0
BLOCK_RECORD
  5
20
100
AcDbSymbolTableRecord
100
AcDbBlockTableRecord
  2
ZS6RS-3
  0
BLOCK_RECORD
  5
21
100
AcDbSymbolTableRecord
100
AcDbBlockTableRecord
  2
ZS6RS-4
  0
BLOCK_RECORD
  5
22
100
AcDbSymbolTableRecord
100
AcDbBlockTableRecord
  2
ZS6RS-5
  0
BLOCK_RECORD
  5
23
100
AcDbSymbolTableRecord
100
AcDbBlockTableRecord
  2
ZS6RS-6
  0
BLOCK_RECORD
  5
24
100
AcDbSymbolTableRecord
100
AcDbBlockTableRecord
  2
ZS6RS-7
  0
BLOCK_RECORD
  5
25
100
AcDbSymbolTableRecord
100
AcDbBlockTableRecord
  2
ZS6RS-8
  0
BLOCK_RECORD
  5
26
100
AcDbSymbolTableRecord
100
AcDbBlockTableRecord
  2
ZS6RS-9
  0
BLOCK_RECORD
  5
27
100
AcDbSymbolTableRecord
100
AcDbBlockTableRecord
  2
ZS6RS-10
  0
BLOCK_RECORD
  5
28
100
AcDbSymbolTableRecord
100
AcDbBlockTableRecord
  2
ZS6RS-11
  0
BLOCK_RECORD
  5
46B
100
AcDbSymbolTableRecord
100
AcDbBlockTableRecord
  2
_OPEN30
  0
ENDTAB
  0
ENDSEC
  0
SECTION
  2
BLOCKS
  0
BLOCK
  5
D
100
AcDbEntity
  8
0
100
AcDbBlockBegin
  2
*MODEL_SPACE
 70
               0
 10
0.0
 20
0.0
 30
0.0
  3
*MODEL_SPACE
  1

  0
ENDBLK
  5
E
100
AcDbEntity
  8
0
100
AcDbBlockEnd
  0
BLOCK
  5
F
100
AcDbEntity
 67
               1
  8
0
100
AcDbBlockBegin
  2
*PAPER_SPACE
 70
               0
 10
0.0
 20
0.0
 30
0.0
  3
*PAPER_SPACE
  1

  0
ENDBLK
  5
10
100
AcDbEntity
 67
               1
  8
0
100
AcDbBlockEnd
  0
BLOCK
  5
29
100
AcDbEntity
  8
0
100
AcDbBlockBegin
  2
ZS6RS-1
 70
               0
 10
0.0
 20
0.0
 30
0.0
  3
ZS6RS-1
  1

  0
LINE
  5
2B
100
AcDbEntity
  8
0
  6
PHANTOM
 62
               3
100
AcDbLine
 10
80.0
 20
42.055513627132939
 30
0.0
 11
80.0
 21
-75.999999999999986
 31
0.0
  0
LINE
  5
2C
100
AcDbEntity
  8
0
  6
CONTINUOUS
 62
               4
100
AcDbLine
 10
38.999999983193447
 20
-18.499999999999972
 30
0.0
 11
44.999999983193447
 21
-18.499999999999972
 31
0.0
  0
LINE
  5
2D
100
AcDbEntity
  8
0
  6
CONTINUOUS
 62
               4
100
AcDbLine
 10
42.721687833600242
 20
-20.750000004999976
 30
0.0
 11
43.443375667200542
 21
-21.999999999999972
 31
0.0
  0
LINE
  5
2E
100
AcDbEntity
  8
0
  6
CONTINUOUS
 62
               4
100
AcDbLine
 10
41.278312166399701
 20
-20.750000004999976
 30
0.0
 11
42.721687833600242
 21
-20.750000004999976
 31
0.0
  0
LINE
  5
2F
100
AcDbEntity
  8
0
  6
CONTINUOUS
 62
               4
100
AcDbLine
 10
41.278312166399701
 20
-20.750000004999976
 30
0.0
 11
40.556624332799402
 21
-21.999999999999972
 31
0.0
  0
LINE
  5
30
100
AcDbEntity
  8
0
  6
CONTINUOUS
 62
               4
100
AcDbLine
 10
41.278312166399701
 20
-23.249999994999968
 30
0.0
 11
40.556624332799402
 21
-21.999999999999972
 31
0.0
  0
LINE
  5
31
100
AcDbEntity
  8
0
  6
CONTINUOUS
 62
               4
100
AcDbLine
 10
41.278312166399701
 20
-23.249999994999968
 30
0.0
 11
42.721687833600242
 21
-23.249999994999968
 31
0.0
  0
LINE
  5
32
100
AcDbEntity
  8
0
  6
CONTINUOUS
 62
               4
100
AcDbLine
 10
42.721687833600242
 20
-23.249999994999968
 30
0.0
 11
43.443375667200542
 21
-21.999999999999972
 31
0.0
  0
LINE
  5
34
100
AcDbEntity
  8
0
  6
CENTER
 62
             200
100
AcDbLine
 10
42.0
 20
-17.749999999999972
 30
0.0
 11
42.0
 21
-26.249999999999972
 31
0.0
  0
LINE
  5
35
100
AcDbEntity
  8
0
  6
CENTER
 62
             200
100
AcDbLine
 10
46.25
 20
-21.999999999999972
 30
0.0
 11
37.75
 21
-21.999999999999972
 31
0.0
  0
CIRCLE
  5
36
100
AcDbEntity
  8
0
  6
CONTINUOUS
 62
               4
100
AcDbCircle
 10
42.0
 20
-21.999999999999972
 30
0.0
 40
2.75
  0
LINE
  5
37
100
AcDbEntity
  8
0
  6
CONTINUOUS
 62
               4
100
AcDbLine
 10
96.0
 20
-13.5
 30
0.0
 11
95.0
 21
-13.5
 31
0.0
  0
LINE
  5
38
100
AcDbEntity
  8
0
  6
CONTINUOUS
 62
               4
100
AcDbLine
 10
96.0
 20
-17.5
 30
0.0
 11
95.0
 21
-17.5
 31
0.0
  0
LINE
  5
39
100
AcDbEntity
  8
0
  6
CONTINUOUS
 62
               4
100
AcDbLine
 10
95.0
 20
-13.5
 30
0.0
 11
95.0
 21
-17.5
 31
0.0
  0
LINE
  5
3A
100
AcDbEntity
  8
0
  6
CONTINUOUS
 62
               4
100
AcDbLine
 10
96.0
 20
10.5
 30
0.0
 11
96.0
 21
-19.5
 31
0.0
  0
LINE
  5
3B
100
AcDbEntity
  8
0
  6
CONTINUOUS
 62
               4
100
AcDbLine
 10
99.5
 20
-10.5
 30
0.0
 11
108.0
 21
-10.5
 31
0.0
  0
LINE
  5
3C
100
AcDbEntity
  8
0
  6
CONTINUOUS
 62
             200
100
AcDbLine
 10
103.5
 20
-2.5999999999999943
 30
0.0
 11
99.5
 21
-2.5999999999999943
 31
0.0
  0
LINE
  5
3D
100
AcDbEntity
  8
0
  6
CONTINUOUS
 62
             200
100
AcDbLine
 10
103.5
 20
2.5999999999999943
 30
0.0
 11
99.5
 21
2.5999999999999943
 31
0.0
  0
LINE
  5
3E
100
AcDbEntity
  8
0
  6
CONTINUOUS
 62
               4
100
AcDbLine
 10
116.5
 20
-3.0
 30
0.0
 11
116.5
 21
-0.5999999999999943
 31
0.0
  0
LINE
  5
3F
100
AcDbEntity
  8
0
  6
CONTINUOUS
 62
               4
100
AcDbLine
 10
116.5
 20
-3.0
 30
0.0
 11
117.0
 21
-2.5
 31
0.0
  0
LINE
  5
40
100
AcDbEntity
  8
0
  6
CONTINUOUS
 62
               4
100
AcDbLine
 10
117.0
 20
-0.5999999999999943
 30
0.0
 11
115.0
 21
-0.5999999999999943
 31
0.0
  0
LINE
  5
41
100
AcDbEntity
  8
0
  6
CONTINUOUS
 62
               4
100
AcDbLine
 10
117.0
 20
-2.5
 30
0.0
 11
117.0
 21
-0.5999999999999943
 31
0.0
  0
LINE
  5
42
100
AcDbEntity
  8
0
  6
CONTINUOUS
 62
               4
100
AcDbLine
 10
116.5
 20
-3.0
 30
0.0
 11
110.0
 21
-3.0
 31
0.0
  0
LINE
  5
43
100
AcDbEntity
  8
0
  6
CONTINUOUS
 62
             200
100
AcDbLine
 10
116.89999999999998
 20
-2.5999999999999943
 30
0.0
 11
110.0
 21
-2.5999999999999943
 31
0.0
  0
LINE
  5
44
100
AcDbEntity
  8
0
  6
CONTINUOUS
 62
               4
100
AcDbLine
 10
116.5
 20
3.0
 30
0.0
 11
116.5
 21
0.5999999999999943
 31
0.0
  0
LINE
  5
45
100
AcDbEntity
  8
0
  6
CONTINUOUS
 62
               4
100
AcDbLine
 10
117.0
 20
2.5
 30
0.0
 11
116.5
 21
3.0
 31
0.0
  0
LINE
  5
46
100
AcDbEntity
  8
0
  6
CONTINUOUS
 62
               4
100
AcDbLine
 10
117.0
 20
0.5999999999999943
 30
0.0
 11
115.0
 21
0.5999999999999943
 31
0.0
  0
LINE
  5
47
100
AcDbEntity
  8
0
  6
CONTINUOUS
 62
               4
100
AcDbLine
 10
117.0
 20
2.5
 30
0.0
 11
117.0
 21
0.5999999999999943
 31
0.0
  0
LINE
  5
48
100
AcDbEntity
  8
0
  6
CONTINUOUS
 62
               4
100
AcDbLine
 10
116.5
 20
3.0
 30
0.0
 11
110.0
 21
3.0
 31
0.0
  0
LINE
  5
49
100
AcDbEntity
  8
0
  6
CONTINUOUS
 62
             200
100
AcDbLine
 10
116.89999999999998
 20
2.5999999999999943
 30
0.0
 11
110.0
 21
2.5999999999999943
 31
0.0
  0
LINE
  5
4A
100
AcDbEntity
  8
0
  6
CONTINUOUS
 62
               4
100
AcDbLine
 10
115.0
 20
0.5999999999999943
 30
0.0
 11
115.0
 21
-0.5999999999999943
 31
0.0
  0
LINE
  5
4B
100
AcDbEntity
  8
0
  6
CONTINUOUS
 62
               4
100
AcDbLine
 10
101.5
 20
-19.5
 30
0.0
 11
99.5
 21
-19.5
 31
0.0
  0
LINE
  5
4C
100
AcDbEntity
  8
0
  6
CONTINUOUS
 62
               4
100
AcDbLine
 10
101.5
 20
-11.5
 30
0.0
 11
99.5
 21
-11.5
 31
0.0
  0
LINE
  5
4D
100
AcDbEntity
  8
0
  6
CONTINUOUS
 62
               4
100
AcDbLine
 10
115.5
 20
-12.5
 30
0.0
 11
101.5
 21
-12.5
 31
0.0
  0
LINE
  5
4E
100
AcDbEntity
  8
0
  6
CONTINUOUS
 62
             200
100
AcDbLine
 10
115.89999999999998
 20
-12.900000000000006
 30
0.0
 11
101.5
 21
-12.900000000000006
 31
0.0
  0
LINE
  5
4F
100
AcDbEntity
  8
0
  6
CONTINUOUS
 62
               4
100
AcDbLine
 10
101.1427344100918
 20
-15.5
 30
0.0
 11
99.5
 21
-15.5
 31
0.0
  0
LINE
  5
50
100
AcDbEntity
  8
0
  6
CONTINUOUS
 62
               4
100
AcDbLine
 10
115.5
 20
-18.5
 30
0.0
 11
101.5
 21
-18.5
 31
0.0
  0
LINE
  5
51
100
AcDbEntity
  8
0
  6
CONTINUOUS
 62
             200
100
AcDbLine
 10
115.89999999999998
 20
-18.099999999999994
 30
0.0
 11
101.5
 21
-18.099999999999994
 31
0.0
  0
LINE
  5
52
100
AcDbEntity
  8
0
  6
CONTINUOUS
 62
               4
100
AcDbLine
 10
116.0
 20
-13.0
 30
0.0
 11
116.0
 21
-14.900000000000006
 31
0.0
  0
LINE
  5
53
100
AcDbEntity
  8
0
  6
CONTINUOUS
 62
               4
100
AcDbLine
 10
116.0
 20
-18.0
 30
0.0
 11
116.0
 21
-16.099999999999994
 31
0.0
  0
LINE
  5
54
100
AcDbEntity
  8
0
  6
CONTINUOUS
 62
               4
100
AcDbLine
 10
116.0
 20
-14.900000000000006
 30
0.0
 11
114.0
 21
-14.900000000000006
 31
0.0
  0
LINE
  5
55
100
AcDbEntity
  8
0
  6
CONTINUOUS
 62
               4
100
AcDbLine
 10
114.0
 20
-14.900000000000006
 30
0.0
 11
114.0
 21
-16.099999999999994
 31
0.0
  0
LINE
  5
56
100
AcDbEntity
  8
0
  6
CONTINUOUS
 62
               4
100
AcDbLine
 10
116.0
 20
-16.099999999999994
 30
0.0
 11
114.0
 21
-16.099999999999994
 31
0.0
  0
LINE
  5
57
100
AcDbEntity
  8
0
  6
CONTINUOUS
 62
               4
100
AcDbLine
 10
116.0
 20
-13.0
 30
0.0
 11
115.5
 21
-12.5
 31
0.0
  0
LINE
  5
58
100
AcDbEntity
  8
0
  6
CONTINUOUS
 62
               4
100
AcDbLine
 10
115.5
 20
-18.5
 30
0.0
 11
116.0
 21
-18.0
 31
0.0
  0
LINE
  5
59
100
AcDbEntity
  8
0
  6
CONTINUOUS
 62
               4
100
AcDbLine
 10
115.5
 20
-12.5
 30
0.0
 11
115.5
 21
-14.900000000000006
 31
0.0
  0
LINE
  5
5A
100
AcDbEntity
  8
0
  6
CONTINUOUS
 62
               4
100
AcDbLine
 10
115.5
 20
-18.5
 30
0.0
 11
115.5
 21
-16.099999999999994
 31
0.0
  0
ARC
  5
5B
100
AcDbEntity
  8
0
  6
CONTINUOUS
 62
               4
100
AcDbCircle
 10
95.723290993692615
 20
-17.5
 30
0.0
 40
5.7767090063073505
100
AcDbArc
 50
339.74384199958354
 51
20.256158000416459
  0
ARC
  5
5C
100
AcDbEntity
  8
0
  6
CONTINUOUS
 62
               4
100
AcDbCircle
 10
95.723290993692615
 20
-13.5
 30
0.0
 40
5.7767090063073505
100
AcDbArc
 50
339.74384199958274
 51
20.256158000416459
  0
LINE
  5
5D
100
AcDbEntity
  8
0
  6
CONTINUOUS
 62
               4
100
AcDbLine
 10
101.5
 20
-11.5
 30
0.0
 11
101.5
 21
-19.5
 31
0.0
  0
LINE
  5
5E
100
AcDbEntity
  8
0
  6
CONTINUOUS
 62
               4
100
AcDbLine
 10
99.5
 20
10.499999999413717
 30
0.0
 11
99.5
 21
-19.5
 31
0.0
  0
LINE
  5
5F
100
AcDbEntity
  8
0
  6
CONTINUOUS
 62
               4
100
AcDbLine
 10
103.5
 20
10.5
 30
0.0
 11
103.5
 21
-10.5
 31
0.0
  0
LINE
  5
60
100
AcDbEntity
  8
0
  6
CONTINUOUS
 62
               4
100
AcDbLine
 10
108.0
 20
10.5
 30
0.0
 11
108.0
 21
-10.5
 31
0.0
  0
LINE
  5
61
100
AcDbEntity
  8
0
  6
CONTINUOUS
 62
               4
100
AcDbLine
 10
110.0
 20
4.0
 30
0.0
 11
108.0
 21
4.0
 31
0.0
  0
LINE
  5
62
100
AcDbEntity
  8
0
  6
CONTINUOUS
 62
               4
100
AcDbLine
 10
110.0
 20
-4.0
 30
0.0
 11
108.0
 21
-4.0
 31
0.0
  0
LINE
  5
63
100
AcDbEntity
  8
0
  6
CONTINUOUS
 62
               4
100
AcDbLine
 10
109.6427344100918
 20
0.0
 30
0.0
 11
108.0
 21
0.0
 31
0.0
  0
ARC
  5
64
100
AcDbEntity
  8
0
  6
CONTINUOUS
 62
               4
100
AcDbCircle
 10
104.22329099369261
 20
-2.0
 30
0.0
 40
5.7767090063073505
100
AcDbArc
 50
339.74384199958354
 51
20.256158000416459
  0
ARC
  5
65
100
AcDbEntity
  8
0
  6
CONTINUOUS
 62
               4
100
AcDbCircle
 10
104.22329099369261
 20
2.0
 30
0.0
 40
5.7767090063073505
100
AcDbArc
 50
339.74384199958274
 51
20.256158000416459
  0
LINE
  5
66
100
AcDbEntity
  8
0
  6
CONTINUOUS
 62
               4
100
AcDbLine
 10
110.0
 20
4.0
 30
0.0
 11
110.0
 21
-4.0
 31
0.0
  0
LINE
  5
67
100
AcDbEntity
  8
0
  6
CONTINUOUS
 62
               4
100
AcDbLine
 10
99.5
 20
-9.25
 30
0.0
 11
102.5
 21
-9.25
 31
0.0
  0
LINE
  5
68
100
AcDbEntity
  8
0
  6
CONTINUOUS
 62
               4
100
AcDbLine
 10
99.5
 20
-3.75
 30
0.0
 11
102.5
 21
-3.75
 31
0.0
  0
LINE
  5
69
100
AcDbEntity
  8
0
  6
CONTINUOUS
 62
               4
100
AcDbLine
 10
102.5
 20
-9.25
 30
0.0
 11
102.5
 21
-3.75
 31
0.0
  0
LINE
  5
6A
100
AcDbEntity
  8
0
  6
CONTINUOUS
 62
               4
100
AcDbLine
 10
103.5
 20
3.0
 30
0.0
 11
99.5
 21
3.0
 31
0.0
  0
LINE
  5
6B
100
AcDbEntity
  8
0
  6
CONTINUOUS
 62
               4
100
AcDbLine
 10
103.5
 20
-3.0
 30
0.0
 11
99.5
 21
-3.0
 31
0.0
  0
LINE
  5
6C
100
AcDbEntity
  8
0
  6
CONTINUOUS
 62
               4
100
AcDbLine
 10
99.5
 20
3.75
 30
0.0
 11
102.5
 21
3.75
 31
0.0
  0
LINE
  5
6D
100
AcDbEntity
  8
0
  6
CONTINUOUS
 62
               4
100
AcDbLine
 10
102.5
 20
9.25
 30
0.0
 11
102.5
 21
3.75
 31
0.0
  0
LINE
  5
6E
100
AcDbEntity
  8
0
  6
CONTINUOUS
 62
               4
100
AcDbLine
 10
99.5
 20
9.25
 30
0.0
 11
102.5
 21
9.25
 31
0.0
  0
LINE
  5
6F
100
AcDbEntity
  8
0
  6
CENTER
 62
             200
100
AcDbLine
 10
92.25
 20
6.5
 30
0.0
 11
103.25
 21
6.5
 31
0.0
  0
LINE
  5
70
100
AcDbEntity
  8
0
  6
CONTINUOUS
 62
               4
100
AcDbLine
 10
96.0
 20
-8.8005622909908823
 30
0.0
 11
99.499999983193447
 21
-8.8005622909908823
 31
0.0
  0
LINE
  5
71
100
AcDbEntity
  8
0
  6
CONTINUOUS
 62
               4
100
AcDbLine
 10
99.5
 20
-19.5
 30
0.0
 11
96.0
 21
-19.5
 31
0.0
  0
LINE
  5
72
100
AcDbEntity
  8
0
  6
CENTER
 62
             200
100
AcDbLine
 10
116.64999999999998
 20
-15.5
 30
0.0
 11
94.149999999999977
 21
-15.5
 31
0.0
  0
LINE
  5
73
100
AcDbEntity
  8
0
  6
CENTER
 62
             200
100
AcDbLine
 10
92.25
 20
-6.5
 30
0.0
 11
103.25
 21
-6.5
 31
0.0
  0
LINE
  5
74
100
AcDbEntity
  8
0
  6
CENTER
 62
               2
100
AcDbLine
 10
-0.75
 20
15.5
 30
0.0
 11
8.75
 21
15.5
 31
0.0
  0
ARC
  5
75
100
AcDbEntity
  8
0
  6
CONTINUOUS
 62
               7
100
AcDbCircle
 10
11.054620380518941
 20
13.75
 30
0.0
 40
5.054620380518986
100
AcDbArc
 50
166.66379274629222
 51
193.33620725719518
  0
LINE
  5
76
100
AcDbEntity
  8
0
  6
CONTINUOUS
 62
               7
100
AcDbLine
 10
6.1363064223461379
 20
16.084077658611932
 30
0.0
 11
6.1363064223461379
 21
14.915922375876107
 31
0.0
  0
LINE
  5
77
100
AcDbEntity
  8
0
  6
CONTINUOUS
 62
               7
100
AcDbLine
 10
6.1363064223461379
 20
12.584077618363892
 30
0.0
 11
6.1363064223461379
 21
12.0
 31
0.0
  0
ARC
  5
78
100
AcDbEntity
  8
0
  6
CONTINUOUS
 62
               7
100
AcDbCircle
 10
11.054620380518941
 20
17.25
 30
0.0
 40
5.054620380518986
100
AcDbArc
 50
166.66379274280408
 51
193.33620725370696
  0
LINE
  5
79
100
AcDbEntity
  8
0
  6
CONTINUOUS
 62
               7
100
AcDbLine
 10
6.1363064223461379
 20
18.415922381636108
 30
0.0
 11
6.1363064223461379
 21
19.0
 31
0.0
  0
LINE
  5
7A
100
AcDbEntity
  8
0
  6
CONTINUOUS
 62
               7
100
AcDbLine
 10
6.1363064218118097
 20
18.415922381636108
 30
0.0
 11
7.9999999869420435
 21
18.415922381636108
 31
0.0
  0
LINE
  5
7B
100
AcDbEntity
  8
0
  6
CONTINUOUS
 62
               7
100
AcDbLine
 10
6.0
 20
19.0
 30
0.0
 11
8.0
 21
19.0
 31
0.0
  0
LINE
  5
7C
100
AcDbEntity
  8
0
  6
CONTINUOUS
 62
               7
100
AcDbLine
 10
6.1363064218118097
 20
16.084077654170017
 30
0.0
 11
8.0
 21
16.084077654170017
 31
0.0
  0
LINE
  5
7D
100
AcDbEntity
  8
0
  6
CONTINUOUS
 62
               7
100
AcDbLine
 10
6.1363064218118097
 20
14.915922381336685
 30
0.0
 11
8.0
 21
14.915922381336685
 31
0.0
  0
LINE
  5
7E
100
AcDbEntity
  8
0
  6
CONTINUOUS
 62
               7
100
AcDbLine
 10
6.1363064218118097
 20
12.584077618363892
 30
0.0
 11
7.9999999869420435
 21
12.584077618363892
 31
0.0
  0
LINE
  5
7F
100
AcDbEntity
  8
0
  6
CONTINUOUS
 62
               7
100
AcDbLine
 10
6.0
 20
12.0
 30
0.0
 11
8.0
 21
12.0
 31
0.0
  0
ARC
  5
80
100
AcDbEntity
  8
0
  6
CONTINUOUS
 62
               7
100
AcDbCircle
 10
11.054620380518941
 20
-13.75
 30
0.0
 40
5.054620380518986
100
AcDbArc
 50
166.66379274280408
 51
193.33620725370696
  0
LINE
  5
81
100
AcDbEntity
  8
0
  6
CONTINUOUS
 62
               7
100
AcDbLine
 10
6.1363064223461379
 20
-16.084077658611903
 30
0.0
 11
6.1363064223461379
 21
-14.915922375876079
 31
0.0
  0
LINE
  5
82
100
AcDbEntity
  8
0
  6
CONTINUOUS
 62
               7
100
AcDbLine
 10
6.1363064223461379
 20
-12.584077618363892
 30
0.0
 11
6.1363064223461379
 21
-12.0
 31
0.0
  0
ARC
  5
83
100
AcDbEntity
  8
0
  6
CONTINUOUS
 62
               7
100
AcDbCircle
 10
11.054620380518941
 20
-17.25
 30
0.0
 40
5.054620380518986
100
AcDbArc
 50
166.66379274629222
 51
193.33620725719518
  0
LINE
  5
84
100
AcDbEntity
  8
0
  6
CONTINUOUS
 62
               7
100
AcDbLine
 10
6.1363064223461379
 20
-18.415922381636108
 30
0.0
 11
6.1363064223461379
 21
-19.0
 31
0.0
  0
LINE
  5
85
100
AcDbEntity
  8
0
  6
CONTINUOUS
 62
               7
100
AcDbLine
 10
6.1363064218118097
 20
-18.415922381636108
 30
0.0
 11
7.9999999869420435
 21
-18.415922381636108
 31
0.0
  0
LINE
  5
86
100
AcDbEntity
  8
0
  6
CONTINUOUS
 62
               7
100
AcDbLine
 10
6.0
 20
-19.0
 30
0.0
 11
8.0
 21
-19.0
 31
0.0
  0
LINE
  5
87
100
AcDbEntity
  8
0
  6
CONTINUOUS
 62
               7
100
AcDbLine
 10
6.1363064218118097
 20
-16.084077654170002
 30
0.0
 11
8.0
 21
-16.084077654170002
 31
0.0
  0
LINE
  5
88
100
AcDbEntity
  8
0
  6
CONTINUOUS
 62
               7
100
AcDbLine
 10
6.1363064218118097
 20
-14.915922381336671
 30
0.0
 11
8.0
 21
-14.915922381336671
 31
0.0
  0
LINE
  5
89
100
AcDbEntity
  8
0
  6
CONTINUOUS
 62
               7
100
AcDbLine
 10
6.1363064218118097
 20
-12.584077618363892
 30
0.0
 11
7.9999999869420435
 21
-12.584077618363892
 31
0.0
  0
LINE
  5
8A
100
AcDbEntity
  8
0
  6
CONTINUOUS
 62
               7
100
AcDbLine
 10
6.0
 20
-12.0
 30
0.0
 11
8.0
 21
-12.0
 31
0.0
  0
LINE
  5
8B
100
AcDbEntity
  8
0
  6
CONTINUOUS
 62
               7
100
AcDbLine
 10
93.0
 20
20.436140661634653
 30
0.0
 11
93.0
 21
26.0
 31
0.0
  0
LINE
  5
8C
100
AcDbEntity
  8
0
  6
CONTINUOUS
 62
               7
100
AcDbLine
 10
92.699999999999989
 20
17.563859338365631
 30
0.0
 11
92.699999999999989
 21
20.436140661634653
 31
0.0
  0
LINE
  5
8D
100
AcDbEntity
  8
0
  6
CONTINUOUS
 62
               7
100
AcDbLine
 10
92.700000004823437
 20
20.436140661634653
 30
0.0
 11
93.0
 21
20.436140661634653
 31
0.0
  0
LINE
  5
8E
100
AcDbEntity
  8
0
  6
CONTINUOUS
 62
               7
100
AcDbLine
 10
92.700000004823437
 20
17.563859338365631
 30
0.0
 11
92.999999986942044
 21
17.563859338365631
 31
0.0
  0
LINE
  5
8F
100
AcDbEntity
  8
0
  6
CENTER
 62
               2
100
AcDbLine
 10
91.949999999999989
 20
19.0
 30
0.0
 11
95.189999999999941
 21
19.0
 31
0.0
  0
LINE
  5
90
100
AcDbEntity
  8
0
  6
CONTINUOUS
 62
               7
100
AcDbLine
 10
93.0
 20
-20.436140661634639
 30
0.0
 11
93.0
 21
-26.0
 31
0.0
  0
LINE
  5
91
100
AcDbEntity
  8
0
  6
CONTINUOUS
 62
               7
100
AcDbLine
 10
92.699999999999989
 20
-17.563859338365617
 30
0.0
 11
92.699999999999989
 21
-20.436140661634639
 31
0.0
  0
LINE
  5
92
100
AcDbEntity
  8
0
  6
CONTINUOUS
 62
               7
100
AcDbLine
 10
92.700000004823437
 20
-20.436140661634639
 30
0.0
 11
93.0
 21
-20.436140661634639
 31
0.0
  0
LINE
  5
93
100
AcDbEntity
  8
0
  6
CONTINUOUS
 62
               7
100
AcDbLine
 10
92.700000004823437
 20
-17.563859338365617
 30
0.0
 11
92.999999986942044
 21
-17.563859338365617
 31
0.0
  0
LINE
  5
94
100
AcDbEntity
  8
0
  6
CENTER
 62
             200
100
AcDbLine
 10
71.0
 20
-6.5
 30
0.0
 11
79.0
 21
-6.5
 31
0.0
  0
CIRCLE
  5
95
100
AcDbEntity
  8
0
  6
CONTINUOUS
 62
               4
100
AcDbCircle
 10
75.0
 20
-6.5
 30
0.0
 40
1.7
  0
LINE
  5
96
100
AcDbEntity
  8
0
  6
CENTER
 62
             200
100
AcDbLine
 10
75.0
 20
-2.5
 30
0.0
 11
75.0
 21
-10.5
 31
0.0
  0
CIRCLE
  5
97
100
AcDbEntity
  8
0
  6
CONTINUOUS
 62
               4
100
AcDbCircle
 10
75.0
 20
-6.5
 30
0.0
 40
3.25
  0
CIRCLE
  5
98
100
AcDbEntity
  8
0
  6
CONTINUOUS
 62
               4
100
AcDbCircle
 10
75.0
 20
6.5
 30
0.0
 40
1.7
  0
LINE
  5
99
100
AcDbEntity
  8
0
  6
CENTER
 62
             200
100
AcDbLine
 10
71.0
 20
6.5
 30
0.0
 11
79.0
 21
6.5
 31
0.0
  0
LINE
  5
9A
100
AcDbEntity
  8
0
  6
CENTER
 62
             200
100
AcDbLine
 10
75.0
 20
2.5
 30
0.0
 11
75.0
 21
10.5
 31
0.0
  0
CIRCLE
  5
9B
100
AcDbEntity
  8
0
  6
CONTINUOUS
 62
               4
100
AcDbCircle
 10
75.0
 20
6.5
 30
0.0
 40
3.25
  0
LINE
  5
9C
100
AcDbEntity
  8
0
  6
CENTER
 62
               2
100
AcDbLine
 10
82.25
 20
-6.5
 30
0.0
 11
87.75
 21
-6.5
 31
0.0
  0
LINE
  5
9D
100
AcDbEntity
  8
0
  6
CENTER
 62
               2
100
AcDbLine
 10
82.25
 20
6.5
 30
0.0
 11
87.75
 21
6.5
 31
0.0
  0
LINE
  5
9E
100
AcDbEntity
  8
0
  6
CENTER
 62
               2
100
AcDbLine
 10
41.0
 20
6.5
 30
0.0
 11
49.0
 21
6.5
 31
0.0
  0
LINE
  5
9F
100
AcDbEntity
  8
0
  6
CENTER
 62
               2
100
AcDbLine
 10
31.25
 20
6.5
 30
0.0
 11
36.75
 21
6.5
 31
0.0
  0
LINE
  5
A0
100
AcDbEntity
  8
0
  6
CENTER
 62
               2
100
AcDbLine
 10
24.75
 20
6.5
 30
0.0
 11
19.25
 21
6.5
 31
0.0
  0
LINE
  5
A1
100
AcDbEntity
  8
0
  6
CENTER
 62
               2
100
AcDbLine
 10
11.0
 20
6.5
 30
0.0
 11
19.0
 21
6.5
 31
0.0
  0
LINE
  5
A2
100
AcDbEntity
  8
0
  6
CENTER
 62
               2
100
AcDbLine
 10
15.0
 20
2.5
 30
0.0
 11
15.0
 21
10.5
 31
0.0
  0
CIRCLE
  5
A3
100
AcDbEntity
  8
0
  6
CONTINUOUS
 62
               7
100
AcDbCircle
 10
15.0
 20
6.5
 30
0.0
 40
1.7
  0
CIRCLE
  5
A4
100
AcDbEntity
  8
0
  6
CONTINUOUS
 62
               7
100
AcDbCircle
 10
15.0
 20
6.5
 30
0.0
 40
3.25
  0
LINE
  5
A5
100
AcDbEntity
  8
0
  6
CENTER
 62
               2
100
AcDbLine
 10
45.0
 20
2.5
 30
0.0
 11
45.0
 21
10.5
 31
0.0
  0
CIRCLE
  5
A6
100
AcDbEntity
  8
0
  6
CONTINUOUS
 62
               7
100
AcDbCircle
 10
45.0
 20
6.5
 30
0.0
 40
1.7
  0
CIRCLE
  5
A7
100
AcDbEntity
  8
0
  6
CONTINUOUS
 62
               7
100
AcDbCircle
 10
45.0
 20
6.5
 30
0.0
 40
3.25
  0
LINE
  5
A8
100
AcDbEntity
  8
0
  6
CENTER
 62
               2
100
AcDbLine
 10
22.0
 20
3.75
 30
0.0
 11
22.0
 21
9.25
 31
0.0
  0
CIRCLE
  5
A9
100
AcDbEntity
  8
0
  6
CONTINUOUS
 62
               2
100
AcDbCircle
 10
22.0
 20
6.5
 30
0.0
 40
2.0
  0
CIRCLE
  5
AA
100
AcDbEntity
  8
0
  6
CONTINUOUS
 62
               7
100
AcDbCircle
 10
22.0
 20
6.5
 30
0.0
 40
1.6000000000000001
  0
LINE
  5
AB
100
AcDbEntity
  8
0
  6
CENTER
 62
               2
100
AcDbLine
 10
34.0
 20
3.75
 30
0.0
 11
34.0
 21
9.25
 31
0.0
  0
CIRCLE
  5
AC
100
AcDbEntity
  8
0
  6
CONTINUOUS
 62
               2
100
AcDbCircle
 10
34.0
 20
6.5
 30
0.0
 40
2.0
  0
CIRCLE
  5
AD
100
AcDbEntity
  8
0
  6
CONTINUOUS
 62
               7
100
AcDbCircle
 10
34.0
 20
6.5
 30
0.0
 40
1.6000000000000001
  0
LINE
  5
AE
100
AcDbEntity
  8
0
  6
CENTER
 62
               2
100
AcDbLine
 10
85.0
 20
3.75
 30
0.0
 11
85.0
 21
9.25
 31
0.0
  0
CIRCLE
  5
AF
100
AcDbEntity
  8
0
  6
CONTINUOUS
 62
               2
100
AcDbCircle
 10
85.0
 20
6.5
 30
0.0
 40
2.0
  0
CIRCLE
  5
B0
100
AcDbEntity
  8
0
  6
CONTINUOUS
 62
               7
100
AcDbCircle
 10
85.0
 20
6.5
 30
0.0
 40
1.6000000000000001
  0
LINE
  5
B1
100
AcDbEntity
  8
0
  6
CONTINUOUS
 62
               7
100
AcDbLine
 10
6.0
 20
21.0
 30
0.0
 11
0.0
 21
21.0
 31
0.0
  0
LINE
  5
B2
100
AcDbEntity
  8
0
  6
CENTER
 62
               2
100
AcDbLine
 10
118.5
 20
0.0
 30
0.0
 11
-1.5
 21
0.0
 31
0.0
  0
LINE
  5
B3
100
AcDbEntity
  8
0
  6
CONTINUOUS
 62
               7
100
AcDbLine
 10
93.0
 20
26.000000000000028
 30
0.0
 11
8.0
 21
26.000000000000028
 31
0.0
  0
LINE
  5
B4
100
AcDbEntity
  8
0
  6
CONTINUOUS
 62
               7
100
AcDbLine
 10
0.0
 20
21.0
 30
0.0
 11
0.0
 21
-21.0
 31
0.0
  0
LINE
  5
B5
100
AcDbEntity
  8
0
  6
CONTINUOUS
 62
               7
100
AcDbLine
 10
6.0
 20
21.0
 30
0.0
 11
6.0
 21
-21.0
 31
0.0
  0
LINE
  5
B6
100
AcDbEntity
  8
0
  6
CONTINUOUS
 62
               7
100
AcDbLine
 10
8.0
 20
-11.0
 30
0.0
 11
8.0
 21
-26.0
 31
0.0
  0
LINE
  5
B7
100
AcDbEntity
  8
0
  6
CENTER
 62
               2
100
AcDbLine
 10
15.0
 20
-2.5
 30
0.0
 11
15.0
 21
-10.5
 31
0.0
  0
LINE
  5
B8
100
AcDbEntity
  8
0
  6
CENTER
 62
               2
100
AcDbLine
 10
11.0
 20
-6.5
 30
0.0
 11
19.0
 21
-6.5
 31
0.0
  0
CIRCLE
  5
B9
100
AcDbEntity
  8
0
  6
CONTINUOUS
 62
               7
100
AcDbCircle
 10
15.0
 20
-6.5
 30
0.0
 40
1.7
  0
LINE
  5
BA
100
AcDbEntity
  8
0
  6
CONTINUOUS
 62
               7
100
AcDbLine
 10
93.0
 20
-26.0
 30
0.0
 11
8.0
 21
-26.0
 31
0.0
  0
LINE
  5
BB
100
AcDbEntity
  8
0
  6
CONTINUOUS
 62
               7
100
AcDbLine
 10
6.0
 20
-21.0
 30
0.0
 11
0.0
 21
-21.0
 31
0.0
  0
LINE
  5
BC
100
AcDbEntity
  8
0
  6
CENTER
 62
               2
100
AcDbLine
 10
-0.75
 20
-15.5
 30
0.0
 11
8.75
 21
-15.5
 31
0.0
  0
CIRCLE
  5
BD
100
AcDbEntity
  8
0
  6
CONTINUOUS
 62
               7
100
AcDbCircle
 10
15.0
 20
-6.5
 30
0.0
 40
3.25
  0
LINE
  5
BE
100
AcDbEntity
  8
0
  6
CENTER
 62
               2
100
AcDbLine
 10
45.0
 20
-2.5
 30
0.0
 11
45.0
 21
-10.5
 31
0.0
  0
CIRCLE
  5
BF
100
AcDbEntity
  8
0
  6
CONTINUOUS
 62
               7
100
AcDbCircle
 10
45.0
 20
-6.5
 30
0.0
 40
1.7
  0
CIRCLE
  5
C0
100
AcDbEntity
  8
0
  6
CONTINUOUS
 62
               7
100
AcDbCircle
 10
45.0
 20
-6.5
 30
0.0
 40
3.25
  0
LINE
  5
C1
100
AcDbEntity
  8
0
  6
CONTINUOUS
 62
               7
100
AcDbLine
 10
93.0
 20
17.563859338365631
 30
0.0
 11
93.0
 21
-17.563859338365617
 31
0.0
  0
LINE
  5
C2
100
AcDbEntity
  8
0
  6
CONTINUOUS
 62
               7
100
AcDbLine
 10
93.0
 20
-11.0
 30
0.0
 11
6.0
 21
-11.0
 31
0.0
  0
LINE
  5
C3
100
AcDbEntity
  8
0
  6
CONTINUOUS
 62
               7
100
AcDbLine
 10
93.0
 20
-12.5
 30
0.0
 11
8.0
 21
-12.5
 31
0.0
  0
LINE
  5
C4
100
AcDbEntity
  8
0
  6
CONTINUOUS
 62
               7
100
AcDbLine
 10
5.9999999831934474
 20
-10.5
 30
0.0
 11
93.0
 21
-10.5
 31
0.0
  0
LINE
  5
C5
100
AcDbEntity
  8
0
  6
CONTINUOUS
 62
               7
100
AcDbLine
 10
5.9999999831934474
 20
-2.5
 30
0.0
 11
92.999999983193447
 21
-2.5
 31
0.0
  0
LINE
  5
C6
100
AcDbEntity
  8
0
  6
CONTINUOUS
 62
               7
100
AcDbLine
 10
5.9999999831934474
 20
-2.0
 30
0.0
 11
92.999999983193447
 21
-2.0
 31
0.0
  0
LINE
  5
C7
100
AcDbEntity
  8
0
  6
CENTER
 62
               2
100
AcDbLine
 10
22.0
 20
-3.75
 30
0.0
 11
22.0
 21
-9.25
 31
0.0
  0
LINE
  5
C8
100
AcDbEntity
  8
0
  6
CENTER
 62
               2
100
AcDbLine
 10
24.75
 20
-6.5
 30
0.0
 11
19.25
 21
-6.5
 31
0.0
  0
CIRCLE
  5
C9
100
AcDbEntity
  8
0
  6
CONTINUOUS
 62
               2
100
AcDbCircle
 10
22.0
 20
-6.5
 30
0.0
 40
2.0
  0
CIRCLE
  5
CA
100
AcDbEntity
  8
0
  6
CONTINUOUS
 62
               7
100
AcDbCircle
 10
22.0
 20
-6.5
 30
0.0
 40
1.6000000000000001
  0
LINE
  5
CB
100
AcDbEntity
  8
0
  6
CENTER
 62
               2
100
AcDbLine
 10
34.0
 20
-3.75
 30
0.0
 11
34.0
 21
-9.25
 31
0.0
  0
LINE
  5
CC
100
AcDbEntity
  8
0
  6
CENTER
 62
               2
100
AcDbLine
 10
31.25
 20
-6.5
 30
0.0
 11
36.75
 21
-6.5
 31
0.0
  0
CIRCLE
  5
CD
100
AcDbEntity
  8
0
  6
CONTINUOUS
 62
               2
100
AcDbCircle
 10
34.0
 20
-6.5
 30
0.0
 40
2.0
  0
CIRCLE
  5
CE
100
AcDbEntity
  8
0
  6
CONTINUOUS
 62
               7
100
AcDbCircle
 10
34.0
 20
-6.5
 30
0.0
 40
1.6000000000000001
  0
ARC
  5
CF
100
AcDbEntity
  8
0
  6
CONTINUOUS
 62
               7
100
AcDbCircle
 10
33.0
 20
0.0
 30
0.0
 40
2.0
100
AcDbArc
 50
89.999999999999815
 51
269.99999999999937
  0
LINE
  5
D0
100
AcDbEntity
  8
0
  6
CENTER
 62
               2
100
AcDbLine
 10
35.0
 20
-2.75
 30
0.0
 11
35.0
 21
2.75
 31
0.0
  0
ARC
  5
D1
100
AcDbEntity
  8
0
  6
CONTINUOUS
 62
               7
100
AcDbCircle
 10
35.0
 20
0.0
 30
0.0
 40
2.0
100
AcDbArc
 50
269.99999999999937
 51
89.999999999999801
  0
LINE
  5
D2
100
AcDbEntity
  8
0
  6
CENTER
 62
               2
100
AcDbLine
 10
33.0
 20
-2.75
 30
0.0
 11
33.0
 21
2.75
 31
0.0
  0
LINE
  5
D3
100
AcDbEntity
  8
0
  6
CENTER
 62
               2
100
AcDbLine
 10
34.0
 20
2.75
 30
0.0
 11
34.0
 21
-2.75
 31
0.0
  0
CIRCLE
  5
D4
100
AcDbEntity
  8
0
  6
CONTINUOUS
 62
               7
100
AcDbCircle
 10
20.0
 20
0.0
 30
0.0
 40
2.0
  0
LINE
  5
D5
100
AcDbEntity
  8
0
  6
CENTER
 62
               2
100
AcDbLine
 10
20.0
 20
-2.75
 30
0.0
 11
20.0
 21
2.75
 31
0.0
  0
LINE
  5
D6
100
AcDbEntity
  8
0
  6
CONTINUOUS
 62
               7
100
AcDbLine
 10
8.0
 20
11.0
 30
0.0
 11
8.0
 21
26.000000000000028
 31
0.0
  0
LINE
  5
D7
100
AcDbEntity
  8
0
  6
CONTINUOUS
 62
               7
100
AcDbLine
 10
93.0
 20
11.0
 30
0.0
 11
6.0
 21
11.0
 31
0.0
  0
LINE
  5
D8
100
AcDbEntity
  8
0
  6
CONTINUOUS
 62
               7
100
AcDbLine
 10
93.0
 20
12.5
 30
0.0
 11
8.0
 21
12.5
 31
0.0
  0
LINE
  5
D9
100
AcDbEntity
  8
0
  6
CONTINUOUS
 62
               7
100
AcDbLine
 10
5.9999999831934474
 20
10.5
 30
0.0
 11
93.0
 21
10.5
 31
0.0
  0
LINE
  5
DA
100
AcDbEntity
  8
0
  6
CONTINUOUS
 62
               7
100
AcDbLine
 10
5.9999999831934474
 20
2.5
 30
0.0
 11
92.999999983193447
 21
2.5
 31
0.0
  0
LINE
  5
DB
100
AcDbEntity
  8
0
  6
CONTINUOUS
 62
               7
100
AcDbLine
 10
5.9999999831934474
 20
2.0
 30
0.0
 11
92.999999983193447
 21
2.0
 31
0.0
  0
LINE
  5
DC
100
AcDbEntity
  8
0
  6
CONTINUOUS
 62
               7
100
AcDbLine
 10
93.0
 20
15.0
 30
0.0
 11
94.439999999999941
 21
15.0
 31
0.0
  0
LINE
  5
DD
100
AcDbEntity
  8
0
  6
CONTINUOUS
 62
               7
100
AcDbLine
 10
94.439999999999941
 20
15.0
 30
0.0
 11
94.439999999999941
 21
18.499999999999744
 31
0.0
  0
LINE
  5
DE
100
AcDbEntity
  8
0
  6
CONTINUOUS
 62
               7
100
AcDbLine
 10
93.339999999999975
 20
15.0
 30
0.0
 11
93.339999999999975
 21
23.0
 31
0.0
  0
LINE
  5
DF
100
AcDbEntity
  8
0
  6
CONTINUOUS
 62
               7
100
AcDbLine
 10
93.0
 20
23.0
 30
0.0
 11
94.439999999999941
 21
23.0
 31
0.0
  0
LINE
  5
E0
100
AcDbEntity
  8
0
  6
CONTINUOUS
 62
               7
100
AcDbLine
 10
93.639999999999986
 20
18.499999999999744
 30
0.0
 11
94.439999999999941
 21
18.499999999999744
 31
0.0
  0
LINE
  5
E1
100
AcDbEntity
  8
0
  6
CONTINUOUS
 62
               7
100
AcDbLine
 10
93.639999999999986
 20
19.499999999999744
 30
0.0
 11
94.439999999999941
 21
19.499999999999744
 31
0.0
  0
LINE
  5
E2
100
AcDbEntity
  8
0
  6
CONTINUOUS
 62
               7
100
AcDbLine
 10
93.639999999999986
 20
18.499999999999744
 30
0.0
 11
93.639999999999986
 21
19.499999999999744
 31
0.0
  0
LINE
  5
E3
100
AcDbEntity
  8
0
  6
CONTINUOUS
 62
               7
100
AcDbLine
 10
94.439999999999941
 20
19.499999999999744
 30
0.0
 11
94.439999999999941
 21
23.0
 31
0.0
  0
LINE
  5
E4
100
AcDbEntity
  8
0
  6
CENTER
 62
               2
100
AcDbLine
 10
41.0
 20
-6.5
 30
0.0
 11
49.0
 21
-6.5
 31
0.0
  0
LINE
  5
E5
100
AcDbEntity
  8
0
  6
CONTINUOUS
 62
               4
100
AcDbLine
 10
45.0
 20
-12.5
 30
0.0
 11
45.0
 21
-25.499999999999972
 31
0.0
  0
LINE
  5
E6
100
AcDbEntity
  8
0
  6
CONTINUOUS
 62
               4
100
AcDbLine
 10
39.0
 20
-12.5
 30
0.0
 11
39.0
 21
-25.499999999999972
 31
0.0
  0
LINE
  5
E7
100
AcDbEntity
  8
0
  6
CONTINUOUS
 62
               7
100
AcDbLine
 10
93.0
 20
-24.0
 30
0.0
 11
45.0
 21
-24.0
 31
0.0
  0
LINE
  5
E8
100
AcDbEntity
  8
0
  6
CONTINUOUS
 62
               7
100
AcDbLine
 10
93.0
 20
24.000000000000028
 30
0.0
 11
8.0
 21
24.000000000000028
 31
0.0
  0
LINE
  5
E9
100
AcDbEntity
  8
0
  6
CONTINUOUS
 62
               4
100
AcDbLine
 10
38.999999983193447
 20
-25.499999999999972
 30
0.0
 11
44.999999983193447
 21
-25.499999999999972
 31
0.0
  0
LINE
  5
EA
100
AcDbEntity
  8
0
  6
CONTINUOUS
 62
               7
100
AcDbLine
 10
39.0
 20
-24.0
 30
0.0
 11
8.0
 21
-24.0
 31
0.0
  0
LINE
  5
EB
100
AcDbEntity
  8
0
  6
CONTINUOUS
 62
               7
100
AcDbLine
 10
0.5
 20
-7.75
 30
0.0
 11
0.5
 21
-5.25
 31
0.0
  0
LINE
  5
EC
100
AcDbEntity
  8
0
  6
CONTINUOUS
 62
               7
100
AcDbLine
 10
3.5
 20
-7.75
 30
0.0
 11
3.5
 21
-5.25
 31
0.0
  0
LINE
  5
ED
100
AcDbEntity
  8
0
  6
CONTINUOUS
 62
               7
100
AcDbLine
 10
0.0
 20
-5.25
 30
0.0
 11
3.5
 21
-5.25
 31
0.0
  0
LINE
  5
EE
100
AcDbEntity
  8
0
  6
CONTINUOUS
 62
               7
100
AcDbLine
 10
0.0
 20
-7.75
 30
0.0
 11
3.5
 21
-7.75
 31
0.0
  0
LINE
  5
EF
100
AcDbEntity
  8
0
  6
CONTINUOUS
 62
               7
100
AcDbLine
 10
3.5
 20
7.75
 30
0.0
 11
3.5
 21
5.25
 31
0.0
  0
LINE
  5
F0
100
AcDbEntity
  8
0
  6
CONTINUOUS
 62
               7
100
AcDbLine
 10
0.5
 20
7.75
 30
0.0
 11
0.5
 21
5.25
 31
0.0
  0
LINE
  5
F1
100
AcDbEntity
  8
0
  6
CONTINUOUS
 62
               7
100
AcDbLine
 10
0.0
 20
5.25
 30
0.0
 11
3.5
 21
5.25
 31
0.0
  0
LINE
  5
F2
100
AcDbEntity
  8
0
  6
CONTINUOUS
 62
               7
100
AcDbLine
 10
0.0
 20
7.75
 30
0.0
 11
3.5
 21
7.75
 31
0.0
  0
LINE
  5
F3
100
AcDbEntity
  8
0
  6
CENTER
 62
               2
100
AcDbLine
 10
85.0
 20
-3.75
 30
0.0
 11
85.0
 21
-9.25
 31
0.0
  0
CIRCLE
  5
F4
100
AcDbEntity
  8
0
  6
CONTINUOUS
 62
               2
100
AcDbCircle
 10
85.0
 20
-6.5
 30
0.0
 40
2.0
  0
CIRCLE
  5
F5
100
AcDbEntity
  8
0
  6
CONTINUOUS
 62
               7
100
AcDbCircle
 10
85.0
 20
-6.5
 30
0.0
 40
1.6000000000000001
  0
LINE
  5
F6
100
AcDbEntity
  8
0
  6
CONTINUOUS
 62
               7
100
AcDbLine
 10
93.0
 20
-14.999999999999986
 30
0.0
 11
94.439999999999941
 21
-14.999999999999986
 31
0.0
  0
LINE
  5
F7
100
AcDbEntity
  8
0
  6
CENTER
 62
               2
100
AcDbLine
 10
91.949999999999989
 20
-18.999999999999986
 30
0.0
 11
95.189999999999941
 21
-18.999999999999986
 31
0.0
  0
LINE
  5
F8
100
AcDbEntity
  8
0
  6
CONTINUOUS
 62
               7
100
AcDbLine
 10
93.0
 20
-22.999999999999986
 30
0.0
 11
94.439999999999941
 21
-22.999999999999986
 31
0.0
  0
LINE
  5
F9
100
AcDbEntity
  8
0
  6
CONTINUOUS
 62
               7
100
AcDbLine
 10
94.439999999999941
 20
-19.49999999999973
 30
0.0
 11
94.439999999999941
 21
-22.999999999999986
 31
0.0
  0
LINE
  5
FA
100
AcDbEntity
  8
0
  6
CONTINUOUS
 62
               7
100
AcDbLine
 10
93.639999999999986
 20
-18.499999999999744
 30
0.0
 11
93.639999999999986
 21
-19.499999999999744
 31
0.0
  0
LINE
  5
FB
100
AcDbEntity
  8
0
  6
CONTINUOUS
 62
               7
100
AcDbLine
 10
93.639999999999986
 20
-19.49999999999973
 30
0.0
 11
94.439999999999941
 21
-19.49999999999973
 31
0.0
  0
LINE
  5
FC
100
AcDbEntity
  8
0
  6
CONTINUOUS
 62
               7
100
AcDbLine
 10
93.639999999999986
 20
-18.49999999999973
 30
0.0
 11
94.439999999999941
 21
-18.49999999999973
 31
0.0
  0
LINE
  5
FD
100
AcDbEntity
  8
0
  6
CONTINUOUS
 62
               7
100
AcDbLine
 10
93.339999999999975
 20
-15.0
 30
0.0
 11
93.339999999999975
 21
-23.0
 31
0.0
  0
LINE
  5
FE
100
AcDbEntity
  8
0
  6
CONTINUOUS
 62
               7
100
AcDbLine
 10
94.439999999999941
 20
-15.0
 30
0.0
 11
94.439999999999941
 21
-18.499999999999744
 31
0.0
  0
LINE
  5
FF
100
AcDbEntity
  8
0
  6
CONTINUOUS
 62
               4
100
AcDbLine
 10
93.0
 20
10.5
 30
0.0
 11
108.0
 21
10.5
 31
0.0
  0
LINE
  5
100
100
AcDbEntity
  8
0
  6
CONTINUOUS
 62
               4
100
AcDbLine
 10
93.0
 20
-10.5
 30
0.0
 11
96.0
 21
-10.5
 31
0.0
  0
ENDBLK
  5
101
100
AcDbEntity
  8
0
100
AcDbBlockEnd
  0
BLOCK
  5
102
100
AcDbEntity
  8
0
100
AcDbBlockBegin
  2
ZS6RS-2
 70
               0
 10
0.0
 20
0.0
 30
0.0
  3
ZS6RS-2
  1

  0
LINE
  5
103
100
AcDbEntity
  8
0
  6
CONTINUOUS
 62
               4
100
AcDbLine
 10
1.2999999999998977
 20
10.650000000000006
 30
0.0
 11
1.2999999999999261
 21
6.9000000000000057
 31
0.0
  0
LINE
  5
104
100
AcDbEntity
  8
0
  6
CONTINUOUS
 62
               4
100
AcDbLine
 10
-1.3000000000000966
 20
9.1499999999999773
 30
0.0
 11
-1.3000000000000682
 21
6.8999999999999773
 31
0.0
  0
LINE
  5
105
100
AcDbEntity
  8
0
  6
CONTINUOUS
 62
               4
100
AcDbLine
 10
-1.25
 20
0.4999999999999716
 30
0.0
 11
1.2499999999999716
 21
0.5
 31
0.0
  0
LINE
  5
106
100
AcDbEntity
  8
0
  6
CONTINUOUS
 62
               4
100
AcDbLine
 10
1.2499999999999716
 20
0.5
 30
0.0
 11
1.2500000000000284
 21
-0.0000000000000284
 31
0.0
  0
LINE
  5
107
100
AcDbEntity
  8
0
  6
CONTINUOUS
 62
             200
100
AcDbLine
 10
1.0200000000000102
 20
0.5
 30
0.0
 11
1.0200000000000387
 21
-0.0000000000000284
 31
0.0
  0
LINE
  5
108
100
AcDbEntity
  8
0
  6
CONTINUOUS
 62
             200
100
AcDbLine
 10
-1.0200000000000102
 20
0.4999999999999716
 30
0.0
 11
-1.0199999999999818
 21
-0.0000000000000284
 31
0.0
  0
LINE
  5
109
100
AcDbEntity
  8
0
  6
CONTINUOUS
 62
               4
100
AcDbLine
 10
-1.25
 20
0.4999999999999716
 30
0.0
 11
-1.2500000000000284
 21
-0.0000000000000284
 31
0.0
  0
LINE
  5
10A
100
AcDbEntity
  8
0
  6
CONTINUOUS
 62
               4
100
AcDbLine
 10
-1.2499999999999432
 20
-3.7700000000000387
 30
0.0
 11
1.2500000000000284
 21
-3.7700000000000102
 31
0.0
  0
LINE
  5
10B
100
AcDbEntity
  8
0
  6
CONTINUOUS
 62
               4
100
AcDbLine
 10
1.2500000000000568
 20
-2.5999999999999943
 30
0.0
 11
1.2500000000000284
 21
-3.7700000000000102
 31
0.0
  0
LINE
  5
10C
100
AcDbEntity
  8
0
  6
CONTINUOUS
 62
             200
100
AcDbLine
 10
1.0200000000000671
 20
-2.5999999999999943
 30
0.0
 11
1.0200000000000671
 21
-4.0000000000000284
 31
0.0
  0
LINE
  5
10D
100
AcDbEntity
  8
0
  6
CONTINUOUS
 62
             200
100
AcDbLine
 10
-1.0199999999999534
 20
-2.6000000000000512
 30
0.0
 11
-1.0199999999999534
 21
-4.0000000000000284
 31
0.0
  0
LINE
  5
10E
100
AcDbEntity
  8
0
  6
CONTINUOUS
 62
               4
100
AcDbLine
 10
-1.2499999999999432
 20
-2.6000000000000512
 30
0.0
 11
-1.2499999999999432
 21
-3.7700000000000387
 31
0.0
  0
LINE
  5
10F
100
AcDbEntity
  8
0
  6
CONTINUOUS
 62
               4
100
AcDbLine
 10
-1.0199999999999534
 20
-4.0000000000000284
 30
0.0
 11
-1.2499999999999432
 21
-3.7700000000000387
 31
0.0
  0
LINE
  5
110
100
AcDbEntity
  8
0
  6
CONTINUOUS
 62
               4
100
AcDbLine
 10
1.0200000000000671
 20
-4.0000000000000284
 30
0.0
 11
1.2500000000000284
 21
-3.7700000000000102
 31
0.0
  0
LINE
  5
111
100
AcDbEntity
  8
0
  6
CONTINUOUS
 62
               4
100
AcDbLine
 10
-1.0199999999999534
 20
-4.0000000000000284
 30
0.0
 11
1.0200000000000671
 21
-4.0000000000000284
 31
0.0
  0
LINE
  5
112
100
AcDbEntity
  8
0
  6
CONTINUOUS
 62
             200
100
AcDbLine
 10
-2.1600000000000534
 20
8.6499999999999773
 30
0.0
 11
2.1599999999998545
 21
11.150000000000034
 31
0.0
  0
LINE
  5
113
100
AcDbEntity
  8
0
  6
CONTINUOUS
 62
               4
100
AcDbLine
 10
-2.2500000000000568
 20
6.8999999999999488
 30
0.0
 11
2.2499999999999716
 21
6.9000000000000057
 31
0.0
  0
LINE
  5
114
100
AcDbEntity
  8
0
  6
CONTINUOUS
 62
               4
100
AcDbLine
 10
-2.049390153191899
 20
-2.6000000000000512
 30
0.0
 11
2.0493901531919398
 21
-2.5999999999999943
 31
0.0
  0
LINE
  5
115
100
AcDbEntity
  8
0
  6
CONTINUOUS
 62
               4
100
AcDbLine
 10
-2.0499999999999545
 20
-1.8000000000000114
 30
0.0
 11
2.0500000000000682
 21
-1.7999999999999829
 31
0.0
  0
LINE
  5
116
100
AcDbEntity
  8
0
  6
CONTINUOUS
 62
               4
100
AcDbLine
 10
-1.5
 20
-0.0000000000000284
 30
0.0
 11
1.5
 21
0.0
 31
0.0
  0
LINE
  5
117
100
AcDbEntity
  8
0
  6
CENTER
 62
             200
100
AcDbLine
 10
-0.0000000000001421
 20
12.559999999999974
 30
0.0
 11
0.0000000000000568
 21
-6.0600000000000307
 31
0.0
  0
LINE
  5
118
100
AcDbEntity
  8
0
  6
CONTINUOUS
 62
               4
100
AcDbLine
 10
2.2499999999999716
 20
6.9000000000000057
 30
0.0
 11
2.2499999999999716
 21
1.1500000000000341
 31
0.0
  0
LINE
  5
119
100
AcDbEntity
  8
0
  6
CONTINUOUS
 62
               4
100
AcDbLine
 10
1.5000000000000284
 20
0.4000000000000057
 30
0.0
 11
2.2499999999999716
 21
1.1500000000000341
 31
0.0
  0
LINE
  5
11A
100
AcDbEntity
  8
0
  6
CONTINUOUS
 62
               4
100
AcDbLine
 10
1.5
 20
-0.4499999999999886
 30
0.0
 11
1.5000000000000284
 21
0.4000000000000057
 31
0.0
  0
LINE
  5
11B
100
AcDbEntity
  8
0
  6
CONTINUOUS
 62
               4
100
AcDbLine
 10
2.0500000000000114
 20
-1.0
 30
0.0
 11
1.5
 21
-0.4499999999999886
 31
0.0
  0
LINE
  5
11C
100
AcDbEntity
  8
0
  6
CONTINUOUS
 62
               4
100
AcDbLine
 10
2.0500000000000114
 20
-1.0
 30
0.0
 11
2.0500000000000398
 21
-2.5499999999999829
 31
0.0
  0
LINE
  5
11D
100
AcDbEntity
  8
0
  6
CONTINUOUS
 62
               4
100
AcDbLine
 10
-2.0499999999999545
 20
-1.0000000000000568
 30
0.0
 11
-2.0499999999999261
 21
-2.5500000000000398
 31
0.0
  0
LINE
  5
11E
100
AcDbEntity
  8
0
  6
CONTINUOUS
 62
               4
100
AcDbLine
 10
-2.0499999999999545
 20
-1.0000000000000568
 30
0.0
 11
-1.5
 21
-0.4500000000000455
 31
0.0
  0
LINE
  5
11F
100
AcDbEntity
  8
0
  6
CONTINUOUS
 62
               4
100
AcDbLine
 10
-1.5
 20
-0.4500000000000455
 30
0.0
 11
-1.5000000000000284
 21
0.3999999999999488
 31
0.0
  0
LINE
  5
120
100
AcDbEntity
  8
0
  6
CONTINUOUS
 62
               4
100
AcDbLine
 10
-1.5000000000000284
 20
0.3999999999999488
 30
0.0
 11
-2.2500000000000284
 21
1.1499999999999773
 31
0.0
  0
LINE
  5
121
100
AcDbEntity
  8
0
  6
CONTINUOUS
 62
               4
100
AcDbLine
 10
-2.2500000000000568
 20
6.8999999999999488
 30
0.0
 11
-2.2500000000000284
 21
1.1499999999999773
 31
0.0
  0
LINE
  5
122
100
AcDbEntity
  8
0
  6
CONTINUOUS
 62
               4
100
AcDbLine
 10
-2.2500000000000568
 20
5.3999999999999773
 30
0.0
 11
2.2499999999999716
 21
5.4000000000000341
 31
0.0
  0
ARC
  5
123
100
AcDbEntity
  8
0
  6
CONTINUOUS
 62
               4
100
AcDbCircle
 10
0.0000000000000193
 20
-2.5500000000000149
 30
0.0
 40
2.0499999999999998
100
AcDbArc
 50
180.00000000000028
 51
0.0000000000010178
  0
ENDBLK
  5
124
100
AcDbEntity
  8
0
100
AcDbBlockEnd
  0
BLOCK
  5
125
100
AcDbEntity
  8
0
100
AcDbBlockBegin
  2
ZS6RS-3
 70
               0
 10
0.0
 20
0.0
 30
0.0
  3
ZS6RS-3
  1

  0
CIRCLE
  5
126
100
AcDbEntity
  8
0
  6
CONTINUOUS
 62
               4
100
AcDbCircle
 10
19.117279052734375
 20
0.3181533813476563
 30
0.0
 40
0.25
  0
CIRCLE
  5
127
100
AcDbEntity
  8
0
  6
CONTINUOUS
 62
               4
100
AcDbCircle
 10
19.729156494140625
 20
-0.34100341796875
 30
0.0
 40
0.25
  0
CIRCLE
  5
128
100
AcDbEntity
  8
0
  6
CONTINUOUS
 62
               4
100
AcDbCircle
 10
19.117279052734375
 20
0.3181533813476563
 30
0.0
 40
0.449999988079071
  0
CIRCLE
  5
129
100
AcDbEntity
  8
0
  6
CONTINUOUS
 62
               4
100
AcDbCircle
 10
19.729156494140625
 20
-0.34100341796875
 30
0.0
 40
0.449999988079071
  0
CIRCLE
  5
12A
100
AcDbEntity
  8
0
  6
CONTINUOUS
 62
               4
100
AcDbCircle
 10
19.4073486328125
 20
0.0
 30
0.0
 40
1.2999992370605469
  0
CIRCLE
  5
12B
100
AcDbEntity
  8
0
  6
CONTINUOUS
 62
               4
100
AcDbCircle
 10
2.0
 20
0.0
 30
0.0
 40
1.3999996185302734
  0
CIRCLE
  5
12C
100
AcDbEntity
  8
0
  6
CONTINUOUS
 62
               4
100
AcDbCircle
 10
2.0
 20
0.0
 30
0.0
 40
1.25
  0
ARC
  5
12D
100
AcDbEntity
  8
0
  6
CONTINUOUS
 62
               4
100
AcDbCircle
 10
19.5
 20
0.0
 30
0.0
 40
3.3043758866085451
100
AcDbArc
 50
137.08479304050996
 51
222.91520695948927
  0
LINE
  5
12E
100
AcDbEntity
  8
0
  6
CONTINUOUS
 62
               4
100
AcDbLine
 10
0.9300000000000068
 20
-0.6400000000000006
 30
0.0
 11
2.6399999999999864
 21
1.0699999999999932
 31
0.0
  0
LINE
  5
12F
100
AcDbEntity
  8
0
  6
CONTINUOUS
 62
               4
100
AcDbLine
 10
1.3500000000000227
 20
-1.0699999999999932
 30
0.0
 11
3.0699999999999932
 21
0.6400000000000006
 31
0.0
  0
LINE
  5
130
100
AcDbEntity
  8
0
  6
CONTINUOUS
 62
               4
100
AcDbLine
 10
22.0
 20
2.25
 30
0.0
 11
22.0
 21
-2.25
 31
0.0
  0
LINE
  5
131
100
AcDbEntity
  8
0
  6
CONTINUOUS
 62
               4
100
AcDbLine
 10
17.079999999999984
 20
-2.25
 30
0.0
 11
22.0
 21
-2.25
 31
0.0
  0
LINE
  5
132
100
AcDbEntity
  8
0
  6
CONTINUOUS
 62
               4
100
AcDbLine
 10
17.079999999999984
 20
2.25
 30
0.0
 11
22.0
 21
2.25
 31
0.0
  0
LINE
  5
133
100
AcDbEntity
  8
0
  6
CENTER
 62
             200
100
AcDbLine
 10
2.0
 20
2.8299999999999983
 30
0.0
 11
2.0
 21
-2.75
 31
0.0
  0
LINE
  5
134
100
AcDbEntity
  8
0
  6
CONTINUOUS
 62
               4
100
AcDbLine
 10
0.0
 20
2.0499999999999972
 30
0.0
 11
0.0
 21
-2.0499999999999972
 31
0.0
  0
LINE
  5
135
100
AcDbEntity
  8
0
  6
CONTINUOUS
 62
               4
100
AcDbLine
 10
0.0
 20
2.0499999999999972
 30
0.0
 11
16.910000000000025
 21
2.0499999999999972
 31
0.0
  0
LINE
  5
136
100
AcDbEntity
  8
0
  6
CONTINUOUS
 62
               4
100
AcDbLine
 10
0.0
 20
-2.0499999999999972
 30
0.0
 11
16.910000000000025
 21
-2.0499999999999972
 31
0.0
  0
LINE
  5
137
100
AcDbEntity
  8
0
  6
CONTINUOUS
 62
               4
100
AcDbLine
 10
0.0
 20
1.5
 30
0.0
 11
16.560000000000002
 21
1.5
 31
0.0
  0
LINE
  5
138
100
AcDbEntity
  8
0
  6
CONTINUOUS
 62
               4
100
AcDbLine
 10
0.0
 20
-1.5
 30
0.0
 11
16.560000000000002
 21
-1.5
 31
0.0
  0
LINE
  5
139
100
AcDbEntity
  8
0
  6
CENTER
 62
             200
100
AcDbLine
 10
-1.3199999999999932
 20
0.0
 30
0.0
 11
23.579999999999984
 21
0.0
 31
0.0
  0
ENDBLK
  5
13A
100
AcDbEntity
  8
0
100
AcDbBlockEnd
  0
BLOCK
  5
13B
100
AcDbEntity
  8
0
100
AcDbBlockBegin
  2
ZS6RS-4
 70
               0
 10
0.0
 20
0.0
 30
0.0
  3
ZS6RS-4
  1

  0
LINE
  5
13C
100
AcDbEntity
  8
0
  6
CONTINUOUS
 62
               4
100
AcDbLine
 10
21.0
 20
-19.249999999999972
 30
0.0
 11
24.0
 21
-19.249999999999972
 31
0.0
  0
LINE
  5
13D
100
AcDbEntity
  8
0
  6
CONTINUOUS
 62
               4
100
AcDbLine
 10
21.000000000000057
 20
-18.5
 30
0.0
 11
25.500000000000057
 21
-18.5
 31
0.0
  0
LINE
  5
13E
100
AcDbEntity
  8
0
  6
CONTINUOUS
 62
               4
100
AcDbLine
 10
25.500000000000057
 20
-12.5
 30
0.0
 11
25.500000000000057
 21
-18.5
 31
0.0
  0
LINE
  5
13F
100
AcDbEntity
  8
0
  6
CONTINUOUS
 62
               4
100
AcDbLine
 10
17.4999999869421
 20
-12.5
 30
0.0
 11
25.500000000000057
 21
-12.5
 31
0.0
  0
LINE
  5
140
100
AcDbEntity
  8
0
  6
CONTINUOUS
 62
               4
100
AcDbLine
 10
18.000000000000057
 20
-12.5
 30
0.0
 11
18.000000000000057
 21
-11.0
 31
0.0
  0
LINE
  5
141
100
AcDbEntity
  8
0
  6
CONTINUOUS
 62
               4
100
AcDbLine
 10
21.000000000000057
 20
-25.5
 30
0.0
 11
15.500000000000057
 21
-25.5
 31
0.0
  0
LINE
  5
142
100
AcDbEntity
  8
0
  6
CONTINUOUS
 62
               7
100
AcDbLine
 10
18.000000000000057
 20
10.5
 30
0.0
 11
17.500000000000057
 21
11.0
 31
0.0
  0
ARC
  5
143
100
AcDbEntity
  8
0
  6
CONTINUOUS
 62
               4
100
AcDbCircle
 10
17.500000000000057
 20
-11.0
 30
0.0
 40
0.5
100
AcDbArc
 50
0.0
 51
45.000000000001883
  0
LINE
  5
144
100
AcDbEntity
  8
0
  6
CONTINUOUS
 62
               4
100
AcDbLine
 10
24.0
 20
-19.249999999999972
 30
0.0
 11
24.0
 21
-24.749999999999972
 31
0.0
  0
LINE
  5
145
100
AcDbEntity
  8
0
  6
CONTINUOUS
 62
               4
100
AcDbLine
 10
21.0
 20
-24.749999999999972
 30
0.0
 11
24.0
 21
-24.749999999999972
 31
0.0
  0
LINE
  5
146
100
AcDbEntity
  8
0
  6
CENTER
 62
             200
100
AcDbLine
 10
20.250000000000057
 20
-21.999999999999972
 30
0.0
 11
24.75
 21
-21.999999999999972
 31
0.0
  0
LINE
  5
147
100
AcDbEntity
  8
0
  6
CONTINUOUS
 62
               4
100
AcDbLine
 10
21.000000000000057
 20
-25.5
 30
0.0
 11
21.000000000000057
 21
-18.5
 31
0.0
  0
LINE
  5
148
100
AcDbEntity
  8
0
  6
CONTINUOUS
 62
               4
100
AcDbLine
 10
27.000000000000057
 20
-19.5
 30
0.0
 11
24.0
 21
-19.5
 31
0.0
  0
LINE
  5
149
100
AcDbEntity
  8
0
  6
CONTINUOUS
 62
               4
100
AcDbLine
 10
27.000000000000057
 20
-8.8005623136074576
 30
0.0
 11
27.000000000000057
 21
-19.5
 31
0.0
  0
LINE
  5
14A
100
AcDbEntity
  8
0
  6
CONTINUOUS
 62
               4
100
AcDbLine
 10
26.999999987004287
 20
-8.8005622631213782
 30
0.0
 11
17.999999987004287
 21
10.499999999413717
 31
0.0
  0
CIRCLE
  5
14B
100
AcDbEntity
  8
0
  6
CONTINUOUS
 62
               7
100
AcDbCircle
 10
5.5
 20
-8.0
 30
0.0
 40
1.6000000000000001
  0
CIRCLE
  5
14C
100
AcDbEntity
  8
0
  6
CONTINUOUS
 62
               7
100
AcDbCircle
 10
13.5
 20
-14.0
 30
0.0
 40
1.6000000000000001
  0
CIRCLE
  5
14D
100
AcDbEntity
  8
0
  6
CONTINUOUS
 62
               7
100
AcDbCircle
 10
5.5
 20
8.0
 30
0.0
 40
1.6000000000000001
  0
CIRCLE
  5
14E
100
AcDbEntity
  8
0
  6
CONTINUOUS
 62
               7
100
AcDbCircle
 10
13.5
 20
14.0
 30
0.0
 40
1.6000000000000001
  0
LINE
  5
14F
100
AcDbEntity
  8
0
  6
CENTER
 62
               2
100
AcDbLine
 10
8.25
 20
-8.0
 30
0.0
 11
2.75
 21
-8.0
 31
0.0
  0
LINE
  5
150
100
AcDbEntity
  8
0
  6
CENTER
 62
               2
100
AcDbLine
 10
5.5
 20
-10.75
 30
0.0
 11
5.5
 21
-5.25
 31
0.0
  0
LINE
  5
151
100
AcDbEntity
  8
0
  6
CENTER
 62
               2
100
AcDbLine
 10
6.0
 20
-10.75
 30
0.0
 11
6.0
 21
-20.25
 31
0.0
  0
LINE
  5
152
100
AcDbEntity
  8
0
  6
CENTER
 62
               2
100
AcDbLine
 10
10.75
 20
-15.5
 30
0.0
 11
1.25
 21
-15.5
 31
0.0
  0
LINE
  5
153
100
AcDbEntity
  8
0
  6
CENTER
 62
               2
100
AcDbLine
 10
16.25
 20
-14.0
 30
0.0
 11
10.75
 21
-14.0
 31
0.0
  0
LINE
  5
154
100
AcDbEntity
  8
0
  6
CENTER
 62
               2
100
AcDbLine
 10
13.5
 20
-16.75
 30
0.0
 11
13.5
 21
-11.25
 31
0.0
  0
LINE
  5
155
100
AcDbEntity
  8
0
  6
CENTER
 62
               2
100
AcDbLine
 10
18.5
 20
-6.5
 30
0.0
 11
10.5
 21
-6.5
 31
0.0
  0
LINE
  5
156
100
AcDbEntity
  8
0
  6
CENTER
 62
               2
100
AcDbLine
 10
14.5
 20
-2.5
 30
0.0
 11
14.5
 21
-10.5
 31
0.0
  0
LINE
  5
157
100
AcDbEntity
  8
0
  6
CONTINUOUS
 62
               7
100
AcDbLine
 10
17.5
 20
-21.0
 30
0.0
 11
1.0
 21
-21.0
 31
0.0
  0
LINE
  5
158
100
AcDbEntity
  8
0
  6
CONTINUOUS
 62
               7
100
AcDbLine
 10
15.221687833600242
 20
-5.250000005000004
 30
0.0
 11
15.943375667200542
 21
-6.5
 31
0.0
  0
LINE
  5
159
100
AcDbEntity
  8
0
  6
CONTINUOUS
 62
               7
100
AcDbLine
 10
13.778312166399758
 20
-5.250000005000004
 30
0.0
 11
15.221687833600242
 21
-5.250000005000004
 31
0.0
  0
LINE
  5
15A
100
AcDbEntity
  8
0
  6
CONTINUOUS
 62
               7
100
AcDbLine
 10
13.778312166399758
 20
-5.250000005000004
 30
0.0
 11
13.056624332799458
 21
-6.5
 31
0.0
  0
LINE
  5
15B
100
AcDbEntity
  8
0
  6
CONTINUOUS
 62
               7
100
AcDbLine
 10
13.778312166399758
 20
-7.749999994999996
 30
0.0
 11
13.056624332799458
 21
-6.5
 31
0.0
  0
LINE
  5
15C
100
AcDbEntity
  8
0
  6
CONTINUOUS
 62
               7
100
AcDbLine
 10
13.778312166399758
 20
-7.749999994999996
 30
0.0
 11
15.221687833600242
 21
-7.749999994999996
 31
0.0
  0
LINE
  5
15D
100
AcDbEntity
  8
0
  6
CONTINUOUS
 62
               7
100
AcDbLine
 10
15.221687833600242
 20
-7.749999994999996
 30
0.0
 11
15.943375667200542
 21
-6.5
 31
0.0
  0
CIRCLE
  5
15E
100
AcDbEntity
  8
0
  6
CONTINUOUS
 62
               2
100
AcDbCircle
 10
13.5
 20
-14.0
 30
0.0
 40
2.0
  0
CIRCLE
  5
15F
100
AcDbEntity
  8
0
  6
CONTINUOUS
 62
               2
100
AcDbCircle
 10
5.5
 20
-8.0
 30
0.0
 40
2.0
  0
CIRCLE
  5
160
100
AcDbEntity
  8
0
  6
CONTINUOUS
 62
               7
100
AcDbCircle
 10
6.0
 20
-15.5
 30
0.0
 40
3.5
  0
ARC
  5
161
100
AcDbEntity
  8
0
  6
CONTINUOUS
 62
               7
100
AcDbCircle
 10
14.5
 20
-6.5
 30
0.0
 40
3.25
100
AcDbArc
 50
22.619864948040391
 51
337.3801350519588
  0
CIRCLE
  5
162
100
AcDbEntity
  8
0
  6
CONTINUOUS
 62
               7
100
AcDbCircle
 10
14.5
 20
-6.5
 30
0.0
 40
2.75
  0
CIRCLE
  5
163
100
AcDbEntity
  8
0
  6
CONTINUOUS
 62
               7
100
AcDbCircle
 10
6.0
 20
-15.5
 30
0.0
 40
4.0
  0
LINE
  5
164
100
AcDbEntity
  8
0
  6
CENTER
 62
               2
100
AcDbLine
 10
6.0
 20
10.75
 30
0.0
 11
6.0
 21
20.25
 31
0.0
  0
LINE
  5
165
100
AcDbEntity
  8
0
  6
CENTER
 62
               2
100
AcDbLine
 10
8.25
 20
8.0
 30
0.0
 11
2.75
 21
8.0
 31
0.0
  0
LINE
  5
166
100
AcDbEntity
  8
0
  6
CENTER
 62
               2
100
AcDbLine
 10
5.5
 20
10.75
 30
0.0
 11
5.5
 21
5.25
 31
0.0
  0
CIRCLE
  5
167
100
AcDbEntity
  8
0
  6
CONTINUOUS
 62
               2
100
AcDbCircle
 10
5.5
 20
8.0
 30
0.0
 40
2.0
  0
LINE
  5
168
100
AcDbEntity
  8
0
  6
CENTER
 62
               2
100
AcDbLine
 10
16.25
 20
14.0
 30
0.0
 11
10.75
 21
14.0
 31
0.0
  0
LINE
  5
169
100
AcDbEntity
  8
0
  6
CENTER
 62
               2
100
AcDbLine
 10
13.5
 20
16.75
 30
0.0
 11
13.5
 21
11.25
 31
0.0
  0
CIRCLE
  5
16A
100
AcDbEntity
  8
0
  6
CONTINUOUS
 62
               2
100
AcDbCircle
 10
13.5
 20
14.0
 30
0.0
 40
2.0
  0
CIRCLE
  5
16B
100
AcDbEntity
  8
0
  6
CONTINUOUS
 62
               7
100
AcDbCircle
 10
6.0
 20
15.5
 30
0.0
 40
3.5
  0
ARC
  5
16C
100
AcDbEntity
  8
0
  6
CONTINUOUS
 62
               7
100
AcDbCircle
 10
3.2500000000016485
 20
23.024999941394753
 30
0.0
 40
2.0750000000000002
100
AcDbArc
 50
282.60346016420345
 51
0.0
  0
ARC
  5
16D
100
AcDbEntity
  8
0
  6
CONTINUOUS
 62
               7
100
AcDbCircle
 10
8.7499999999983515
 20
23.024999941394753
 30
0.0
 40
2.0750000000000002
100
AcDbArc
 50
179.99999999999966
 51
257.39653983579541
  0
LINE
  5
16E
100
AcDbEntity
  8
0
  6
CONTINUOUS
 62
               7
100
AcDbLine
 10
1.0
 20
21.0
 30
0.0
 11
1.0
 21
-21.0
 31
0.0
  0
ARC
  5
16F
100
AcDbEntity
  8
0
  6
CONTINUOUS
 62
               7
100
AcDbCircle
 10
14.5
 20
6.5
 30
0.0
 40
3.25
100
AcDbArc
 50
22.619864948040377
 51
337.3801350519588
  0
LINE
  5
170
100
AcDbEntity
  8
0
  6
CONTINUOUS
 62
               7
100
AcDbLine
 10
15.221687833600242
 20
7.749999994999996
 30
0.0
 11
15.943375667200542
 21
6.5
 31
0.0
  0
LINE
  5
171
100
AcDbEntity
  8
0
  6
CONTINUOUS
 62
               7
100
AcDbLine
 10
13.778312166399758
 20
7.749999994999996
 30
0.0
 11
15.221687833600242
 21
7.749999994999996
 31
0.0
  0
LINE
  5
172
100
AcDbEntity
  8
0
  6
CONTINUOUS
 62
               7
100
AcDbLine
 10
13.778312166399758
 20
7.749999994999996
 30
0.0
 11
13.056624332799458
 21
6.5
 31
0.0
  0
LINE
  5
173
100
AcDbEntity
  8
0
  6
CONTINUOUS
 62
               7
100
AcDbLine
 10
13.778312166399758
 20
5.250000005000004
 30
0.0
 11
13.056624332799458
 21
6.5
 31
0.0
  0
LINE
  5
174
100
AcDbEntity
  8
0
  6
CONTINUOUS
 62
               7
100
AcDbLine
 10
13.778312166399758
 20
5.250000005000004
 30
0.0
 11
15.221687833600242
 21
5.250000005000004
 31
0.0
  0
LINE
  5
175
100
AcDbEntity
  8
0
  6
CONTINUOUS
 62
               7
100
AcDbLine
 10
15.221687833600242
 20
5.250000005000004
 30
0.0
 11
15.943375667200542
 21
6.5
 31
0.0
  0
CIRCLE
  5
176
100
AcDbEntity
  8
0
  6
CONTINUOUS
 62
               7
100
AcDbCircle
 10
14.5
 20
6.5
 30
0.0
 40
2.75
  0
LINE
  5
177
100
AcDbEntity
  8
0
  6
CONTINUOUS
 62
               7
100
AcDbLine
 10
17.5
 20
21.0
 30
0.0
 11
17.5
 21
-21.0
 31
0.0
  0
LINE
  5
178
100
AcDbEntity
  8
0
  6
CONTINUOUS
 62
               7
100
AcDbLine
 10
0.0
 20
11.000000059603991
 30
0.0
 11
0.0
 21
-10.999999999999346
 31
0.0
  0
LINE
  5
179
100
AcDbEntity
  8
0
  6
CONTINUOUS
 62
               7
100
AcDbLine
 10
14.999999999999943
 20
-26.0
 30
0.0
 11
0.5
 21
-26.0
 31
0.0
  0
LINE
  5
17A
100
AcDbEntity
  8
0
  6
CONTINUOUS
 62
               7
100
AcDbLine
 10
0.3000000000000114
 20
-11.299999999999329
 30
0.0
 11
0.3000000000000114
 21
-17.699999999999335
 31
0.0
  0
LINE
  5
17B
100
AcDbEntity
  8
0
  6
CONTINUOUS
 62
               7
100
AcDbLine
 10
0.300000011920929
 20
-17.699999988078417
 30
0.0
 11
0.0
 21
-17.999999999999346
 31
0.0
  0
LINE
  5
17C
100
AcDbEntity
  8
0
  6
CONTINUOUS
 62
               7
100
AcDbLine
 10
0.300000011920929
 20
-11.300000011920275
 30
0.0
 11
0.0000000596046448
 21
-11.000000059603991
 31
0.0
  0
LINE
  5
17D
100
AcDbEntity
  8
0
  6
CONTINUOUS
 62
               7
100
AcDbLine
 10
0.0
 20
-17.999999999999346
 30
0.0
 11
0.0
 21
-25.5
 31
0.0
  0
LINE
  5
17E
100
AcDbEntity
  8
0
  6
CONTINUOUS
 62
               7
100
AcDbLine
 10
17.0
 20
-24.0
 30
0.0
 11
17.0
 21
-21.0
 31
0.0
  0
LINE
  5
17F
100
AcDbEntity
  8
0
  6
CONTINUOUS
 62
               7
100
AcDbLine
 10
17.0
 20
-24.0
 30
0.0
 11
14.999999999999943
 21
-26.0
 31
0.0
  0
LINE
  5
180
100
AcDbEntity
  8
0
  6
CENTER
 62
               2
100
AcDbLine
 10
18.5
 20
6.5
 30
0.0
 11
10.5
 21
6.5
 31
0.0
  0
LINE
  5
181
100
AcDbEntity
  8
0
  6
CENTER
 62
               2
100
AcDbLine
 10
14.5
 20
2.5
 30
0.0
 11
14.5
 21
10.5
 31
0.0
  0
LINE
  5
182
100
AcDbEntity
  8
0
  6
CONTINUOUS
 62
               7
100
AcDbLine
 10
17.0
 20
24.0
 30
0.0
 11
14.999999999999943
 21
26.0
 31
0.0
  0
CIRCLE
  5
183
100
AcDbEntity
  8
0
  6
CONTINUOUS
 62
               7
100
AcDbCircle
 10
6.0
 20
15.5
 30
0.0
 40
4.0
  0
LINE
  5
184
100
AcDbEntity
  8
0
  6
CONTINUOUS
 62
               7
100
AcDbLine
 10
17.0
 20
24.0
 30
0.0
 11
17.0
 21
21.0
 31
0.0
  0
ARC
  5
185
100
AcDbEntity
  8
0
  6
CONTINUOUS
 62
               7
100
AcDbCircle
 10
5.1513327834401821
 20
25.298667216561512
 30
0.0
 40
0.3013357308493075
100
AcDbArc
 50
90.253415400782799
 51
179.74658459921466
  0
LINE
  5
186
100
AcDbEntity
  8
0
  6
CONTINUOUS
 62
               7
100
AcDbLine
 10
1.6500000000016826
 20
25.119999941394752
 30
0.0
 11
1.6500000000016826
 21
25.5
 31
0.0
  0
LINE
  5
187
100
AcDbEntity
  8
0
  6
CONTINUOUS
 62
               7
100
AcDbLine
 10
1.1750000000017167
 20
24.654895774728089
 30
0.0
 11
1.6500000000016826
 21
25.119999941394752
 31
0.0
  0
LINE
  5
188
100
AcDbEntity
  8
0
  6
CONTINUOUS
 62
               7
100
AcDbLine
 10
5.3250000000016939
 20
24.644999941394758
 30
0.0
 11
4.8500000000016712
 21
25.119999941394752
 31
0.0
  0
LINE
  5
189
100
AcDbEntity
  8
0
  6
CONTINUOUS
 62
               7
100
AcDbLine
 10
4.8500000000016712
 20
25.119999941394752
 30
0.0
 11
4.8500000000016712
 21
25.300000000000011
 31
0.0
  0
ARC
  5
18A
100
AcDbEntity
  8
0
  6
CONTINUOUS
 62
               7
100
AcDbCircle
 10
1.1500000000016826
 20
25.5
 30
0.0
 40
0.5
100
AcDbArc
 50
0.0
 51
89.999999999999815
  0
ARC
  5
18B
100
AcDbEntity
  8
0
  6
CONTINUOUS
 62
               7
100
AcDbCircle
 10
3.2500000000016485
 20
23.024999941394753
 30
0.0
 40
2.0750000000000002
100
AcDbArc
 50
179.99999999999963
 51
257.39653983579535
  0
LINE
  5
18C
100
AcDbEntity
  8
0
  6
CONTINUOUS
 62
               7
100
AcDbLine
 10
1.1750000000017167
 20
23.024999941394753
 30
0.0
 11
1.1750000000017167
 21
24.654895774728089
 31
0.0
  0
LINE
  5
18D
100
AcDbEntity
  8
0
  6
CONTINUOUS
 62
               7
100
AcDbLine
 10
5.3250000000016939
 20
23.024999941394753
 30
0.0
 11
5.3250000000016939
 21
24.644999941394758
 31
0.0
  0
LINE
  5
18E
100
AcDbEntity
  8
0
  6
CONTINUOUS
 62
               7
100
AcDbLine
 10
0.5
 20
26.0
 30
0.0
 11
1.1500000000016826
 21
26.0
 31
0.0
  0
LINE
  5
18F
100
AcDbEntity
  8
0
  6
CENTER
 62
               2
100
AcDbLine
 10
3.2500000000016485
 20
20.199999941394765
 30
0.0
 11
3.2500000000016485
 21
26.75
 31
0.0
  0
LINE
  5
190
100
AcDbEntity
  8
0
  6
CONTINUOUS
 62
               7
100
AcDbLine
 10
6.6749999999983061
 20
23.024999941394753
 30
0.0
 11
6.6749999999983061
 21
24.644999941394758
 31
0.0
  0
LINE
  5
191
100
AcDbEntity
  8
0
  6
CONTINUOUS
 62
               7
100
AcDbLine
 10
10.824999999998283
 20
23.024999941394753
 30
0.0
 11
10.824999999998283
 21
24.654895774728089
 31
0.0
  0
ARC
  5
192
100
AcDbEntity
  8
0
  6
CONTINUOUS
 62
               7
100
AcDbCircle
 10
8.7499999999983515
 20
23.024999941394753
 30
0.0
 40
2.0750000000000002
100
AcDbArc
 50
282.60346016420345
 51
0.0
  0
LINE
  5
193
100
AcDbEntity
  8
0
  6
CONTINUOUS
 62
               7
100
AcDbLine
 10
0.0
 20
17.999999999999346
 30
0.0
 11
0.0
 21
25.5
 31
0.0
  0
LINE
  5
194
100
AcDbEntity
  8
0
  6
CONTINUOUS
 62
               7
100
AcDbLine
 10
0.300000011920929
 20
11.300000011920275
 30
0.0
 11
0.0000000596046448
 21
11.000000059603991
 31
0.0
  0
LINE
  5
195
100
AcDbEntity
  8
0
  6
CONTINUOUS
 62
               7
100
AcDbLine
 10
0.300000011920929
 20
17.699999988078417
 30
0.0
 11
0.0
 21
17.999999999999346
 31
0.0
  0
LINE
  5
196
100
AcDbEntity
  8
0
  6
CONTINUOUS
 62
               7
100
AcDbLine
 10
0.3000000000000114
 20
11.299999999999358
 30
0.0
 11
0.3000000000000114
 21
17.699999999999335
 31
0.0
  0
ARC
  5
197
100
AcDbEntity
  8
0
  6
CONTINUOUS
 62
               7
100
AcDbCircle
 10
10.849999999998317
 20
25.5
 30
0.0
 40
0.5
100
AcDbArc
 50
89.999999999999815
 51
179.99999999999963
  0
LINE
  5
198
100
AcDbEntity
  8
0
  6
CONTINUOUS
 62
               7
100
AcDbLine
 10
7.1499999999983288
 20
25.119999941394752
 30
0.0
 11
7.1499999999983288
 21
25.300000000000011
 31
0.0
  0
LINE
  5
199
100
AcDbEntity
  8
0
  6
CONTINUOUS
 62
               7
100
AcDbLine
 10
6.6749999999983061
 20
24.644999941394758
 30
0.0
 11
7.1499999999983288
 21
25.119999941394752
 31
0.0
  0
LINE
  5
19A
100
AcDbEntity
  8
0
  6
CONTINUOUS
 62
               7
100
AcDbLine
 10
10.824999999998283
 20
24.654895774728089
 30
0.0
 11
10.349999999998317
 21
25.119999941394752
 31
0.0
  0
LINE
  5
19B
100
AcDbEntity
  8
0
  6
CONTINUOUS
 62
               7
100
AcDbLine
 10
10.349999999998317
 20
25.119999941394752
 30
0.0
 11
10.349999999998317
 21
25.5
 31
0.0
  0
ARC
  5
19C
100
AcDbEntity
  8
0
  6
CONTINUOUS
 62
               7
100
AcDbCircle
 10
6.8486672165598179
 20
25.298667216561512
 30
0.0
 40
0.3013357308493075
100
AcDbArc
 50
0.2534154007849536
 51
89.746584599216803
  0
LINE
  5
19D
100
AcDbEntity
  8
0
  6
CENTER
 62
               2
100
AcDbLine
 10
8.7499999999983515
 20
20.199999941394765
 30
0.0
 11
8.7499999999983515
 21
26.75
 31
0.0
  0
LINE
  5
19E
100
AcDbEntity
  8
0
  6
CENTER
 62
               2
100
AcDbLine
 10
0.4250000000016598
 20
23.024999941394753
 30
0.0
 11
11.57499999999834
 21
23.024999941394753
 31
0.0
  0
LINE
  5
19F
100
AcDbEntity
  8
0
  6
CONTINUOUS
 62
               7
100
AcDbLine
 10
5.1700000000016644
 20
25.599999999999994
 30
0.0
 11
6.8500000000016712
 21
25.599999999999994
 31
0.0
  0
LINE
  5
1A0
100
AcDbEntity
  8
0
  6
CENTER
 62
               2
100
AcDbLine
 10
10.75
 20
15.5
 30
0.0
 11
1.25
 21
15.5
 31
0.0
  0
LINE
  5
1A1
100
AcDbEntity
  8
0
  6
CENTER
 62
               2
100
AcDbLine
 10
19.5
 20
0.0
 30
0.0
 11
-1.5
 21
0.0
 31
0.0
  0
LINE
  5
1A2
100
AcDbEntity
  8
0
  6
CONTINUOUS
 62
               7
100
AcDbLine
 10
17.5
 20
21.0
 30
0.0
 11
1.0
 21
21.0
 31
0.0
  0
LINE
  5
1A3
100
AcDbEntity
  8
0
  6
CONTINUOUS
 62
               7
100
AcDbLine
 10
14.999999999999943
 20
26.0
 30
0.0
 11
10.849999999998317
 21
26.0
 31
0.0
  0
ARC
  5
1A4
100
AcDbEntity
  8
0
  6
CONTINUOUS
 62
               7
100
AcDbCircle
 10
0.5
 20
25.5
 30
0.0
 40
0.5
100
AcDbArc
 50
89.999999999999815
 51
179.99999999999963
  0
ARC
  5
1A5
100
AcDbEntity
  8
0
  6
CONTINUOUS
 62
               7
100
AcDbCircle
 10
0.5
 20
-25.5
 30
0.0
 40
0.5
100
AcDbArc
 50
179.99999999999963
 51
269.99999999999937
  0
LINE
  5
1A6
100
AcDbEntity
  8
0
  6
CONTINUOUS
 62
               7
100
AcDbLine
 10
18.0
 20
10.5
 30
0.0
 11
18.0
 21
2.5
 31
0.0
  0
LINE
  5
1A7
100
AcDbEntity
  8
0
  6
CONTINUOUS
 62
               7
100
AcDbLine
 10
18.0
 20
2.5
 30
0.0
 11
17.5
 21
2.0
 31
0.0
  0
LINE
  5
1A8
100
AcDbEntity
  8
0
  6
CONTINUOUS
 62
               7
100
AcDbLine
 10
18.0
 20
-10.5
 30
0.0
 11
18.0
 21
-2.5
 31
0.0
  0
LINE
  5
1A9
100
AcDbEntity
  8
0
  6
CONTINUOUS
 62
               7
100
AcDbLine
 10
18.0
 20
-2.5
 30
0.0
 11
17.5
 21
-2.0
 31
0.0
  0
LINE
  5
1AA
100
AcDbEntity
  8
0
  6
CONTINUOUS
 62
               7
100
AcDbLine
 10
18.0
 20
-10.5
 30
0.0
 11
17.5
 21
-11.0
 31
0.0
  0
CIRCLE
  5
1AB
100
AcDbEntity
  8
0
  6
CONTINUOUS
 62
               7
100
AcDbCircle
 10
6.0
 20
-15.5
 30
0.0
 40
1.3
  0
CIRCLE
  5
1AC
100
AcDbEntity
  8
0
  6
CONTINUOUS
 62
               2
100
AcDbCircle
 10
6.0
 20
-15.5
 30
0.0
 40
0.9
  0
CIRCLE
  5
1AD
100
AcDbEntity
  8
0
  6
CONTINUOUS
 62
               7
100
AcDbCircle
 10
6.0
 20
15.5
 30
0.0
 40
1.3
  0
CIRCLE
  5
1AE
100
AcDbEntity
  8
0
  6
CONTINUOUS
 62
               2
100
AcDbCircle
 10
6.0
 20
15.5
 30
0.0
 40
0.9
  0
CIRCLE
  5
1AF
100
AcDbEntity
  8
0
  6
CONTINUOUS
 62
               7
100
AcDbCircle
 10
6.0
 20
17.900000000000006
 30
0.0
 40
0.55
  0
CIRCLE
  5
1B0
100
AcDbEntity
  8
0
  6
CONTINUOUS
 62
               7
100
AcDbCircle
 10
6.0
 20
13.100000000000023
 30
0.0
 40
0.55
  0
CIRCLE
  5
1B1
100
AcDbEntity
  8
0
  6
CONTINUOUS
 62
               7
100
AcDbCircle
 10
6.0
 20
-17.899999999999991
 30
0.0
 40
0.55
  0
CIRCLE
  5
1B2
100
AcDbEntity
  8
0
  6
CONTINUOUS
 62
               7
100
AcDbCircle
 10
6.0
 20
-13.099999999999994
 30
0.0
 40
0.55
  0
ENDBLK
  5
1B3
100
AcDbEntity
  8
0
100
AcDbBlockEnd
  0
BLOCK
  5
1B4
100
AcDbEntity
  8
0
100
AcDbBlockBegin
  2
ZS6RS-5
 70
               0
 10
0.0
 20
0.0
 30
0.0
  3
ZS6RS-5
  1

  0
LINE
  5
1B5
100
AcDbEntity
  8
0
  6
CONTINUOUS
 62
               7
100
AcDbLine
 10
-17.5
 20
-11.0
 30
0.0
 11
-17.5
 21
-12.5
 31
0.0
  0
ARC
  5
1B6
100
AcDbEntity
  8
0
  6
CONTINUOUS
 62
               7
100
AcDbCircle
 10
-13.0
 20
-19.0
 30
0.0
 40
4.25
100
AcDbArc
 50
199.74992279564211
 51
8.6918720271355685
  0
ARC
  5
1B7
100
AcDbEntity
  8
0
  6
CONTINUOUS
 62
               7
100
AcDbCircle
 10
-13.0
 20
-19.0
 30
0.0
 40
4.25
100
AcDbArc
 50
44.438230327020371
 51
160.25007720435707
  0
ARC
  5
1B8
100
AcDbEntity
  8
0
  6
CONTINUOUS
 62
               7
100
AcDbCircle
 10
-13.0
 20
19.0
 30
0.0
 40
4.25
100
AcDbArc
 50
199.74992279564211
 51
315.56176967297881
  0
ARC
  5
1B9
100
AcDbEntity
  8
0
  6
CONTINUOUS
 62
               7
100
AcDbCircle
 10
-13.0
 20
19.0
 30
0.0
 40
4.25
100
AcDbArc
 50
351.30812797286364
 51
28.269226770582158
  0
ARC
  5
1BA
100
AcDbEntity
  8
0
  6
CONTINUOUS
 62
               7
100
AcDbCircle
 10
-13.0
 20
19.0
 30
0.0
 40
4.25
100
AcDbArc
 50
58.615757331650656
 51
160.25007720435707
  0
ARC
  5
1BB
100
AcDbEntity
  8
0
  6
CONTINUOUS
 62
               7
100
AcDbCircle
 10
-8.7499999999984084
 20
23.024999941394782
 30
0.0
 40
2.0750000000000002
100
AcDbArc
 50
245.15302076608438
 51
0.0
  0
LINE
  5
1BC
100
AcDbEntity
  8
0
  6
CONTINUOUS
 62
               7
100
AcDbLine
 10
-16.968626966596958
 20
19.5
 30
0.0
 11
-9.0
 21
19.500000000000028
 31
0.0
  0
LINE
  5
1BD
100
AcDbEntity
  8
0
  6
CONTINUOUS
 62
               7
100
AcDbLine
 10
-16.968626966596958
 20
18.5
 30
0.0
 11
-9.0
 21
18.500000000000028
 31
0.0
  0
CIRCLE
  5
1BE
100
AcDbEntity
  8
0
  6
CONTINUOUS
 62
               7
100
AcDbCircle
 10
-13.0
 20
19.0
 30
0.0
 40
4.0
  0
LINE
  5
1BF
100
AcDbEntity
  8
0
  6
CENTER
 62
               2
100
AcDbLine
 10
-13.0
 20
14.0
 30
0.0
 11
-13.0
 21
24.000000000000028
 31
0.0
  0
LINE
  5
1C0
100
AcDbEntity
  8
0
  6
CENTER
 62
               2
100
AcDbLine
 10
-6.0
 20
10.75
 30
0.0
 11
-6.0
 21
20.25
 31
0.0
  0
LINE
  5
1C1
100
AcDbEntity
  8
0
  6
CONTINUOUS
 62
               7
100
AcDbLine
 10
-2.8348911452369521
 20
16.405309857175979
 30
0.0
 11
-2.1542230953941726
 21
16.600000000000023
 31
0.0
  0
CIRCLE
  5
1C2
100
AcDbEntity
  8
0
  6
CONTINUOUS
 62
               7
100
AcDbCircle
 10
-3.0686411452368247
 20
17.22253744940474
 30
0.0
 40
0.4
  0
ARC
  5
1C3
100
AcDbEntity
  8
0
  6
CONTINUOUS
 62
               7
100
AcDbCircle
 10
-3.0686411452368247
 20
17.22253744940474
 30
0.0
 40
0.85
100
AcDbArc
 50
151.34763495144185
 51
285.96201416284663
  0
ARC
  5
1C4
100
AcDbEntity
  8
0
  6
CONTINUOUS
 62
               7
100
AcDbCircle
 10
-4.5165905799792654
 20
18.013702687790214
 30
0.0
 40
0.8
100
AcDbArc
 50
331.34763495144165
 51
63.863997833392553
  0
LINE
  5
1C5
100
AcDbEntity
  8
0
  6
CONTINUOUS
 62
               7
100
AcDbLine
 10
-2.8348911452369521
 20
14.594690142824021
 30
0.0
 11
-2.1542230953941726
 21
14.400000000000006
 31
0.0
  0
CIRCLE
  5
1C6
100
AcDbEntity
  8
0
  6
CONTINUOUS
 62
               7
100
AcDbCircle
 10
-3.0686411452368247
 20
13.77746255059526
 30
0.0
 40
0.4
  0
ARC
  5
1C7
100
AcDbEntity
  8
0
  6
CONTINUOUS
 62
               7
100
AcDbCircle
 10
-3.0686411452368247
 20
13.77746255059526
 30
0.0
 40
0.85
100
AcDbArc
 50
74.03798583715259
 51
208.65236504855736
  0
ARC
  5
1C8
100
AcDbEntity
  8
0
  6
CONTINUOUS
 62
               7
100
AcDbCircle
 10
-4.5165905799792654
 20
12.986297312209786
 30
0.0
 40
0.8
100
AcDbArc
 50
296.13600216660745
 51
28.652365048557566
  0
ARC
  5
1C9
100
AcDbEntity
  8
0
  6
CONTINUOUS
 62
               7
100
AcDbCircle
 10
-5.75
 20
15.5
 30
0.0
 40
3.6000000000000001
100
AcDbArc
 50
63.86399783339246
 51
296.13600216660666
  0
LINE
  5
1CA
100
AcDbEntity
  8
0
  6
CENTER
 62
               2
100
AcDbLine
 10
-10.75
 20
15.5
 30
0.0
 11
-1.25
 21
15.5
 31
0.0
  0
ARC
  5
1CB
100
AcDbEntity
  8
0
  6
CONTINUOUS
 62
               7
100
AcDbCircle
 10
-6.0
 20
15.5
 30
0.0
 40
4.0
100
AcDbArc
 50
165.39847956735926
 51
141.47141807848485
  0
ARC
  5
1CC
100
AcDbEntity
  8
0
  6
CONTINUOUS
 62
               7
100
AcDbCircle
 10
-4.5165905799792654
 20
-12.986297312209771
 30
0.0
 40
0.8
100
AcDbArc
 50
331.34763495144165
 51
63.863997833392553
  0
ARC
  5
1CD
100
AcDbEntity
  8
0
  6
CONTINUOUS
 62
               7
100
AcDbCircle
 10
-3.0686411452368247
 20
-13.77746255059526
 30
0.0
 40
0.85
100
AcDbArc
 50
151.34763495144185
 51
285.96201416284663
  0
CIRCLE
  5
1CE
100
AcDbEntity
  8
0
  6
CONTINUOUS
 62
               7
100
AcDbCircle
 10
-3.0686411452368247
 20
-13.77746255059526
 30
0.0
 40
0.4
  0
LINE
  5
1CF
100
AcDbEntity
  8
0
  6
CONTINUOUS
 62
               7
100
AcDbLine
 10
-2.8348911452369521
 20
-14.594690142824007
 30
0.0
 11
-2.1542230953941726
 21
-14.399999999999991
 31
0.0
  0
ARC
  5
1D0
100
AcDbEntity
  8
0
  6
CONTINUOUS
 62
               7
100
AcDbCircle
 10
-4.5165905799792654
 20
-18.013702687790214
 30
0.0
 40
0.8
100
AcDbArc
 50
296.1360021666074
 51
28.652365048557517
  0
ARC
  5
1D1
100
AcDbEntity
  8
0
  6
CONTINUOUS
 62
               7
100
AcDbCircle
 10
-3.0686411452368247
 20
-17.222537449404726
 30
0.0
 40
0.85
100
AcDbArc
 50
74.037985837152576
 51
208.65236504855736
  0
CIRCLE
  5
1D2
100
AcDbEntity
  8
0
  6
CONTINUOUS
 62
               7
100
AcDbCircle
 10
-3.0686411452368247
 20
-17.222537449404726
 30
0.0
 40
0.4
  0
LINE
  5
1D3
100
AcDbEntity
  8
0
  6
CONTINUOUS
 62
               7
100
AcDbLine
 10
-2.8348911452369521
 20
-16.405309857175979
 30
0.0
 11
-2.1542230953941726
 21
-16.599999999999994
 31
0.0
  0
ARC
  5
1D4
100
AcDbEntity
  8
0
  6
CONTINUOUS
 62
               7
100
AcDbCircle
 10
-5.75
 20
-15.5
 30
0.0
 40
3.6000000000000001
100
AcDbArc
 50
63.863997833392503
 51
296.13600216660672
  0
LINE
  5
1D5
100
AcDbEntity
  8
0
  6
CONTINUOUS
 62
               7
100
AcDbLine
 10
-16.968626966596958
 20
-19.499999999999972
 30
0.0
 11
-9.0
 21
-19.500000000000014
 31
0.0
  0
LINE
  5
1D6
100
AcDbEntity
  8
0
  6
CONTINUOUS
 62
               7
100
AcDbLine
 10
-16.968626966596958
 20
-18.499999999999972
 30
0.0
 11
-9.0
 21
-18.500000000000014
 31
0.0
  0
CIRCLE
  5
1D7
100
AcDbEntity
  8
0
  6
CONTINUOUS
 62
               7
100
AcDbCircle
 10
-13.0
 20
-19.0
 30
0.0
 40
4.0
  0
ARC
  5
1D8
100
AcDbEntity
  8
0
  6
CONTINUOUS
 62
               7
100
AcDbCircle
 10
-16.5
 20
-13.0
 30
0.0
 40
0.5
100
AcDbArc
 50
89.999999999999815
 51
179.99999999999963
  0
ARC
  5
1D9
100
AcDbEntity
  8
0
  6
CONTINUOUS
 62
               7
100
AcDbCircle
 10
-0.5
 20
-25.5
 30
0.0
 40
0.5
100
AcDbArc
 50
270.00000000000023
 51
0.0
  0
ARC
  5
1DA
100
AcDbEntity
  8
0
  6
CONTINUOUS
 62
               7
100
AcDbCircle
 10
-16.5
 20
13.0
 30
0.0
 40
0.5
100
AcDbArc
 50
179.99999999999963
 51
269.99999999999937
  0
ARC
  5
1DB
100
AcDbEntity
  8
0
  6
CONTINUOUS
 62
               7
100
AcDbCircle
 10
-0.5
 20
25.500000000000028
 30
0.0
 40
0.5
100
AcDbArc
 50
0.0
 51
89.999999999999815
  0
LINE
  5
1DC
100
AcDbEntity
  8
0
  6
CENTER
 62
               2
100
AcDbLine
 10
-18.5
 20
0.0
 30
0.0
 11
1.5
 21
0.0
 31
0.0
  0
LINE
  5
1DD
100
AcDbEntity
  8
0
  6
CONTINUOUS
 62
               7
100
AcDbLine
 10
0.0
 20
11.000000059603991
 30
0.0
 11
0.0
 21
-10.999999999999346
 31
0.0
  0
LINE
  5
1DE
100
AcDbEntity
  8
0
  6
CONTINUOUS
 62
               7
100
AcDbLine
 10
-15.0
 20
-26.0
 30
0.0
 11
-0.5
 21
-26.0
 31
0.0
  0
LINE
  5
1DF
100
AcDbEntity
  8
0
  6
CONTINUOUS
 62
               7
100
AcDbLine
 10
-0.2999999999999545
 20
-11.299999999999329
 30
0.0
 11
-0.2999999999999545
 21
-17.699999999999335
 31
0.0
  0
LINE
  5
1E0
100
AcDbEntity
  8
0
  6
CONTINUOUS
 62
               7
100
AcDbLine
 10
-0.300000011920929
 20
-17.699999988078417
 30
0.0
 11
0.0
 21
-17.999999999999346
 31
0.0
  0
LINE
  5
1E1
100
AcDbEntity
  8
0
  6
CONTINUOUS
 62
               7
100
AcDbLine
 10
-0.300000011920929
 20
-11.300000011920275
 30
0.0
 11
-0.0000000596046448
 21
-11.000000059603991
 31
0.0
  0
LINE
  5
1E2
100
AcDbEntity
  8
0
  6
CONTINUOUS
 62
               7
100
AcDbLine
 10
0.0
 20
-17.999999999999346
 30
0.0
 11
0.0
 21
-25.5
 31
0.0
  0
ARC
  5
1E3
100
AcDbEntity
  8
0
  6
CONTINUOUS
 62
               7
100
AcDbCircle
 10
-6.0
 20
-15.5
 30
0.0
 40
5.5
100
AcDbArc
 50
114.61997732865687
 51
144.31466528734782
  0
LINE
  5
1E4
100
AcDbEntity
  8
0
  6
CONTINUOUS
 62
               7
100
AcDbLine
 10
-17.0
 20
-24.0
 30
0.0
 11
-17.0
 21
-13.0
 31
0.0
  0
LINE
  5
1E5
100
AcDbEntity
  8
0
  6
CONTINUOUS
 62
               4
100
AcDbLine
 10
-18.0
 20
-12.5
 30
0.0
 11
-16.5
 21
-12.5
 31
0.0
  0
ARC
  5
1E6
100
AcDbEntity
  8
0
  6
CONTINUOUS
 62
               7
100
AcDbCircle
 10
-6.0
 20
-15.5
 30
0.0
 40
4.0
100
AcDbArc
 50
218.52858192151433
 51
194.60152043264074
  0
LINE
  5
1E7
100
AcDbEntity
  8
0
  6
CONTINUOUS
 62
               7
100
AcDbLine
 10
-17.0
 20
-24.0
 30
0.0
 11
-15.0
 21
-26.0
 31
0.0
  0
LINE
  5
1E8
100
AcDbEntity
  8
0
  6
CONTINUOUS
 62
               7
100
AcDbLine
 10
-17.0
 20
24.000000000000028
 30
0.0
 11
-15.0
 21
26.000000000000028
 31
0.0
  0
LINE
  5
1E9
100
AcDbEntity
  8
0
  6
CONTINUOUS
 62
               7
100
AcDbLine
 10
-16.5
 20
12.5
 30
0.0
 11
-10.873397172404566
 21
12.5
 31
0.0
  0
LINE
  5
1EA
100
AcDbEntity
  8
0
  6
CONTINUOUS
 62
               7
100
AcDbLine
 10
-17.0
 20
24.000000000000028
 30
0.0
 11
-17.0
 21
13.0
 31
0.0
  0
ARC
  5
1EB
100
AcDbEntity
  8
0
  6
CONTINUOUS
 62
               7
100
AcDbCircle
 10
-5.1513327834402389
 20
25.29866721656154
 30
0.0
 40
0.3013357308493075
100
AcDbArc
 50
0.2534154007849536
 51
89.746584599216803
  0
LINE
  5
1EC
100
AcDbEntity
  8
0
  6
CONTINUOUS
 62
               7
100
AcDbLine
 10
-1.6500000000016826
 20
25.119999941394781
 30
0.0
 11
-1.6500000000016826
 21
25.500000000000028
 31
0.0
  0
LINE
  5
1ED
100
AcDbEntity
  8
0
  6
CONTINUOUS
 62
               7
100
AcDbLine
 10
-1.1750000000017735
 20
24.654895774728089
 30
0.0
 11
-1.6500000000016826
 21
25.119999941394781
 31
0.0
  0
LINE
  5
1EE
100
AcDbEntity
  8
0
  6
CONTINUOUS
 62
               7
100
AcDbLine
 10
-5.3250000000016371
 20
24.644999941394786
 30
0.0
 11
-4.850000000001728
 21
25.119999941394781
 31
0.0
  0
LINE
  5
1EF
100
AcDbEntity
  8
0
  6
CONTINUOUS
 62
               7
100
AcDbLine
 10
-4.850000000001728
 20
25.119999941394781
 30
0.0
 11
-4.850000000001728
 21
25.300000000000011
 31
0.0
  0
ARC
  5
1F0
100
AcDbEntity
  8
0
  6
CONTINUOUS
 62
               7
100
AcDbCircle
 10
-1.1500000000016826
 20
25.500000000000028
 30
0.0
 40
0.5
100
AcDbArc
 50
89.999999999999815
 51
179.99999999999963
  0
ARC
  5
1F1
100
AcDbEntity
  8
0
  6
CONTINUOUS
 62
               7
100
AcDbCircle
 10
-3.250000000001819
 20
23.024999941394782
 30
0.0
 40
2.0750000000000002
100
AcDbArc
 50
180.00000000000037
 51
0.0
  0
LINE
  5
1F2
100
AcDbEntity
  8
0
  6
CONTINUOUS
 62
               7
100
AcDbLine
 10
-1.1750000000017735
 20
23.024999941394782
 30
0.0
 11
-1.1750000000017735
 21
24.654895774728089
 31
0.0
  0
LINE
  5
1F3
100
AcDbEntity
  8
0
  6
CONTINUOUS
 62
               7
100
AcDbLine
 10
-5.3250000000016371
 20
23.024999941394782
 30
0.0
 11
-5.3250000000016371
 21
24.644999941394786
 31
0.0
  0
LINE
  5
1F4
100
AcDbEntity
  8
0
  6
CONTINUOUS
 62
               7
100
AcDbLine
 10
-0.5
 20
26.000000000000028
 30
0.0
 11
-1.1500000000016826
 21
26.000000000000028
 31
0.0
  0
LINE
  5
1F5
100
AcDbEntity
  8
0
  6
CENTER
 62
               2
100
AcDbLine
 10
-3.250000000001819
 20
20.199999941394765
 30
0.0
 11
-3.250000000001819
 21
26.750000000000028
 31
0.0
  0
LINE
  5
1F6
100
AcDbEntity
  8
0
  6
CONTINUOUS
 62
               7
100
AcDbLine
 10
-6.6749999999983629
 20
23.024999941394782
 30
0.0
 11
-6.6749999999983629
 21
24.644999941394786
 31
0.0
  0
LINE
  5
1F7
100
AcDbEntity
  8
0
  6
CONTINUOUS
 62
               7
100
AcDbLine
 10
-10.824999999998454
 20
23.024999941394782
 30
0.0
 11
-10.824999999998454
 21
24.654895774728089
 31
0.0
  0
ARC
  5
1F8
100
AcDbEntity
  8
0
  6
CONTINUOUS
 62
               7
100
AcDbCircle
 10
-8.7499999999984084
 20
23.024999941394782
 30
0.0
 40
2.0750000000000002
100
AcDbArc
 50
179.99999999999963
 51
201.73196333614777
  0
ARC
  5
1F9
100
AcDbEntity
  8
0
  6
CONTINUOUS
 62
               7
100
AcDbCircle
 10
-6.0
 20
15.5
 30
0.0
 40
5.5
100
AcDbArc
 50
215.68533471265158
 51
245.38002267134237
  0
LINE
  5
1FA
100
AcDbEntity
  8
0
  6
CONTINUOUS
 62
               7
100
AcDbLine
 10
0.0
 20
17.999999999999375
 30
0.0
 11
0.0
 21
25.500000000000028
 31
0.0
  0
LINE
  5
1FB
100
AcDbEntity
  8
0
  6
CONTINUOUS
 62
               7
100
AcDbLine
 10
-0.300000011920929
 20
11.300000011920275
 30
0.0
 11
-0.0000000596046448
 21
11.000000059603991
 31
0.0
  0
LINE
  5
1FC
100
AcDbEntity
  8
0
  6
CONTINUOUS
 62
               7
100
AcDbLine
 10
-0.300000011920929
 20
17.699999988078446
 30
0.0
 11
0.0
 21
17.999999999999375
 31
0.0
  0
LINE
  5
1FD
100
AcDbEntity
  8
0
  6
CONTINUOUS
 62
               7
100
AcDbLine
 10
-0.2999999999999545
 20
11.299999999999358
 30
0.0
 11
-0.2999999999999545
 21
17.699999999999363
 31
0.0
  0
ARC
  5
1FE
100
AcDbEntity
  8
0
  6
CONTINUOUS
 62
               7
100
AcDbCircle
 10
-10.849999999998317
 20
25.500000000000028
 30
0.0
 40
0.5
100
AcDbArc
 50
0.0
 51
89.999999999999815
  0
LINE
  5
1FF
100
AcDbEntity
  8
0
  6
CONTINUOUS
 62
               7
100
AcDbLine
 10
-7.149999999998272
 20
25.119999941394781
 30
0.0
 11
-7.149999999998272
 21
25.300000000000011
 31
0.0
  0
LINE
  5
200
100
AcDbEntity
  8
0
  6
CONTINUOUS
 62
               7
100
AcDbLine
 10
-6.6749999999983629
 20
24.644999941394786
 30
0.0
 11
-7.149999999998272
 21
25.119999941394781
 31
0.0
  0
LINE
  5
201
100
AcDbEntity
  8
0
  6
CONTINUOUS
 62
               7
100
AcDbLine
 10
-10.824999999998454
 20
24.654895774728089
 30
0.0
 11
-10.349999999998317
 21
25.119999941394781
 31
0.0
  0
LINE
  5
202
100
AcDbEntity
  8
0
  6
CONTINUOUS
 62
               7
100
AcDbLine
 10
-10.349999999998317
 20
25.119999941394781
 30
0.0
 11
-10.349999999998317
 21
25.500000000000028
 31
0.0
  0
ARC
  5
203
100
AcDbEntity
  8
0
  6
CONTINUOUS
 62
               7
100
AcDbCircle
 10
-6.8486672165597611
 20
25.29866721656154
 30
0.0
 40
0.3013357308493075
100
AcDbArc
 50
90.253415400782799
 51
179.74658459921466
  0
LINE
  5
204
100
AcDbEntity
  8
0
  6
CONTINUOUS
 62
               7
100
AcDbLine
 10
-15.0
 20
26.000000000000028
 30
0.0
 11
-10.849999999998317
 21
26.000000000000028
 31
0.0
  0
LINE
  5
205
100
AcDbEntity
  8
0
  6
CENTER
 62
               2
100
AcDbLine
 10
-8.7499999999984084
 20
20.199999941394765
 30
0.0
 11
-8.7499999999984084
 21
26.750000000000028
 31
0.0
  0
LINE
  5
206
100
AcDbEntity
  8
0
  6
CENTER
 62
               2
100
AcDbLine
 10
-0.4250000000017735
 20
23.024999941394782
 30
0.0
 11
-11.574999999998454
 21
23.024999941394782
 31
0.0
  0
LINE
  5
207
100
AcDbEntity
  8
0
  6
CONTINUOUS
 62
               7
100
AcDbLine
 10
-5.1700000000016644
 20
25.600000000000023
 30
0.0
 11
-6.850000000001728
 21
25.600000000000023
 31
0.0
  0
ARC
  5
208
100
AcDbEntity
  8
0
  6
CONTINUOUS
 62
               7
100
AcDbCircle
 10
-10.873397172404566
 20
12.0
 30
0.0
 40
0.5
100
AcDbArc
 50
35.685334712652548
 51
89.999999999999815
  0
ARC
  5
209
100
AcDbEntity
  8
0
  6
CONTINUOUS
 62
               7
100
AcDbCircle
 10
-10.873397172404566
 20
-12.0
 30
0.0
 40
0.5
100
AcDbArc
 50
269.99999999999937
 51
324.31466528734597
  0
LINE
  5
20A
100
AcDbEntity
  8
0
  6
CENTER
 62
               2
100
AcDbLine
 10
-6.0
 20
-10.75
 30
0.0
 11
-6.0
 21
-20.25
 31
0.0
  0
LINE
  5
20B
100
AcDbEntity
  8
0
  6
CENTER
 62
               2
100
AcDbLine
 10
-10.75
 20
-15.5
 30
0.0
 11
-1.25
 21
-15.5
 31
0.0
  0
LINE
  5
20C
100
AcDbEntity
  8
0
  6
CENTER
 62
               2
100
AcDbLine
 10
-13.0
 20
-14.0
 30
0.0
 11
-13.0
 21
-24.0
 31
0.0
  0
LINE
  5
20D
100
AcDbEntity
  8
0
  6
CONTINUOUS
 62
               7
100
AcDbLine
 10
-17.5
 20
11.0
 30
0.0
 11
-17.5
 21
20.999999999999886
 31
0.0
  0
LINE
  5
20E
100
AcDbEntity
  8
0
  6
CONTINUOUS
 62
               7
100
AcDbLine
 10
-17.5
 20
20.999999999999886
 30
0.0
 11
-17.0
 21
20.999999999999886
 31
0.0
  0
LINE
  5
20F
100
AcDbEntity
  8
0
  6
CENTER
 62
             200
100
AcDbLine
 10
-9.0
 20
6.5
 30
0.0
 11
-1.25
 21
6.5
 31
0.0
  0
LINE
  5
210
100
AcDbEntity
  8
0
  6
CONTINUOUS
 62
               7
100
AcDbLine
 10
-12.0
 20
-11.0
 30
0.0
 11
-12.0
 21
-10.5
 31
0.0
  0
LINE
  5
211
100
AcDbEntity
  8
0
  6
CONTINUOUS
 62
               4
100
AcDbLine
 10
-17.5
 20
-10.5
 30
0.0
 11
-2.0
 21
-10.5
 31
0.0
  0
LINE
  5
212
100
AcDbEntity
  8
0
  6
CONTINUOUS
 62
               4
100
AcDbLine
 10
-5.0
 20
-3.25
 30
0.0
 11
-2.0
 21
-3.25
 31
0.0
  0
ARC
  5
213
100
AcDbEntity
  8
0
  6
CONTINUOUS
 62
               4
100
AcDbCircle
 10
-5.0
 20
-6.5
 30
0.0
 40
3.25
100
AcDbArc
 50
89.999999999999815
 51
269.99999999999937
  0
LINE
  5
214
100
AcDbEntity
  8
0
  6
CONTINUOUS
 62
               4
100
AcDbLine
 10
-5.0
 20
-9.75
 30
0.0
 11
-2.0
 21
-9.75
 31
0.0
  0
LINE
  5
215
100
AcDbEntity
  8
0
  6
CONTINUOUS
 62
               4
100
AcDbLine
 10
-5.0
 20
9.75
 30
0.0
 11
-2.0
 21
9.75
 31
0.0
  0
LINE
  5
216
100
AcDbEntity
  8
0
  6
CONTINUOUS
 62
               4
100
AcDbLine
 10
-15.939387691339789
 20
-0.5999999999999943
 30
0.0
 11
-10.060612308660211
 21
-0.5999999999999943
 31
0.0
  0
LINE
  5
217
100
AcDbEntity
  8
0
  6
CONTINUOUS
 62
               4
100
AcDbLine
 10
-15.939387691339789
 20
0.6000000000000227
 30
0.0
 11
-10.060612308660211
 21
0.6000000000000227
 31
0.0
  0
LINE
  5
218
100
AcDbEntity
  8
0
  6
CONTINUOUS
 62
               4
100
AcDbLine
 10
-25.439387691339789
 20
-16.099999999999994
 30
0.0
 11
-19.560612308660211
 21
-16.099999999999994
 31
0.0
  0
LINE
  5
219
100
AcDbEntity
  8
0
  6
CONTINUOUS
 62
               4
100
AcDbLine
 10
-25.439387691339789
 20
-14.899999999999991
 30
0.0
 11
-19.560612308660211
 21
-14.899999999999991
 31
0.0
  0
LINE
  5
21A
100
AcDbEntity
  8
0
  6
CONTINUOUS
 62
               4
100
AcDbLine
 10
-5.0
 20
3.25
 30
0.0
 11
-2.0
 21
3.25
 31
0.0
  0
ARC
  5
21B
100
AcDbEntity
  8
0
  6
CONTINUOUS
 62
               4
100
AcDbCircle
 10
-17.5
 20
-11.0
 30
0.0
 40
0.5
100
AcDbArc
 50
89.999999999999815
 51
179.99999999999963
  0
LINE
  5
21C
100
AcDbEntity
  8
0
  6
CONTINUOUS
 62
               7
100
AcDbLine
 10
-17.5
 20
-11.0
 30
0.0
 11
-12.0
 21
-11.0
 31
0.0
  0
LINE
  5
21D
100
AcDbEntity
  8
0
  6
CONTINUOUS
 62
               4
100
AcDbLine
 10
-27.0
 20
-8.8005623136074576
 30
0.0
 11
-27.0
 21
-15.294228634059962
 31
0.0
  0
LINE
  5
21E
100
AcDbEntity
  8
0
  6
CONTINUOUS
 62
               4
100
AcDbLine
 10
-17.0
 20
-10.5
 30
0.0
 11
-17.0
 21
-1.0717967697244717
 31
0.0
  0
LINE
  5
21F
100
AcDbEntity
  8
0
  6
CONTINUOUS
 62
               4
100
AcDbLine
 10
-17.0
 20
10.5
 30
0.0
 11
-17.0
 21
1.0717967697244717
 31
0.0
  0
LINE
  5
220
100
AcDbEntity
  8
0
  6
CONTINUOUS
 62
               4
100
AcDbLine
 10
-2.0
 20
10.5
 30
0.0
 11
-2.0
 21
-10.5
 31
0.0
  0
ARC
  5
221
100
AcDbEntity
  8
0
  6
CONTINUOUS
 62
               4
100
AcDbCircle
 10
-5.0
 20
6.5
 30
0.0
 40
3.25
100
AcDbArc
 50
89.999999999999815
 51
269.99999999999937
  0
LINE
  5
222
100
AcDbEntity
  8
0
  6
CENTER
 62
             200
100
AcDbLine
 10
-20.25
 20
-21.999999999999972
 30
0.0
 11
-24.75
 21
-21.999999999999972
 31
0.0
  0
LINE
  5
223
100
AcDbEntity
  8
0
  6
CONTINUOUS
 62
               4
100
AcDbLine
 10
-21.0
 20
-24.749999999999972
 30
0.0
 11
-24.0
 21
-24.749999999999972
 31
0.0
  0
LINE
  5
224
100
AcDbEntity
  8
0
  6
CONTINUOUS
 62
               4
100
AcDbLine
 10
-24.0
 20
-19.5
 30
0.0
 11
-24.0
 21
-24.749999999999972
 31
0.0
  0
LINE
  5
225
100
AcDbEntity
  8
0
  6
CONTINUOUS
 62
               4
100
AcDbLine
 10
-17.999999986730927
 20
10.5
 30
0.0
 11
-2.0
 21
10.5
 31
0.0
  0
LINE
  5
226
100
AcDbEntity
  8
0
  6
CONTINUOUS
 62
               4
100
AcDbLine
 10
-15.309401076758604
 20
-4.0
 30
0.0
 11
-10.690598923241623
 21
-4.0
 31
0.0
  0
CIRCLE
  5
227
100
AcDbEntity
  8
0
  6
CONTINUOUS
 62
               4
100
AcDbCircle
 10
-13.0
 20
0.0
 30
0.0
 40
2.5
  0
LINE
  5
228
100
AcDbEntity
  8
0
  6
CONTINUOUS
 62
               4
100
AcDbLine
 10
-10.690598923241623
 20
4.0
 30
0.0
 11
-15.309401076758604
 21
4.0
 31
0.0
  0
LINE
  5
229
100
AcDbEntity
  8
0
  6
CONTINUOUS
 62
               4
100
AcDbLine
 10
-15.309401076758604
 20
-4.0
 30
0.0
 11
-17.618802153516981
 21
0.0
 31
0.0
  0
LINE
  5
22A
100
AcDbEntity
  8
0
  6
CONTINUOUS
 62
               4
100
AcDbLine
 10
-10.690598923241623
 20
-4.0
 30
0.0
 11
-8.381197846483019
 21
0.0
 31
0.0
  0
LINE
  5
22B
100
AcDbEntity
  8
0
  6
CONTINUOUS
 62
               4
100
AcDbLine
 10
-10.690598923241623
 20
4.0
 30
0.0
 11
-8.381197846483019
 21
0.0
 31
0.0
  0
LINE
  5
22C
100
AcDbEntity
  8
0
  6
CONTINUOUS
 62
               4
100
AcDbLine
 10
-15.309401076758604
 20
4.0
 30
0.0
 11
-17.618802153516981
 21
0.0
 31
0.0
  0
CIRCLE
  5
22D
100
AcDbEntity
  8
0
  6
CONTINUOUS
 62
               4
100
AcDbCircle
 10
-13.0
 20
0.0
 30
0.0
 40
4.0
  0
CIRCLE
  5
22E
100
AcDbEntity
  8
0
  6
CONTINUOUS
 62
               4
100
AcDbCircle
 10
-13.0
 20
0.0
 30
0.0
 40
3.0
  0
LINE
  5
22F
100
AcDbEntity
  8
0
  6
CENTER
 62
             200
100
AcDbLine
 10
-13.0
 20
-5.368802153516981
 30
0.0
 11
-13.0
 21
5.3688021535170094
 31
0.0
  0
LINE
  5
230
100
AcDbEntity
  8
0
  6
CONTINUOUS
 62
               4
100
AcDbLine
 10
-5.7216878336002992
 20
-7.749999994999996
 30
0.0
 11
-6.4433756672005984
 21
-6.5
 31
0.0
  0
LINE
  5
231
100
AcDbEntity
  8
0
  6
CONTINUOUS
 62
               4
100
AcDbLine
 10
-4.2783121663997008
 20
-7.749999994999996
 30
0.0
 11
-5.7216878336002992
 21
-7.749999994999996
 31
0.0
  0
LINE
  5
232
100
AcDbEntity
  8
0
  6
CONTINUOUS
 62
               4
100
AcDbLine
 10
-4.2783121663997008
 20
-7.749999994999996
 30
0.0
 11
-3.5566243327994016
 21
-6.5
 31
0.0
  0
LINE
  5
233
100
AcDbEntity
  8
0
  6
CONTINUOUS
 62
               4
100
AcDbLine
 10
-4.2783121663997008
 20
-5.250000005000004
 30
0.0
 11
-3.5566243327994016
 21
-6.5
 31
0.0
  0
LINE
  5
234
100
AcDbEntity
  8
0
  6
CONTINUOUS
 62
               4
100
AcDbLine
 10
-4.2783121663997008
 20
-5.250000005000004
 30
0.0
 11
-5.7216878336002992
 21
-5.250000005000004
 31
0.0
  0
LINE
  5
235
100
AcDbEntity
  8
0
  6
CONTINUOUS
 62
               4
100
AcDbLine
 10
-5.7216878336002992
 20
-5.250000005000004
 30
0.0
 11
-6.4433756672005984
 21
-6.5
 31
0.0
  0
CIRCLE
  5
236
100
AcDbEntity
  8
0
  6
CONTINUOUS
 62
               4
100
AcDbCircle
 10
-5.0
 20
-6.5
 30
0.0
 40
2.75
  0
LINE
  5
237
100
AcDbEntity
  8
0
  6
CONTINUOUS
 62
               4
100
AcDbLine
 10
-5.7216878336002992
 20
5.250000005000004
 30
0.0
 11
-6.4433756672005984
 21
6.5
 31
0.0
  0
LINE
  5
238
100
AcDbEntity
  8
0
  6
CONTINUOUS
 62
               4
100
AcDbLine
 10
-4.2783121663997008
 20
5.250000005000004
 30
0.0
 11
-5.7216878336002992
 21
5.250000005000004
 31
0.0
  0
LINE
  5
239
100
AcDbEntity
  8
0
  6
CONTINUOUS
 62
               4
100
AcDbLine
 10
-4.2783121663997008
 20
5.250000005000004
 30
0.0
 11
-3.5566243327994016
 21
6.5
 31
0.0
  0
LINE
  5
23A
100
AcDbEntity
  8
0
  6
CONTINUOUS
 62
               4
100
AcDbLine
 10
-4.2783121663997008
 20
7.749999994999996
 30
0.0
 11
-3.5566243327994016
 21
6.5
 31
0.0
  0
LINE
  5
23B
100
AcDbEntity
  8
0
  6
CONTINUOUS
 62
               4
100
AcDbLine
 10
-4.2783121663997008
 20
7.749999994999996
 30
0.0
 11
-5.7216878336002992
 21
7.749999994999996
 31
0.0
  0
LINE
  5
23C
100
AcDbEntity
  8
0
  6
CONTINUOUS
 62
               4
100
AcDbLine
 10
-5.7216878336002992
 20
7.749999994999996
 30
0.0
 11
-6.4433756672005984
 21
6.5
 31
0.0
  0
LINE
  5
23D
100
AcDbEntity
  8
0
  6
CENTER
 62
             200
100
AcDbLine
 10
-5.0
 20
2.5
 30
0.0
 11
-5.0
 21
10.5
 31
0.0
  0
CIRCLE
  5
23E
100
AcDbEntity
  8
0
  6
CONTINUOUS
 62
               4
100
AcDbCircle
 10
-5.0
 20
6.5
 30
0.0
 40
2.75
  0
LINE
  5
23F
100
AcDbEntity
  8
0
  6
CONTINUOUS
 62
               4
100
AcDbLine
 10
-24.809401076758604
 20
-19.5
 30
0.0
 11
-27.118802153516981
 21
-15.5
 31
0.0
  0
LINE
  5
240
100
AcDbEntity
  8
0
  6
CONTINUOUS
 62
               4
100
AcDbLine
 10
-20.190598923241623
 20
-19.5
 30
0.0
 11
-17.881197846483019
 21
-15.5
 31
0.0
  0
LINE
  5
241
100
AcDbEntity
  8
0
  6
CONTINUOUS
 62
               4
100
AcDbLine
 10
-20.190598923241623
 20
-11.5
 30
0.0
 11
-17.881197846483019
 21
-15.5
 31
0.0
  0
LINE
  5
242
100
AcDbEntity
  8
0
  6
CONTINUOUS
 62
               4
100
AcDbLine
 10
-20.190598923241623
 20
-11.5
 30
0.0
 11
-24.809401076758604
 21
-11.5
 31
0.0
  0
LINE
  5
243
100
AcDbEntity
  8
0
  6
CONTINUOUS
 62
               4
100
AcDbLine
 10
-24.809401076758604
 20
-11.5
 30
0.0
 11
-27.118802153516981
 21
-15.5
 31
0.0
  0
LINE
  5
244
100
AcDbEntity
  8
0
  6
CONTINUOUS
 62
               4
100
AcDbLine
 10
-21.0
 20
-25.5
 30
0.0
 11
-15.5
 21
-25.5
 31
0.0
  0
LINE
  5
245
100
AcDbEntity
  8
0
  6
CONTINUOUS
 62
               4
100
AcDbLine
 10
-21.0
 20
-25.5
 30
0.0
 11
-21.0
 21
-19.5
 31
0.0
  0
CIRCLE
  5
246
100
AcDbEntity
  8
0
  6
CONTINUOUS
 62
               4
100
AcDbCircle
 10
-22.5
 20
-15.5
 30
0.0
 40
4.0
  0
CIRCLE
  5
247
100
AcDbEntity
  8
0
  6
CONTINUOUS
 62
               4
100
AcDbCircle
 10
-22.5
 20
-15.5
 30
0.0
 40
3.0
  0
CIRCLE
  5
248
100
AcDbEntity
  8
0
  6
CONTINUOUS
 62
               4
100
AcDbCircle
 10
-22.5
 20
-15.5
 30
0.0
 40
2.5
  0
LINE
  5
249
100
AcDbEntity
  8
0
  6
CENTER
 62
             200
100
AcDbLine
 10
-27.868802153516981
 20
-15.5
 30
0.0
 11
-17.131197846483019
 21
-15.5
 31
0.0
  0
LINE
  5
24A
100
AcDbEntity
  8
0
  6
CENTER
 62
             200
100
AcDbLine
 10
-22.5
 20
-20.868802153516981
 30
0.0
 11
-22.5
 21
-10.131197846482991
 31
0.0
  0
LINE
  5
24B
100
AcDbEntity
  8
0
  6
CONTINUOUS
 62
               4
100
AcDbLine
 10
-27.0
 20
-19.5
 30
0.0
 11
-19.09999999968818
 21
-19.5
 31
0.0
  0
LINE
  5
24C
100
AcDbEntity
  8
0
  6
CONTINUOUS
 62
               4
100
AcDbLine
 10
-18.0
 20
-16.477774847410387
 30
0.0
 11
-18.0
 21
-15.705771365940024
 31
0.0
  0
LINE
  5
24D
100
AcDbEntity
  8
0
  6
CONTINUOUS
 62
               4
100
AcDbLine
 10
-26.99999998700423
 20
-8.8005622631213782
 30
0.0
 11
-17.99999998700423
 21
10.499999999413717
 31
0.0
  0
LINE
  5
24E
100
AcDbEntity
  8
0
  6
CONTINUOUS
 62
               7
100
AcDbLine
 10
-17.853553390593333
 20
-10.646446609406723
 30
0.0
 11
-17.5
 21
-11.0
 31
0.0
  0
LINE
  5
24F
100
AcDbEntity
  8
0
  6
CONTINUOUS
 62
               7
100
AcDbLine
 10
-18.0
 20
10.5
 30
0.0
 11
-17.5
 21
11.0
 31
0.0
  0
LINE
  5
250
100
AcDbEntity
  8
0
  6
CONTINUOUS
 62
               7
100
AcDbLine
 10
-17.5
 20
11.0
 30
0.0
 11
-12.0
 21
11.0
 31
0.0
  0
LINE
  5
251
100
AcDbEntity
  8
0
  6
CONTINUOUS
 62
               7
100
AcDbLine
 10
-12.0
 20
11.0
 30
0.0
 11
-12.0
 21
10.5
 31
0.0
  0
LINE
  5
252
100
AcDbEntity
  8
0
  6
CENTER
 62
             200
100
AcDbLine
 10
-9.0
 20
-6.5
 30
0.0
 11
-1.25
 21
-6.5
 31
0.0
  0
LINE
  5
253
100
AcDbEntity
  8
0
  6
CENTER
 62
             200
100
AcDbLine
 10
-5.0
 20
-2.5
 30
0.0
 11
-5.0
 21
-10.5
 31
0.0
  0
LINE
  5
254
100
AcDbEntity
  8
0
  6
CONTINUOUS
 62
               4
100
AcDbLine
 10
-18.0
 20
-15.294228634059962
 30
0.0
 11
-18.0
 21
-11.0
 31
0.0
  0
LINE
  5
255
100
AcDbEntity
  8
0
  6
CONTINUOUS
 62
               4
100
AcDbLine
 10
-27.0
 20
-15.705771365940024
 30
0.0
 11
-27.0
 21
-19.5
 31
0.0
  0
LINE
  5
256
100
AcDbEntity
  8
0
  6
CONTINUOUS
 62
               4
100
AcDbLine
 10
-19.100000000541058
 20
-19.500000002342688
 30
0.0
 11
-18.0
 21
-16.477774847410387
 31
0.0
  0
LINE
  5
257
100
AcDbEntity
  8
0
  6
CENTER
 62
               2
100
AcDbLine
 10
-17.99999998700423
 20
-19.000000000000099
 30
0.0
 11
-7.9999999870042302
 21
-19.000000000000156
 31
0.0
  0
LINE
  5
258
100
AcDbEntity
  8
0
  6
CENTER
 62
               2
100
AcDbLine
 10
-17.99999998700423
 20
18.999999999999886
 30
0.0
 11
-7.9999999870042302
 21
18.999999999999886
 31
0.0
  0
LINE
  5
259
100
AcDbEntity
  8
0
  6
CONTINUOUS
 62
               7
100
AcDbLine
 10
-16.5
 20
-12.5
 30
0.0
 11
-10.873397172404566
 21
-12.5
 31
0.0
  0
ENDBLK
  5
25A
100
AcDbEntity
  8
0
100
AcDbBlockEnd
  0
BLOCK
  5
25B
100
AcDbEntity
  8
0
100
AcDbBlockBegin
  2
ZS6RS-6
 70
               0
 10
0.0
 20
0.0
 30
0.0
  3
ZS6RS-6
  1

  0
LINE
  5
25C
100
AcDbEntity
  8
0
  6
PHANTOM
 62
               3
100
AcDbLine
 10
63.000000000000014
 20
38.0
 30
0.0
 11
63.000000000000014
 21
-39.0
 31
0.0
  0
LINE
  5
25D
100
AcDbEntity
  8
0
  6
PHANTOM
 62
               3
100
AcDbLine
 10
63.000000000000057
 20
38.0
 30
0.0
 11
80.000000000000057
 21
38.0
 31
0.0
  0
LINE
  5
25E
100
AcDbEntity
  8
0
  6
CONTINUOUS
 62
               4
100
AcDbLine
 10
39.25
 20
21.0
 30
0.0
 11
39.25
 21
24.0
 31
0.0
  0
LINE
  5
25F
100
AcDbEntity
  8
0
  6
CONTINUOUS
 62
               4
100
AcDbLine
 10
44.75
 20
21.0
 30
0.0
 11
44.75
 21
24.0
 31
0.0
  0
LINE
  5
260
100
AcDbEntity
  8
0
  6
CONTINUOUS
 62
               4
100
AcDbLine
 10
39.25
 20
24.0
 30
0.0
 11
44.75
 21
24.0
 31
0.0
  0
LINE
  5
261
100
AcDbEntity
  8
0
  6
CONTINUOUS
 62
               4
100
AcDbLine
 10
45.0
 20
25.5
 30
0.0
 11
39.0
 21
25.5
 31
0.0
  0
LINE
  5
262
100
AcDbEntity
  8
0
  6
CONTINUOUS
 62
               4
100
AcDbLine
 10
45.0
 20
21.0
 30
0.0
 11
39.0
 21
21.0
 31
0.0
  0
LINE
  5
263
100
AcDbEntity
  8
0
  6
CENTER
 62
             200
100
AcDbLine
 10
42.0
 20
14.75
 30
0.0
 11
42.0
 21
26.25
 31
0.0
  0
LINE
  5
264
100
AcDbEntity
  8
0
  6
CONTINUOUS
 62
               7
100
AcDbLine
 10
39.0
 20
17.5
 30
0.0
 11
0.0
 21
17.5
 31
0.0
  0
LINE
  5
265
100
AcDbEntity
  8
0
  6
CONTINUOUS
 62
               7
100
AcDbLine
 10
39.0
 20
18.0
 30
0.0
 11
6.0
 21
18.0
 31
0.0
  0
LINE
  5
266
100
AcDbEntity
  8
0
  6
CENTER
 62
             200
100
AcDbLine
 10
116.75
 20
22.5
 30
0.0
 11
94.25
 21
22.5
 31
0.0
  0
LINE
  5
267
100
AcDbEntity
  8
0
  6
CONTINUOUS
 62
               4
100
AcDbLine
 10
116.5
 20
16.0
 30
0.0
 11
110.0
 21
16.0
 31
0.0
  0
LINE
  5
268
100
AcDbEntity
  8
0
  6
CONTINUOUS
 62
             200
100
AcDbLine
 10
116.89999999999998
 20
15.599999999999994
 30
0.0
 11
110.0
 21
15.599999999999994
 31
0.0
  0
LINE
  5
269
100
AcDbEntity
  8
0
  6
CONTINUOUS
 62
             200
100
AcDbLine
 10
102.5
 20
15.599999999999994
 30
0.0
 11
103.5
 21
15.599999999999994
 31
0.0
  0
LINE
  5
26A
100
AcDbEntity
  8
0
  6
CONTINUOUS
 62
               4
100
AcDbLine
 10
116.5
 20
10.0
 30
0.0
 11
110.0
 21
10.0
 31
0.0
  0
LINE
  5
26B
100
AcDbEntity
  8
0
  6
CONTINUOUS
 62
             200
100
AcDbLine
 10
116.89999999999998
 20
10.400000000000006
 30
0.0
 11
110.0
 21
10.400000000000006
 31
0.0
  0
LINE
  5
26C
100
AcDbEntity
  8
0
  6
CONTINUOUS
 62
             200
100
AcDbLine
 10
97.099999999999966
 20
10.400000000000006
 30
0.0
 11
103.5
 21
10.400000000000006
 31
0.0
  0
LINE
  5
26D
100
AcDbEntity
  8
0
  6
CONTINUOUS
 62
               4
100
AcDbLine
 10
103.41421356237305
 20
10.0
 30
0.0
 11
97.5
 21
10.0
 31
0.0
  0
LINE
  5
26E
100
AcDbEntity
  8
0
  6
CONTINUOUS
 62
               4
100
AcDbLine
 10
117.0
 20
15.5
 30
0.0
 11
117.0
 21
10.5
 31
0.0
  0
LINE
  5
26F
100
AcDbEntity
  8
0
  6
CONTINUOUS
 62
               4
100
AcDbLine
 10
117.0
 20
15.5
 30
0.0
 11
116.5
 21
16.0
 31
0.0
  0
LINE
  5
270
100
AcDbEntity
  8
0
  6
CONTINUOUS
 62
               4
100
AcDbLine
 10
116.5
 20
10.0
 30
0.0
 11
117.0
 21
10.5
 31
0.0
  0
LINE
  5
271
100
AcDbEntity
  8
0
  6
CONTINUOUS
 62
               4
100
AcDbLine
 10
116.5
 20
16.0
 30
0.0
 11
116.5
 21
10.0
 31
0.0
  0
LINE
  5
272
100
AcDbEntity
  8
0
  6
CONTINUOUS
 62
               4
100
AcDbLine
 10
115.5
 20
25.5
 30
0.0
 11
101.5
 21
25.5
 31
0.0
  0
LINE
  5
273
100
AcDbEntity
  8
0
  6
CONTINUOUS
 62
             200
100
AcDbLine
 10
115.89999999999998
 20
25.100000000000009
 30
0.0
 11
101.5
 21
25.100000000000009
 31
0.0
  0
LINE
  5
274
100
AcDbEntity
  8
0
  6
CONTINUOUS
 62
               4
100
AcDbLine
 10
115.5
 20
19.5
 30
0.0
 11
101.5
 21
19.5
 31
0.0
  0
LINE
  5
275
100
AcDbEntity
  8
0
  6
CONTINUOUS
 62
             200
100
AcDbLine
 10
115.89999999999998
 20
19.900000000000006
 30
0.0
 11
101.5
 21
19.900000000000006
 31
0.0
  0
LINE
  5
276
100
AcDbEntity
  8
0
  6
CONTINUOUS
 62
               4
100
AcDbLine
 10
116.0
 20
25.0
 30
0.0
 11
116.0
 21
20.0
 31
0.0
  0
LINE
  5
277
100
AcDbEntity
  8
0
  6
CONTINUOUS
 62
               4
100
AcDbLine
 10
116.0
 20
25.0
 30
0.0
 11
115.5
 21
25.5
 31
0.0
  0
LINE
  5
278
100
AcDbEntity
  8
0
  6
CONTINUOUS
 62
               4
100
AcDbLine
 10
115.5
 20
19.5
 30
0.0
 11
116.0
 21
20.0
 31
0.0
  0
LINE
  5
279
100
AcDbEntity
  8
0
  6
CONTINUOUS
 62
               4
100
AcDbLine
 10
115.5
 20
25.5
 30
0.0
 11
115.5
 21
19.5
 31
0.0
  0
LINE
  5
27A
100
AcDbEntity
  8
0
  6
CONTINUOUS
 62
               4
100
AcDbLine
 10
94.439999999999941
 20
12.0
 30
0.0
 11
99.5
 21
12.0
 31
0.0
  0
LINE
  5
27B
100
AcDbEntity
  8
0
  6
CONTINUOUS
 62
               4
100
AcDbLine
 10
96.0
 20
27.0
 30
0.0
 11
99.5
 21
27.0
 31
0.0
  0
LINE
  5
27C
100
AcDbEntity
  8
0
  6
CONTINUOUS
 62
               4
100
AcDbLine
 10
108.0
 20
17.0
 30
0.0
 11
103.5
 21
17.0
 31
0.0
  0
ARC
  5
27D
100
AcDbEntity
  8
0
  6
CONTINUOUS
 62
               4
100
AcDbCircle
 10
102.0
 20
10.5
 30
0.0
 40
1.5
100
AcDbArc
 50
270.00000000000023
 51
0.0
  0
LINE
  5
27E
100
AcDbEntity
  8
0
  6
CONTINUOUS
 62
               4
100
AcDbLine
 10
110.0
 20
17.0
 30
0.0
 11
110.0
 21
9.0
 31
0.0
  0
LINE
  5
27F
100
AcDbEntity
  8
0
  6
CONTINUOUS
 62
               4
100
AcDbLine
 10
110.0
 20
17.0
 30
0.0
 11
109.6427344100918
 21
17.618802153517009
 31
0.0
  0
ARC
  5
280
100
AcDbEntity
  8
0
  6
CONTINUOUS
 62
               4
100
AcDbCircle
 10
107.95534180126145
 20
16.464101615137764
 30
0.0
 40
2.0446581987385084
100
AcDbArc
 50
325.61575253195707
 51
0.0
  0
LINE
  5
281
100
AcDbEntity
  8
0
  6
CONTINUOUS
 62
               4
100
AcDbLine
 10
110.0
 20
9.0
 30
0.0
 11
109.6427344100918
 21
8.3811978464829906
 31
0.0
  0
ARC
  5
282
100
AcDbEntity
  8
0
  6
CONTINUOUS
 62
               4
100
AcDbCircle
 10
107.95534180126145
 20
9.5358983848622358
 30
0.0
 40
2.0446581987385084
100
AcDbArc
 50
0.0
 51
34.384247468042133
  0
ARC
  5
283
100
AcDbEntity
  8
0
  6
CONTINUOUS
 62
               4
100
AcDbCircle
 10
102.3572655899082
 20
13.0
 30
0.0
 40
7.6427344100917844
100
AcDbArc
 50
342.41204622600532
 51
17.587953773993881
  0
LINE
  5
284
100
AcDbEntity
  8
0
  6
CONTINUOUS
 62
               4
100
AcDbLine
 10
109.6427344100918
 20
10.69059892324151
 30
0.0
 11
108.0
 21
10.69059892324151
 31
0.0
  0
LINE
  5
285
100
AcDbEntity
  8
0
  6
CONTINUOUS
 62
               4
100
AcDbLine
 10
109.6427344100918
 20
8.3811978464829906
 30
0.0
 11
108.0
 21
8.3811978464829906
 31
0.0
  0
LINE
  5
286
100
AcDbEntity
  8
0
  6
CONTINUOUS
 62
               4
100
AcDbLine
 10
109.6427344100918
 20
15.309401076758519
 30
0.0
 11
108.0
 21
15.309401076758519
 31
0.0
  0
LINE
  5
287
100
AcDbEntity
  8
0
  6
CONTINUOUS
 62
               4
100
AcDbLine
 10
109.6427344100918
 20
17.618802153517009
 30
0.0
 11
108.0
 21
17.618802153517009
 31
0.0
  0
ARC
  5
288
100
AcDbEntity
  8
0
  6
CONTINUOUS
 62
               4
100
AcDbCircle
 10
93.857265589908195
 20
22.5
 30
0.0
 40
7.6427344100917844
100
AcDbArc
 50
342.41204622600532
 51
17.587953773993881
  0
ARC
  5
289
100
AcDbEntity
  8
0
  6
CONTINUOUS
 62
               4
100
AcDbCircle
 10
99.455341801261454
 20
19.035898384862236
 30
0.0
 40
2.0446581987385084
100
AcDbArc
 50
0.0
 51
34.384247468042133
  0
LINE
  5
28A
100
AcDbEntity
  8
0
  6
CONTINUOUS
 62
               4
100
AcDbLine
 10
101.1427344100918
 20
20.19059892324151
 30
0.0
 11
99.5
 21
20.19059892324151
 31
0.0
  0
LINE
  5
28B
100
AcDbEntity
  8
0
  6
CONTINUOUS
 62
               4
100
AcDbLine
 10
101.5
 20
18.5
 30
0.0
 11
101.1427344100918
 21
17.881197846482991
 31
0.0
  0
LINE
  5
28C
100
AcDbEntity
  8
0
  6
CONTINUOUS
 62
               4
100
AcDbLine
 10
101.1427344100918
 20
17.881197846482991
 30
0.0
 11
99.5
 21
17.881197846482991
 31
0.0
  0
ARC
  5
28D
100
AcDbEntity
  8
0
  6
CONTINUOUS
 62
               4
100
AcDbCircle
 10
99.455341801261454
 20
25.964101615137764
 30
0.0
 40
2.0446581987385084
100
AcDbArc
 50
325.61575253195707
 51
0.0
  0
LINE
  5
28E
100
AcDbEntity
  8
0
  6
CONTINUOUS
 62
               4
100
AcDbLine
 10
101.1427344100918
 20
24.809401076758519
 30
0.0
 11
99.5
 21
24.809401076758519
 31
0.0
  0
LINE
  5
28F
100
AcDbEntity
  8
0
  6
CONTINUOUS
 62
               4
100
AcDbLine
 10
101.5
 20
26.5
 30
0.0
 11
101.1427344100918
 21
27.118802153517009
 31
0.0
  0
LINE
  5
290
100
AcDbEntity
  8
0
  6
CONTINUOUS
 62
               4
100
AcDbLine
 10
101.1427344100918
 20
27.118802153517009
 30
0.0
 11
99.5
 21
27.118802153517009
 31
0.0
  0
LINE
  5
291
100
AcDbEntity
  8
0
  6
CONTINUOUS
 62
               4
100
AcDbLine
 10
103.5
 20
16.0
 30
0.0
 11
102.5
 21
16.0
 31
0.0
  0
LINE
  5
292
100
AcDbEntity
  8
0
  6
CONTINUOUS
 62
               4
100
AcDbLine
 10
101.5
 20
26.5
 30
0.0
 11
101.5
 21
18.5
 31
0.0
  0
LINE
  5
293
100
AcDbEntity
  8
0
  6
CONTINUOUS
 62
               4
100
AcDbLine
 10
102.5
 20
11.75
 30
0.0
 11
102.5
 21
17.25
 31
0.0
  0
LINE
  5
294
100
AcDbEntity
  8
0
  6
CONTINUOUS
 62
               4
100
AcDbLine
 10
99.5
 20
17.25
 30
0.0
 11
102.5
 21
17.25
 31
0.0
  0
LINE
  5
295
100
AcDbEntity
  8
0
  6
CONTINUOUS
 62
               4
100
AcDbLine
 10
99.5
 20
11.75
 30
0.0
 11
102.5
 21
11.75
 31
0.0
  0
LINE
  5
296
100
AcDbEntity
  8
0
  6
CONTINUOUS
 62
               4
100
AcDbLine
 10
96.0
 20
18.0
 30
0.0
 11
99.5
 21
18.0
 31
0.0
  0
LINE
  5
297
100
AcDbEntity
  8
0
  6
CONTINUOUS
 62
               4
100
AcDbLine
 10
108.0
 20
17.618802153517009
 30
0.0
 11
108.0
 21
2.0
 31
0.0
  0
LINE
  5
298
100
AcDbEntity
  8
0
  6
CONTINUOUS
 62
               4
100
AcDbLine
 10
103.5
 20
17.0
 30
0.0
 11
103.5
 21
10.5
 31
0.0
  0
LINE
  5
299
100
AcDbEntity
  8
0
  6
CONTINUOUS
 62
               4
100
AcDbLine
 10
99.5
 20
27.118802153517009
 30
0.0
 11
99.5
 21
11.75
 31
0.0
  0
LINE
  5
29A
100
AcDbEntity
  8
0
  6
CONTINUOUS
 62
               4
100
AcDbLine
 10
96.0
 20
27.0
 30
0.0
 11
96.0
 21
11.0
 31
0.0
  0
LINE
  5
29B
100
AcDbEntity
  8
0
  6
CONTINUOUS
 62
               4
100
AcDbLine
 10
95.0
 20
24.5
 30
0.0
 11
95.0
 21
20.5
 31
0.0
  0
LINE
  5
29C
100
AcDbEntity
  8
0
  6
CONTINUOUS
 62
               4
100
AcDbLine
 10
96.0
 20
24.5
 30
0.0
 11
95.0
 21
24.5
 31
0.0
  0
LINE
  5
29D
100
AcDbEntity
  8
0
  6
CONTINUOUS
 62
               4
100
AcDbLine
 10
96.0
 20
20.5
 30
0.0
 11
95.0
 21
20.5
 31
0.0
  0
LINE
  5
29E
100
AcDbEntity
  8
0
  6
CONTINUOUS
 62
               4
100
AcDbLine
 10
97.0
 20
12.0
 30
0.0
 11
97.0
 21
10.5
 31
0.0
  0
LINE
  5
29F
100
AcDbEntity
  8
0
  6
CONTINUOUS
 62
               4
100
AcDbLine
 10
97.0
 20
11.0
 30
0.0
 11
96.0
 21
11.0
 31
0.0
  0
LINE
  5
2A0
100
AcDbEntity
  8
0
  6
CONTINUOUS
 62
               4
100
AcDbLine
 10
97.5
 20
12.0
 30
0.0
 11
97.5
 21
10.0
 31
0.0
  0
LINE
  5
2A1
100
AcDbEntity
  8
0
  6
CONTINUOUS
 62
               4
100
AcDbLine
 10
97.0
 20
10.5
 30
0.0
 11
97.5
 21
10.0
 31
0.0
  0
LINE
  5
2A2
100
AcDbEntity
  8
0
  6
CONTINUOUS
 62
               4
100
AcDbLine
 10
96.0
 20
19.100000000000009
 30
0.0
 11
99.5
 21
19.100000000000009
 31
0.0
  0
LINE
  5
2A3
100
AcDbEntity
  8
0
  6
CONTINUOUS
 62
               4
100
AcDbLine
 10
108.0
 20
2.0
 30
0.0
 11
93.0
 21
2.0
 31
0.0
  0
LINE
  5
2A4
100
AcDbEntity
  8
0
  6
CONTINUOUS
 62
               4
100
AcDbLine
 10
102.0
 20
9.0
 30
0.0
 11
94.439999999999941
 21
9.0
 31
0.0
  0
LINE
  5
2A5
100
AcDbEntity
  8
0
  6
CENTER
 62
             200
100
AcDbLine
 10
92.25
 20
14.5
 30
0.0
 11
103.25
 21
14.5
 31
0.0
  0
LINE
  5
2A6
100
AcDbEntity
  8
0
  6
CENTER
 62
             200
100
AcDbLine
 10
109.5
 20
6.0
 30
0.0
 11
89.166108696836233
 21
6.0
 31
0.0
  0
LINE
  5
2A7
100
AcDbEntity
  8
0
  6
CENTER
 62
               2
100
AcDbLine
 10
96.0
 20
6.0
 30
0.0
 11
-1.5
 21
6.0
 31
0.0
  0
LINE
  5
2A8
100
AcDbEntity
  8
0
  6
CONTINUOUS
 62
             200
100
AcDbLine
 10
92.25
 20
13.0
 30
0.0
 11
95.189999999999941
 21
13.0
 31
0.0
  0
LINE
  5
2A9
100
AcDbEntity
  8
0
  6
CONTINUOUS
 62
               7
100
AcDbLine
 10
6.1443375814511683
 20
9.75
 30
0.0
 11
7.9999999869420435
 21
9.75
 31
0.0
  0
LINE
  5
2AA
100
AcDbEntity
  8
0
  6
CONTINUOUS
 62
               7
100
AcDbLine
 10
6.1314669060308233
 20
9.7042345181159959
 30
0.0
 11
6.1443375814511683
 21
9.75
 31
0.0
  0
LINE
  5
2AB
100
AcDbEntity
  8
0
  6
CONTINUOUS
 62
               7
100
AcDbLine
 10
6.1314669120862391
 20
9.7042345181159959
 30
0.0
 11
7.9999999869420435
 21
9.7042345181159959
 31
0.0
  0
LINE
  5
2AC
100
AcDbEntity
  8
0
  6
CONTINUOUS
 62
               7
100
AcDbLine
 10
6.0
 20
9.5
 30
0.0
 11
6.1443375672973843
 21
9.75
 31
0.0
  0
LINE
  5
2AD
100
AcDbEntity
  8
0
  6
CONTINUOUS
 62
               7
100
AcDbLine
 10
6.1369178164555933
 20
8.357943292490944
 30
0.0
 11
7.9999999869420435
 21
8.357943292490944
 31
0.0
  0
LINE
  5
2AE
100
AcDbEntity
  8
0
  6
CONTINUOUS
 62
               7
100
AcDbLine
 10
6.1369178241571944
 20
7.3462912017836288
 30
0.0
 11
6.1369178241571944
 21
8.357943292490944
 31
0.0
  0
LINE
  5
2AF
100
AcDbEntity
  8
0
  6
CONTINUOUS
 62
               7
100
AcDbLine
 10
6.1369178164555933
 20
7.3462912017836288
 30
0.0
 11
7.9999999869420435
 21
7.3462912017836288
 31
0.0
  0
LINE
  5
2B0
100
AcDbEntity
  8
0
  6
CONTINUOUS
 62
               7
100
AcDbLine
 10
6.1314669060308233
 20
2.2957654818840183
 30
0.0
 11
6.1443375814511683
 21
2.25
 31
0.0
  0
LINE
  5
2B1
100
AcDbEntity
  8
0
  6
CONTINUOUS
 62
               7
100
AcDbLine
 10
6.1369178241571944
 20
4.6537087982163854
 30
0.0
 11
6.1369178241571944
 21
3.6420567075090844
 31
0.0
  0
LINE
  5
2B2
100
AcDbEntity
  8
0
  6
CONTINUOUS
 62
               7
100
AcDbLine
 10
6.1443375814511683
 20
2.25
 30
0.0
 11
7.9999999869420435
 21
2.25
 31
0.0
  0
LINE
  5
2B3
100
AcDbEntity
  8
0
  6
CONTINUOUS
 62
               7
100
AcDbLine
 10
6.1314669120862391
 20
2.2957654818840183
 30
0.0
 11
7.9999999869420435
 21
2.2957654818840183
 31
0.0
  0
LINE
  5
2B4
100
AcDbEntity
  8
0
  6
CONTINUOUS
 62
               7
100
AcDbLine
 10
6.1369178164555933
 20
3.6420567075090844
 30
0.0
 11
7.9999999869420435
 21
3.6420567075090844
 31
0.0
  0
LINE
  5
2B5
100
AcDbEntity
  8
0
  6
CONTINUOUS
 62
               7
100
AcDbLine
 10
6.1369178164555933
 20
4.6537087982163854
 30
0.0
 11
7.9999999869420435
 21
4.6537087982163854
 31
0.0
  0
LINE
  5
2B6
100
AcDbEntity
  8
0
  6
CONTINUOUS
 62
               7
100
AcDbLine
 10
8.0
 20
1.75
 30
0.0
 11
6.0
 21
1.75
 31
0.0
  0
LINE
  5
2B7
100
AcDbEntity
  8
0
  6
CENTER
 62
               2
100
AcDbLine
 10
8.75
 20
4.5
 30
0.0
 11
5.25
 21
4.5
 31
0.0
  0
CIRCLE
  5
2B8
100
AcDbEntity
  8
0
  6
CONTINUOUS
 62
               7
100
AcDbCircle
 10
19.0
 20
10.0
 30
0.0
 40
2.1000000000000001
  0
CIRCLE
  5
2B9
100
AcDbEntity
  8
0
  6
CONTINUOUS
 62
               7
100
AcDbCircle
 10
80.0
 20
10.0
 30
0.0
 40
2.1000000000000001
  0
LINE
  5
2BA
100
AcDbEntity
  8
0
  6
CONTINUOUS
 62
               7
100
AcDbLine
 10
93.0
 20
0.0
 30
0.0
 11
8.0
 21
0.0
 31
0.0
  0
LINE
  5
2BB
100
AcDbEntity
  8
0
  6
CONTINUOUS
 62
               7
100
AcDbLine
 10
0.0
 20
17.5
 30
0.0
 11
0.0
 21
1.0
 31
0.0
  0
LINE
  5
2BC
100
AcDbEntity
  8
0
  6
CONTINUOUS
 62
               7
100
AcDbLine
 10
6.0
 20
18.0
 30
0.0
 11
6.0
 21
1.0
 31
0.0
  0
LINE
  5
2BD
100
AcDbEntity
  8
0
  6
CONTINUOUS
 62
               7
100
AcDbLine
 10
8.0
 20
17.0
 30
0.0
 11
8.0
 21
0.0
 31
0.0
  0
LINE
  5
2BE
100
AcDbEntity
  8
0
  6
CONTINUOUS
 62
               7
100
AcDbLine
 10
93.0
 20
18.0
 30
0.0
 11
93.0
 21
0.0
 31
0.0
  0
LINE
  5
2BF
100
AcDbEntity
  8
0
  6
CONTINUOUS
 62
               4
100
AcDbLine
 10
96.0
 20
17.0
 30
0.0
 11
94.439999999999941
 21
17.0
 31
0.0
  0
LINE
  5
2C0
100
AcDbEntity
  8
0
  6
CONTINUOUS
 62
               7
100
AcDbLine
 10
6.0
 20
1.0
 30
0.0
 11
0.0
 21
1.0
 31
0.0
  0
LINE
  5
2C1
100
AcDbEntity
  8
0
  6
CONTINUOUS
 62
               7
100
AcDbLine
 10
93.0
 20
15.0
 30
0.0
 11
8.0
 21
15.0
 31
0.0
  0
ARC
  5
2C2
100
AcDbEntity
  8
0
  6
CONTINUOUS
 62
               7
100
AcDbCircle
 10
7.7890759238961778
 20
9.0310889132455259
 30
0.0
 40
1.7890759238962146
100
AcDbArc
 50
157.89820836307771
 51
202.10179218596159
  0
LINE
  5
2C3
100
AcDbEntity
  8
0
  6
CONTINUOUS
 62
               7
100
AcDbLine
 10
6.0
 20
2.5
 30
0.0
 11
6.1443375672973843
 21
2.25
 31
0.0
  0
ARC
  5
2C4
100
AcDbEntity
  8
0
  6
CONTINUOUS
 62
               7
100
AcDbCircle
 10
7.7890759238961778
 20
2.9689110867544741
 30
0.0
 40
1.7890759238962146
100
AcDbArc
 50
157.89820781403722
 51
202.10179163692098
  0
ARC
  5
2C5
100
AcDbEntity
  8
0
  6
CONTINUOUS
 62
               7
100
AcDbCircle
 10
12.687392608830351
 20
6.0
 30
0.0
 40
6.6873926088303497
100
AcDbArc
 50
168.38596873168694
 51
191.61403126831226
  0
LINE
  5
2C6
100
AcDbEntity
  8
0
  6
CONTINUOUS
 62
               7
100
AcDbLine
 10
8.0
 20
12.0
 30
0.0
 11
6.0
 21
12.0
 31
0.0
  0
LINE
  5
2C7
100
AcDbEntity
  8
0
  6
CONTINUOUS
 62
               4
100
AcDbLine
 10
45.0
 20
15.5
 30
0.0
 11
39.0
 21
15.5
 31
0.0
  0
LINE
  5
2C8
100
AcDbEntity
  8
0
  6
CONTINUOUS
 62
               4
100
AcDbLine
 10
39.0
 20
25.5
 30
0.0
 11
39.0
 21
15.5
 31
0.0
  0
LINE
  5
2C9
100
AcDbEntity
  8
0
  6
CONTINUOUS
 62
               7
100
AcDbLine
 10
39.0
 20
17.0
 30
0.0
 11
8.0
 21
17.0
 31
0.0
  0
CIRCLE
  5
2CA
100
AcDbEntity
  8
0
  6
CONTINUOUS
 62
               2
100
AcDbCircle
 10
80.0
 20
10.0
 30
0.0
 40
2.5
  0
CIRCLE
  5
2CB
100
AcDbEntity
  8
0
  6
CONTINUOUS
 62
               7
100
AcDbCircle
 10
80.0
 20
8.5
 30
0.0
 40
0.4
  0
CIRCLE
  5
2CC
100
AcDbEntity
  8
0
  6
CONTINUOUS
 62
               2
100
AcDbCircle
 10
19.0
 20
10.0
 30
0.0
 40
2.5
  0
CIRCLE
  5
2CD
100
AcDbEntity
  8
0
  6
CONTINUOUS
 62
               7
100
AcDbCircle
 10
19.0
 20
8.5
 30
0.0
 40
0.4
  0
LINE
  5
2CE
100
AcDbEntity
  8
0
  6
CONTINUOUS
 62
               7
100
AcDbLine
 10
93.0
 20
18.0
 30
0.0
 11
45.0
 21
18.0
 31
0.0
  0
LINE
  5
2CF
100
AcDbEntity
  8
0
  6
CONTINUOUS
 62
               7
100
AcDbLine
 10
93.0
 20
17.5
 30
0.0
 11
45.0
 21
17.5
 31
0.0
  0
LINE
  5
2D0
100
AcDbEntity
  8
0
  6
CONTINUOUS
 62
               4
100
AcDbLine
 10
45.0
 20
25.5
 30
0.0
 11
45.0
 21
15.5
 31
0.0
  0
LINE
  5
2D1
100
AcDbEntity
  8
0
  6
CONTINUOUS
 62
               7
100
AcDbLine
 10
93.0
 20
9.0
 30
0.0
 11
94.439999999999941
 21
9.0
 31
0.0
  0
LINE
  5
2D2
100
AcDbEntity
  8
0
  6
CONTINUOUS
 62
               7
100
AcDbLine
 10
93.339999999999975
 20
16.999999999999972
 30
0.0
 11
93.339999999999975
 21
8.9999999999999716
 31
0.0
  0
LINE
  5
2D3
100
AcDbEntity
  8
0
  6
CONTINUOUS
 62
               7
100
AcDbLine
 10
94.439999999999941
 20
16.999999999999972
 30
0.0
 11
94.439999999999941
 21
9.0
 31
0.0
  0
LINE
  5
2D4
100
AcDbEntity
  8
0
  6
CENTER
 62
               2
100
AcDbLine
 10
80.0
 20
6.75
 30
0.0
 11
80.0
 21
13.25
 31
0.0
  0
LINE
  5
2D5
100
AcDbEntity
  8
0
  6
CENTER
 62
               2
100
AcDbLine
 10
76.75
 20
10.0
 30
0.0
 11
83.25
 21
10.0
 31
0.0
  0
LINE
  5
2D6
100
AcDbEntity
  8
0
  6
CENTER
 62
               2
100
AcDbLine
 10
19.0
 20
6.75
 30
0.0
 11
19.0
 21
13.25
 31
0.0
  0
LINE
  5
2D7
100
AcDbEntity
  8
0
  6
CENTER
 62
               2
100
AcDbLine
 10
15.75
 20
10.0
 30
0.0
 11
22.25
 21
10.0
 31
0.0
  0
LINE
  5
2D8
100
AcDbEntity
  8
0
  6
CONTINUOUS
 62
               7
100
AcDbLine
 10
93.0
 20
17.0
 30
0.0
 11
45.0
 21
17.0
 31
0.0
  0
LINE
  5
2D9
100
AcDbEntity
  8
0
  6
CENTER
 62
             200
100
AcDbLine
 10
92.25
 20
13.0
 30
0.0
 11
117.75
 21
13.0
 31
0.0
  0
LINE
  5
2DA
100
AcDbEntity
  8
0
  6
CONTINUOUS
 62
               7
100
AcDbLine
 10
94.439999999999941
 20
16.999999999999972
 30
0.0
 11
93.0
 21
16.999999999999972
 31
0.0
  0
ENDBLK
  5
2DB
100
AcDbEntity
  8
0
100
AcDbBlockEnd
  0
BLOCK
  5
2DC
100
AcDbEntity
  8
0
100
AcDbBlockBegin
  2
ZS6RS-7
 70
               0
 10
0.0
 20
0.0
 30
0.0
  3
ZS6RS-7
  1

  0
LINE
  5
2DD
100
AcDbEntity
  8
0
  6
PHANTOM
 62
               3
100
AcDbLine
 10
89.0
 20
-46.0
 30
0.0
 11
89.0
 21
46.0
 31
0.0
  0
LINE
  5
2DE
100
AcDbEntity
  8
0
  6
PHANTOM
 62
               3
100
AcDbLine
 10
63.000000000000057
 20
46.000000000000014
 30
0.0
 11
89.000000000000057
 21
46.000000000000014
 31
0.0
  0
LINE
  5
2DF
100
AcDbEntity
  8
0
  6
CONTINUOUS
 62
               4
100
AcDbLine
 10
99.5
 20
16.477775000000008
 30
0.0
 11
96.0
 21
16.477775000000008
 31
0.0
  0
LINE
  5
2E0
100
AcDbEntity
  8
0
  6
CONTINUOUS
 62
               4
100
AcDbLine
 10
99.5
 20
10.5
 30
0.0
 11
99.5
 21
19.5
 31
0.0
  0
LINE
  5
2E1
100
AcDbEntity
  8
0
  6
CONTINUOUS
 62
               4
100
AcDbLine
 10
108.0
 20
3.5
 30
0.0
 11
99.5
 21
3.5
 31
0.0
  0
LINE
  5
2E2
100
AcDbEntity
  8
0
  6
CONTINUOUS
 62
               4
100
AcDbLine
 10
108.0
 20
9.5
 30
0.0
 11
99.5
 21
9.5
 31
0.0
  0
LINE
  5
2E3
100
AcDbEntity
  8
0
  6
CONTINUOUS
 62
               4
100
AcDbLine
 10
95.0
 20
13.5
 30
0.0
 11
95.0
 21
17.5
 31
0.0
  0
LINE
  5
2E4
100
AcDbEntity
  8
0
  6
CONTINUOUS
 62
               4
100
AcDbLine
 10
99.5
 20
19.5
 30
0.0
 11
96.0
 21
19.5
 31
0.0
  0
LINE
  5
2E5
100
AcDbEntity
  8
0
  6
CONTINUOUS
 62
               4
100
AcDbLine
 10
102.5
 20
9.25
 30
0.0
 11
102.5
 21
3.75
 31
0.0
  0
LINE
  5
2E6
100
AcDbEntity
  8
0
  6
CONTINUOUS
 62
               4
100
AcDbLine
 10
99.5
 20
3.75
 30
0.0
 11
102.5
 21
3.75
 31
0.0
  0
LINE
  5
2E7
100
AcDbEntity
  8
0
  6
CONTINUOUS
 62
               4
100
AcDbLine
 10
99.5
 20
9.25
 30
0.0
 11
102.5
 21
9.25
 31
0.0
  0
ARC
  5
2E8
100
AcDbEntity
  8
0
  6
CONTINUOUS
 62
               4
100
AcDbCircle
 10
104.22329099369261
 20
2.0
 30
0.0
 40
5.7767090063073505
100
AcDbArc
 50
339.74384199958274
 51
20.256158000416459
  0
LINE
  5
2E9
100
AcDbEntity
  8
0
  6
CONTINUOUS
 62
               4
100
AcDbLine
 10
109.6427344100918
 20
0.0
 30
0.0
 11
108.0
 21
0.0
 31
0.0
  0
LINE
  5
2EA
100
AcDbEntity
  8
0
  6
CONTINUOUS
 62
               4
100
AcDbLine
 10
110.0
 20
4.0
 30
0.0
 11
108.0
 21
4.0
 31
0.0
  0
LINE
  5
2EB
100
AcDbEntity
  8
0
  6
CONTINUOUS
 62
               4
100
AcDbLine
 10
101.5
 20
11.5
 30
0.0
 11
101.5
 21
19.5
 31
0.0
  0
ARC
  5
2EC
100
AcDbEntity
  8
0
  6
CONTINUOUS
 62
               4
100
AcDbCircle
 10
95.723290993692615
 20
13.5
 30
0.0
 40
5.7767090063073505
100
AcDbArc
 50
339.74384199958354
 51
20.256158000416459
  0
ARC
  5
2ED
100
AcDbEntity
  8
0
  6
CONTINUOUS
 62
               4
100
AcDbCircle
 10
95.723290993692615
 20
17.5
 30
0.0
 40
5.7767090063073505
100
AcDbArc
 50
339.74384199958274
 51
20.256158000416459
  0
LINE
  5
2EE
100
AcDbEntity
  8
0
  6
CONTINUOUS
 62
               4
100
AcDbLine
 10
115.5
 20
18.5
 30
0.0
 11
115.5
 21
16.099999999999994
 31
0.0
  0
LINE
  5
2EF
100
AcDbEntity
  8
0
  6
CONTINUOUS
 62
               4
100
AcDbLine
 10
115.5
 20
12.5
 30
0.0
 11
115.5
 21
14.900000000000006
 31
0.0
  0
LINE
  5
2F0
100
AcDbEntity
  8
0
  6
CONTINUOUS
 62
               4
100
AcDbLine
 10
115.5
 20
18.5
 30
0.0
 11
116.0
 21
18.0
 31
0.0
  0
LINE
  5
2F1
100
AcDbEntity
  8
0
  6
CONTINUOUS
 62
               4
100
AcDbLine
 10
116.0
 20
13.0
 30
0.0
 11
115.5
 21
12.5
 31
0.0
  0
LINE
  5
2F2
100
AcDbEntity
  8
0
  6
CONTINUOUS
 62
               4
100
AcDbLine
 10
116.0
 20
16.099999999999994
 30
0.0
 11
114.0
 21
16.099999999999994
 31
0.0
  0
LINE
  5
2F3
100
AcDbEntity
  8
0
  6
CONTINUOUS
 62
               4
100
AcDbLine
 10
114.0
 20
14.900000000000006
 30
0.0
 11
114.0
 21
16.099999999999994
 31
0.0
  0
LINE
  5
2F4
100
AcDbEntity
  8
0
  6
CONTINUOUS
 62
               4
100
AcDbLine
 10
116.0
 20
14.900000000000006
 30
0.0
 11
114.0
 21
14.900000000000006
 31
0.0
  0
LINE
  5
2F5
100
AcDbEntity
  8
0
  6
CONTINUOUS
 62
               4
100
AcDbLine
 10
116.0
 20
18.0
 30
0.0
 11
116.0
 21
16.099999999999994
 31
0.0
  0
LINE
  5
2F6
100
AcDbEntity
  8
0
  6
CONTINUOUS
 62
               4
100
AcDbLine
 10
116.0
 20
13.0
 30
0.0
 11
116.0
 21
14.900000000000006
 31
0.0
  0
LINE
  5
2F7
100
AcDbEntity
  8
0
  6
CONTINUOUS
 62
             200
100
AcDbLine
 10
115.89999999999998
 20
18.099999999999994
 30
0.0
 11
101.5
 21
18.099999999999994
 31
0.0
  0
LINE
  5
2F8
100
AcDbEntity
  8
0
  6
CONTINUOUS
 62
               4
100
AcDbLine
 10
115.5
 20
18.5
 30
0.0
 11
101.5
 21
18.5
 31
0.0
  0
LINE
  5
2F9
100
AcDbEntity
  8
0
  6
CONTINUOUS
 62
               4
100
AcDbLine
 10
101.1427344100918
 20
15.5
 30
0.0
 11
99.5
 21
15.5
 31
0.0
  0
LINE
  5
2FA
100
AcDbEntity
  8
0
  6
CONTINUOUS
 62
             200
100
AcDbLine
 10
115.89999999999998
 20
12.900000000000006
 30
0.0
 11
101.5
 21
12.900000000000006
 31
0.0
  0
LINE
  5
2FB
100
AcDbEntity
  8
0
  6
CONTINUOUS
 62
               4
100
AcDbLine
 10
115.5
 20
12.5
 30
0.0
 11
101.5
 21
12.5
 31
0.0
  0
LINE
  5
2FC
100
AcDbEntity
  8
0
  6
CONTINUOUS
 62
               4
100
AcDbLine
 10
101.5
 20
11.5
 30
0.0
 11
99.5
 21
11.5
 31
0.0
  0
LINE
  5
2FD
100
AcDbEntity
  8
0
  6
CONTINUOUS
 62
               4
100
AcDbLine
 10
101.5
 20
19.5
 30
0.0
 11
99.5
 21
19.5
 31
0.0
  0
LINE
  5
2FE
100
AcDbEntity
  8
0
  6
CONTINUOUS
 62
               4
100
AcDbLine
 10
115.0
 20
-0.5999999999999943
 30
0.0
 11
115.0
 21
0.5999999999999943
 31
0.0
  0
LINE
  5
2FF
100
AcDbEntity
  8
0
  6
CONTINUOUS
 62
             200
100
AcDbLine
 10
116.89999999999998
 20
2.5999999999999943
 30
0.0
 11
110.0
 21
2.5999999999999943
 31
0.0
  0
LINE
  5
300
100
AcDbEntity
  8
0
  6
CONTINUOUS
 62
               4
100
AcDbLine
 10
116.5
 20
3.0
 30
0.0
 11
110.0
 21
3.0
 31
0.0
  0
LINE
  5
301
100
AcDbEntity
  8
0
  6
CONTINUOUS
 62
               4
100
AcDbLine
 10
117.0
 20
2.5
 30
0.0
 11
117.0
 21
0.5999999999999943
 31
0.0
  0
LINE
  5
302
100
AcDbEntity
  8
0
  6
CONTINUOUS
 62
               4
100
AcDbLine
 10
117.0
 20
0.5999999999999943
 30
0.0
 11
115.0
 21
0.5999999999999943
 31
0.0
  0
LINE
  5
303
100
AcDbEntity
  8
0
  6
CONTINUOUS
 62
               4
100
AcDbLine
 10
116.5
 20
3.0
 30
0.0
 11
117.0
 21
2.5
 31
0.0
  0
LINE
  5
304
100
AcDbEntity
  8
0
  6
CONTINUOUS
 62
               4
100
AcDbLine
 10
116.5
 20
3.0
 30
0.0
 11
116.5
 21
0.5999999999999943
 31
0.0
  0
LINE
  5
305
100
AcDbEntity
  8
0
  6
CONTINUOUS
 62
               4
100
AcDbLine
 10
96.0
 20
13.5
 30
0.0
 11
95.0
 21
13.5
 31
0.0
  0
LINE
  5
306
100
AcDbEntity
  8
0
  6
CONTINUOUS
 62
               4
100
AcDbLine
 10
96.0
 20
17.5
 30
0.0
 11
95.0
 21
17.5
 31
0.0
  0
LINE
  5
307
100
AcDbEntity
  8
0
  6
CONTINUOUS
 62
               4
100
AcDbLine
 10
96.0
 20
10.5
 30
0.0
 11
96.0
 21
19.5
 31
0.0
  0
LINE
  5
308
100
AcDbEntity
  8
0
  6
CONTINUOUS
 62
               4
100
AcDbLine
 10
99.5
 20
9.5
 30
0.0
 11
99.5
 21
3.5
 31
0.0
  0
LINE
  5
309
100
AcDbEntity
  8
0
  6
CONTINUOUS
 62
               4
100
AcDbLine
 10
108.0
 20
-10.5
 30
0.0
 11
108.0
 21
10.5
 31
0.0
  0
LINE
  5
30A
100
AcDbEntity
  8
0
  6
CONTINUOUS
 62
               4
100
AcDbLine
 10
110.0
 20
-4.0
 30
0.0
 11
110.0
 21
4.0
 31
0.0
  0
LINE
  5
30B
100
AcDbEntity
  8
0
  6
CENTER
 62
             200
100
AcDbLine
 10
116.64999999999998
 20
15.5
 30
0.0
 11
94.149999999999977
 21
15.5
 31
0.0
  0
LINE
  5
30C
100
AcDbEntity
  8
0
  6
CENTER
 62
             200
100
AcDbLine
 10
92.25
 20
6.5
 30
0.0
 11
108.75
 21
6.5
 31
0.0
  0
LINE
  5
30D
100
AcDbEntity
  8
0
  6
CONTINUOUS
 62
               4
100
AcDbLine
 10
93.0
 20
10.5
 30
0.0
 11
108.0
 21
10.5
 31
0.0
  0
LINE
  5
30E
100
AcDbEntity
  8
0
  6
CENTER
 62
               2
100
AcDbLine
 10
91.949999999999989
 20
19.0
 30
0.0
 11
95.189999999999941
 21
19.0
 31
0.0
  0
LINE
  5
30F
100
AcDbEntity
  8
0
  6
CONTINUOUS
 62
               7
100
AcDbLine
 10
6.1363064223461379
 20
12.584077618363892
 30
0.0
 11
6.1363064223461379
 21
12.0
 31
0.0
  0
LINE
  5
310
100
AcDbEntity
  8
0
  6
CONTINUOUS
 62
               7
100
AcDbLine
 10
6.1363064218118097
 20
12.584077618363892
 30
0.0
 11
7.9999999869420435
 21
12.584077618363892
 31
0.0
  0
ARC
  5
311
100
AcDbEntity
  8
0
  6
CONTINUOUS
 62
               7
100
AcDbCircle
 10
11.054620380518941
 20
13.75
 30
0.0
 40
5.054620380518986
100
AcDbArc
 50
166.66379274629222
 51
193.33620725719518
  0
LINE
  5
312
100
AcDbEntity
  8
0
  6
CONTINUOUS
 62
               7
100
AcDbLine
 10
6.0
 20
12.0
 30
0.0
 11
8.0
 21
12.0
 31
0.0
  0
LINE
  5
313
100
AcDbEntity
  8
0
  6
CONTINUOUS
 62
               7
100
AcDbLine
 10
6.1363064223461379
 20
18.415922381636108
 30
0.0
 11
6.1363064223461379
 21
19.0
 31
0.0
  0
LINE
  5
314
100
AcDbEntity
  8
0
  6
CONTINUOUS
 62
               7
100
AcDbLine
 10
6.1363064223461379
 20
14.915922341388097
 30
0.0
 11
6.1363064223461379
 21
16.084077624123921
 31
0.0
  0
LINE
  5
315
100
AcDbEntity
  8
0
  6
CONTINUOUS
 62
               7
100
AcDbLine
 10
6.1363064218118097
 20
14.915922345829983
 30
0.0
 11
8.0
 21
14.915922345829983
 31
0.0
  0
LINE
  5
316
100
AcDbEntity
  8
0
  6
CONTINUOUS
 62
               7
100
AcDbLine
 10
6.1363064218118097
 20
16.084077618663343
 30
0.0
 11
8.0
 21
16.084077618663343
 31
0.0
  0
LINE
  5
317
100
AcDbEntity
  8
0
  6
CONTINUOUS
 62
               7
100
AcDbLine
 10
6.1363064218118097
 20
18.415922381636108
 30
0.0
 11
7.9999999869420435
 21
18.415922381636108
 31
0.0
  0
LINE
  5
318
100
AcDbEntity
  8
0
  6
CONTINUOUS
 62
               7
100
AcDbLine
 10
8.0
 20
3.0
 30
0.0
 11
6.0
 21
3.0
 31
0.0
  0
LINE
  5
319
100
AcDbEntity
  8
0
  6
CONTINUOUS
 62
               7
100
AcDbLine
 10
8.0
 20
2.75
 30
0.0
 11
6.0
 21
2.75
 31
0.0
  0
LINE
  5
31A
100
AcDbEntity
  8
0
  6
CONTINUOUS
 62
               7
100
AcDbLine
 10
27.566987298107733
 20
3.2500000000000284
 30
0.0
 11
27.133974596215523
 21
4.0000000000000284
 31
0.0
  0
LINE
  5
31B
100
AcDbEntity
  8
0
  6
CONTINUOUS
 62
               7
100
AcDbLine
 10
28.433012701892153
 20
3.2500000000000284
 30
0.0
 11
28.86602540378442
 21
4.0000000000000284
 31
0.0
  0
LINE
  5
31C
100
AcDbEntity
  8
0
  6
CONTINUOUS
 62
               7
100
AcDbLine
 10
27.566987298107733
 20
3.2500000000000284
 30
0.0
 11
28.433012701892153
 21
3.2500000000000284
 31
0.0
  0
LINE
  5
31D
100
AcDbEntity
  8
0
  6
CONTINUOUS
 62
               7
100
AcDbLine
 10
28.433012701892153
 20
4.7500000000000284
 30
0.0
 11
28.86602540378442
 21
4.0000000000000284
 31
0.0
  0
LINE
  5
31E
100
AcDbEntity
  8
0
  6
CONTINUOUS
 62
               7
100
AcDbLine
 10
27.566987298107733
 20
4.7500000000000284
 30
0.0
 11
27.133974596215523
 21
4.0000000000000284
 31
0.0
  0
LINE
  5
31F
100
AcDbEntity
  8
0
  6
CONTINUOUS
 62
               7
100
AcDbLine
 10
27.566987298107733
 20
4.7500000000000284
 30
0.0
 11
28.433012701892153
 21
4.7500000000000284
 31
0.0
  0
CIRCLE
  5
320
100
AcDbEntity
  8
0
  6
CONTINUOUS
 62
               7
100
AcDbCircle
 10
28.0
 20
4.0000000000000284
 30
0.0
 40
1.8999999999999999
  0
LINE
  5
321
100
AcDbEntity
  8
0
  6
CENTER
 62
               2
100
AcDbLine
 10
45.0
 20
-2.75
 30
0.0
 11
45.0
 21
2.75
 31
0.0
  0
LINE
  5
322
100
AcDbEntity
  8
0
  6
CONTINUOUS
 62
               7
100
AcDbLine
 10
44.0
 20
-2.0
 30
0.0
 11
46.0
 21
-2.0
 31
0.0
  0
LINE
  5
323
100
AcDbEntity
  8
0
  6
CONTINUOUS
 62
               7
100
AcDbLine
 10
44.0
 20
2.0
 30
0.0
 11
46.0
 21
2.0
 31
0.0
  0
LINE
  5
324
100
AcDbEntity
  8
0
  6
CENTER
 62
               2
100
AcDbLine
 10
31.25
 20
4.0000000000000284
 30
0.0
 11
24.75
 21
4.0000000000000284
 31
0.0
  0
CIRCLE
  5
325
100
AcDbEntity
  8
0
  6
CONTINUOUS
 62
               7
100
AcDbCircle
 10
28.0
 20
4.0000000000000284
 30
0.0
 40
2.5
  0
LINE
  5
326
100
AcDbEntity
  8
0
  6
CONTINUOUS
 62
               7
100
AcDbLine
 10
93.0
 20
11.5
 30
0.0
 11
8.0
 21
11.5
 31
0.0
  0
LINE
  5
327
100
AcDbEntity
  8
0
  6
CONTINUOUS
 62
               7
100
AcDbLine
 10
93.0
 20
11.0
 30
0.0
 11
8.0
 21
11.0
 31
0.0
  0
LINE
  5
328
100
AcDbEntity
  8
0
  6
CONTINUOUS
 62
               7
100
AcDbLine
 10
93.0
 20
17.5
 30
0.0
 11
8.0
 21
17.5
 31
0.0
  0
LINE
  5
329
100
AcDbEntity
  8
0
  6
CONTINUOUS
 62
               7
100
AcDbLine
 10
93.0
 20
18.0
 30
0.0
 11
8.0
 21
18.0
 31
0.0
  0
LINE
  5
32A
100
AcDbEntity
  8
0
  6
CENTER
 62
               2
100
AcDbLine
 10
28.0
 20
0.7500000000000284
 30
0.0
 11
28.0
 21
7.2500000000000284
 31
0.0
  0
LINE
  5
32B
100
AcDbEntity
  8
0
  6
CENTER
 62
               2
100
AcDbLine
 10
15.0
 20
-2.75
 30
0.0
 11
15.0
 21
2.75
 31
0.0
  0
CIRCLE
  5
32C
100
AcDbEntity
  8
0
  6
CONTINUOUS
 62
               7
100
AcDbCircle
 10
15.0
 20
0.0
 30
0.0
 40
2.0
  0
LINE
  5
32D
100
AcDbEntity
  8
0
  6
CENTER
 62
               2
100
AcDbLine
 10
46.0
 20
-2.75
 30
0.0
 11
46.0
 21
2.75
 31
0.0
  0
LINE
  5
32E
100
AcDbEntity
  8
0
  6
CENTER
 62
               2
100
AcDbLine
 10
44.0
 20
-2.75
 30
0.0
 11
44.0
 21
2.75
 31
0.0
  0
ARC
  5
32F
100
AcDbEntity
  8
0
  6
CONTINUOUS
 62
               7
100
AcDbCircle
 10
44.0
 20
0.0
 30
0.0
 40
2.0
100
AcDbArc
 50
89.999999999999815
 51
269.99999999999937
  0
ARC
  5
330
100
AcDbEntity
  8
0
  6
CONTINUOUS
 62
               7
100
AcDbCircle
 10
46.0
 20
0.0
 30
0.0
 40
2.0
100
AcDbArc
 50
269.99999999999937
 51
89.999999999999801
  0
LINE
  5
331
100
AcDbEntity
  8
0
  6
CENTER
 62
               2
100
AcDbLine
 10
12.25
 20
6.5
 30
0.0
 11
17.75
 21
6.5
 31
0.0
  0
CIRCLE
  5
332
100
AcDbEntity
  8
0
  6
CONTINUOUS
 62
               7
100
AcDbCircle
 10
15.0
 20
6.5
 30
0.0
 40
1.6000000000000001
  0
CIRCLE
  5
333
100
AcDbEntity
  8
0
  6
CONTINUOUS
 62
               2
100
AcDbCircle
 10
15.0
 20
6.5
 30
0.0
 40
2.0
  0
LINE
  5
334
100
AcDbEntity
  8
0
  6
CENTER
 62
               2
100
AcDbLine
 10
15.0
 20
3.75
 30
0.0
 11
15.0
 21
9.25
 31
0.0
  0
LINE
  5
335
100
AcDbEntity
  8
0
  6
CENTER
 62
               2
100
AcDbLine
 10
42.25
 20
6.5
 30
0.0
 11
47.75
 21
6.5
 31
0.0
  0
CIRCLE
  5
336
100
AcDbEntity
  8
0
  6
CONTINUOUS
 62
               7
100
AcDbCircle
 10
45.0
 20
6.5
 30
0.0
 40
1.6000000000000001
  0
CIRCLE
  5
337
100
AcDbEntity
  8
0
  6
CONTINUOUS
 62
               2
100
AcDbCircle
 10
45.0
 20
6.5
 30
0.0
 40
2.0
  0
LINE
  5
338
100
AcDbEntity
  8
0
  6
CENTER
 62
               2
100
AcDbLine
 10
45.0
 20
3.75
 30
0.0
 11
45.0
 21
9.25
 31
0.0
  0
LINE
  5
339
100
AcDbEntity
  8
0
  6
CONTINUOUS
 62
               7
100
AcDbLine
 10
94.439999999999941
 20
15.0
 30
0.0
 11
94.439999999999941
 21
18.499999999999744
 31
0.0
  0
LINE
  5
33A
100
AcDbEntity
  8
0
  6
CONTINUOUS
 62
               7
100
AcDbLine
 10
93.339999999999975
 20
15.0
 30
0.0
 11
93.339999999999975
 21
23.0
 31
0.0
  0
LINE
  5
33B
100
AcDbEntity
  8
0
  6
CONTINUOUS
 62
               7
100
AcDbLine
 10
93.639999999999986
 20
18.499999999999744
 30
0.0
 11
94.439999999999941
 21
18.499999999999744
 31
0.0
  0
LINE
  5
33C
100
AcDbEntity
  8
0
  6
CONTINUOUS
 62
               7
100
AcDbLine
 10
93.639999999999986
 20
19.499999999999744
 30
0.0
 11
94.439999999999941
 21
19.499999999999744
 31
0.0
  0
LINE
  5
33D
100
AcDbEntity
  8
0
  6
CONTINUOUS
 62
               7
100
AcDbLine
 10
93.639999999999986
 20
18.499999999999744
 30
0.0
 11
93.639999999999986
 21
19.499999999999744
 31
0.0
  0
LINE
  5
33E
100
AcDbEntity
  8
0
  6
CONTINUOUS
 62
               7
100
AcDbLine
 10
94.439999999999941
 20
19.499999999999744
 30
0.0
 11
94.439999999999941
 21
23.0
 31
0.0
  0
LINE
  5
33F
100
AcDbEntity
  8
0
  6
CONTINUOUS
 62
               7
100
AcDbLine
 10
93.0
 20
23.0
 30
0.0
 11
94.439999999999941
 21
23.0
 31
0.0
  0
LINE
  5
340
100
AcDbEntity
  8
0
  6
CONTINUOUS
 62
               7
100
AcDbLine
 10
93.0
 20
15.0
 30
0.0
 11
94.439999999999941
 21
15.0
 31
0.0
  0
CIRCLE
  5
341
100
AcDbEntity
  8
0
  6
CONTINUOUS
 62
               4
100
AcDbCircle
 10
75.0
 20
6.5
 30
0.0
 40
1.6000000000000001
  0
CIRCLE
  5
342
100
AcDbEntity
  8
0
  6
CONTINUOUS
 62
             200
100
AcDbCircle
 10
75.0
 20
6.5
 30
0.0
 40
2.0
  0
LINE
  5
343
100
AcDbEntity
  8
0
  6
CENTER
 62
             200
100
AcDbLine
 10
75.0
 20
3.75
 30
0.0
 11
75.0
 21
9.25
 31
0.0
  0
LINE
  5
344
100
AcDbEntity
  8
0
  6
CONTINUOUS
 62
               7
100
AcDbLine
 10
8.0
 20
11.0
 30
0.0
 11
6.0
 21
11.0
 31
0.0
  0
ARC
  5
345
100
AcDbEntity
  8
0
  6
CONTINUOUS
 62
               7
100
AcDbCircle
 10
11.054620380518941
 20
17.25
 30
0.0
 40
5.054620380518986
100
AcDbArc
 50
166.66379274280408
 51
193.33620725370696
  0
LINE
  5
346
100
AcDbEntity
  8
0
  6
CONTINUOUS
 62
               7
100
AcDbLine
 10
6.0
 20
19.0
 30
0.0
 11
8.0
 21
19.0
 31
0.0
  0
LINE
  5
347
100
AcDbEntity
  8
0
  6
CENTER
 62
               2
100
AcDbLine
 10
-0.75
 20
15.5
 30
0.0
 11
8.75
 21
15.5
 31
0.0
  0
LINE
  5
348
100
AcDbEntity
  8
0
  6
CONTINUOUS
 62
               7
100
AcDbLine
 10
6.0
 20
21.0
 30
0.0
 11
0.0
 21
21.0
 31
0.0
  0
LINE
  5
349
100
AcDbEntity
  8
0
  6
CONTINUOUS
 62
               7
100
AcDbLine
 10
93.0
 20
26.0
 30
0.0
 11
8.0
 21
26.0
 31
0.0
  0
LINE
  5
34A
100
AcDbEntity
  8
0
  6
CONTINUOUS
 62
               7
100
AcDbLine
 10
8.0
 20
-26.0
 30
0.0
 11
8.0
 21
26.0
 31
0.0
  0
LINE
  5
34B
100
AcDbEntity
  8
0
  6
CENTER
 62
             200
100
AcDbLine
 10
72.25
 20
6.5
 30
0.0
 11
77.75
 21
6.5
 31
0.0
  0
LINE
  5
34C
100
AcDbEntity
  8
0
  6
CONTINUOUS
 62
               7
100
AcDbLine
 10
0.0
 20
-21.0
 30
0.0
 11
0.0
 21
21.0
 31
0.0
  0
LINE
  5
34D
100
AcDbEntity
  8
0
  6
CONTINUOUS
 62
               7
100
AcDbLine
 10
6.0
 20
-21.0
 30
0.0
 11
6.0
 21
21.0
 31
0.0
  0
LINE
  5
34E
100
AcDbEntity
  8
0
  6
CONTINUOUS
 62
               7
100
AcDbLine
 10
93.0
 20
-26.0
 30
0.0
 11
93.0
 21
26.0
 31
0.0
  0
LINE
  5
34F
100
AcDbEntity
  8
0
  6
CONTINUOUS
 62
               7
100
AcDbLine
 10
93.0
 20
-11.5
 30
0.0
 11
8.0
 21
-11.5
 31
0.0
  0
LINE
  5
350
100
AcDbEntity
  8
0
  6
CONTINUOUS
 62
               7
100
AcDbLine
 10
93.0
 20
-11.0
 30
0.0
 11
8.0
 21
-11.0
 31
0.0
  0
LINE
  5
351
100
AcDbEntity
  8
0
  6
CONTINUOUS
 62
               7
100
AcDbLine
 10
93.0
 20
-17.5
 30
0.0
 11
8.0
 21
-17.5
 31
0.0
  0
LINE
  5
352
100
AcDbEntity
  8
0
  6
CONTINUOUS
 62
               7
100
AcDbLine
 10
93.0
 20
-18.0
 30
0.0
 11
8.0
 21
-18.0
 31
0.0
  0
LINE
  5
353
100
AcDbEntity
  8
0
  6
CONTINUOUS
 62
               7
100
AcDbLine
 10
93.0
 20
-26.0
 30
0.0
 11
8.0
 21
-26.0
 31
0.0
  0
LINE
  5
354
100
AcDbEntity
  8
0
  6
CONTINUOUS
 62
               7
100
AcDbLine
 10
6.0
 20
-21.0
 30
0.0
 11
0.0
 21
-21.0
 31
0.0
  0
LINE
  5
355
100
AcDbEntity
  8
0
  6
CENTER
 62
               2
100
AcDbLine
 10
-0.75
 20
-15.5
 30
0.0
 11
8.75
 21
-15.5
 31
0.0
  0
LINE
  5
356
100
AcDbEntity
  8
0
  6
CONTINUOUS
 62
               7
100
AcDbLine
 10
6.0
 20
-19.0
 30
0.0
 11
8.0
 21
-19.0
 31
0.0
  0
ARC
  5
357
100
AcDbEntity
  8
0
  6
CONTINUOUS
 62
               7
100
AcDbCircle
 10
11.054620380518941
 20
-17.25
 30
0.0
 40
5.054620380518986
100
AcDbArc
 50
166.66379274629222
 51
193.33620725719518
  0
LINE
  5
358
100
AcDbEntity
  8
0
  6
CONTINUOUS
 62
               7
100
AcDbLine
 10
8.0
 20
-11.0
 30
0.0
 11
6.0
 21
-11.0
 31
0.0
  0
LINE
  5
359
100
AcDbEntity
  8
0
  6
CONTINUOUS
 62
               7
100
AcDbLine
 10
8.0
 20
-2.75
 30
0.0
 11
6.0
 21
-2.75
 31
0.0
  0
LINE
  5
35A
100
AcDbEntity
  8
0
  6
CONTINUOUS
 62
               7
100
AcDbLine
 10
8.0
 20
-3.0
 30
0.0
 11
6.0
 21
-3.0
 31
0.0
  0
LINE
  5
35B
100
AcDbEntity
  8
0
  6
CONTINUOUS
 62
               7
100
AcDbLine
 10
6.1363064218118097
 20
-18.415922381636108
 30
0.0
 11
7.9999999869420435
 21
-18.415922381636108
 31
0.0
  0
LINE
  5
35C
100
AcDbEntity
  8
0
  6
CONTINUOUS
 62
               7
100
AcDbLine
 10
6.1363064218118097
 20
-16.084077618663343
 30
0.0
 11
8.0
 21
-16.084077618663343
 31
0.0
  0
LINE
  5
35D
100
AcDbEntity
  8
0
  6
CONTINUOUS
 62
               7
100
AcDbLine
 10
6.1363064218118097
 20
-14.915922345829983
 30
0.0
 11
8.0
 21
-14.915922345829983
 31
0.0
  0
LINE
  5
35E
100
AcDbEntity
  8
0
  6
CONTINUOUS
 62
               7
100
AcDbLine
 10
6.1363064223461379
 20
-14.915922341388097
 30
0.0
 11
6.1363064223461379
 21
-16.084077624123921
 31
0.0
  0
LINE
  5
35F
100
AcDbEntity
  8
0
  6
CONTINUOUS
 62
               7
100
AcDbLine
 10
6.1363064223461379
 20
-18.415922381636108
 30
0.0
 11
6.1363064223461379
 21
-19.0
 31
0.0
  0
LINE
  5
360
100
AcDbEntity
  8
0
  6
CONTINUOUS
 62
               7
100
AcDbLine
 10
6.0
 20
-12.0
 30
0.0
 11
8.0
 21
-12.0
 31
0.0
  0
ARC
  5
361
100
AcDbEntity
  8
0
  6
CONTINUOUS
 62
               7
100
AcDbCircle
 10
11.054620380518941
 20
-13.75
 30
0.0
 40
5.054620380518986
100
AcDbArc
 50
166.66379274280408
 51
193.33620725370696
  0
LINE
  5
362
100
AcDbEntity
  8
0
  6
CONTINUOUS
 62
               7
100
AcDbLine
 10
6.1363064218118097
 20
-12.584077618363892
 30
0.0
 11
7.9999999869420435
 21
-12.584077618363892
 31
0.0
  0
LINE
  5
363
100
AcDbEntity
  8
0
  6
CONTINUOUS
 62
               7
100
AcDbLine
 10
6.1363064223461379
 20
-12.584077618363892
 30
0.0
 11
6.1363064223461379
 21
-12.0
 31
0.0
  0
LINE
  5
364
100
AcDbEntity
  8
0
  6
CENTER
 62
               2
100
AcDbLine
 10
15.0
 20
-3.75
 30
0.0
 11
15.0
 21
-9.25
 31
0.0
  0
CIRCLE
  5
365
100
AcDbEntity
  8
0
  6
CONTINUOUS
 62
               2
100
AcDbCircle
 10
15.0
 20
-6.5
 30
0.0
 40
2.0
  0
CIRCLE
  5
366
100
AcDbEntity
  8
0
  6
CONTINUOUS
 62
               7
100
AcDbCircle
 10
15.0
 20
-6.5
 30
0.0
 40
1.6000000000000001
  0
LINE
  5
367
100
AcDbEntity
  8
0
  6
CENTER
 62
               2
100
AcDbLine
 10
12.25
 20
-6.5
 30
0.0
 11
17.75
 21
-6.5
 31
0.0
  0
CIRCLE
  5
368
100
AcDbEntity
  8
0
  6
CONTINUOUS
 62
               7
100
AcDbCircle
 10
28.0
 20
-4.0000000000000284
 30
0.0
 40
1.8999999999999999
  0
LINE
  5
369
100
AcDbEntity
  8
0
  6
CENTER
 62
               2
100
AcDbLine
 10
31.25
 20
-4.0000000000000284
 30
0.0
 11
24.75
 21
-4.0000000000000284
 31
0.0
  0
CIRCLE
  5
36A
100
AcDbEntity
  8
0
  6
CONTINUOUS
 62
               7
100
AcDbCircle
 10
28.0
 20
-4.0000000000000284
 30
0.0
 40
2.5
  0
LINE
  5
36B
100
AcDbEntity
  8
0
  6
CENTER
 62
               2
100
AcDbLine
 10
28.0
 20
-0.7500000000000284
 30
0.0
 11
28.0
 21
-7.2500000000000284
 31
0.0
  0
LINE
  5
36C
100
AcDbEntity
  8
0
  6
CONTINUOUS
 62
               7
100
AcDbLine
 10
27.566987298107733
 20
-4.7500000000000284
 30
0.0
 11
28.433012701892153
 21
-4.7500000000000284
 31
0.0
  0
LINE
  5
36D
100
AcDbEntity
  8
0
  6
CONTINUOUS
 62
               7
100
AcDbLine
 10
27.566987298107733
 20
-4.7500000000000284
 30
0.0
 11
27.133974596215523
 21
-4.0000000000000284
 31
0.0
  0
LINE
  5
36E
100
AcDbEntity
  8
0
  6
CONTINUOUS
 62
               7
100
AcDbLine
 10
28.433012701892153
 20
-4.7500000000000284
 30
0.0
 11
28.86602540378442
 21
-4.0000000000000284
 31
0.0
  0
LINE
  5
36F
100
AcDbEntity
  8
0
  6
CONTINUOUS
 62
               7
100
AcDbLine
 10
27.566987298107733
 20
-3.2500000000000284
 30
0.0
 11
28.433012701892153
 21
-3.2500000000000284
 31
0.0
  0
LINE
  5
370
100
AcDbEntity
  8
0
  6
CONTINUOUS
 62
               7
100
AcDbLine
 10
28.433012701892153
 20
-3.2500000000000284
 30
0.0
 11
28.86602540378442
 21
-4.0000000000000284
 31
0.0
  0
LINE
  5
371
100
AcDbEntity
  8
0
  6
CONTINUOUS
 62
               7
100
AcDbLine
 10
27.566987298107733
 20
-3.2500000000000284
 30
0.0
 11
27.133974596215523
 21
-4.0000000000000284
 31
0.0
  0
LINE
  5
372
100
AcDbEntity
  8
0
  6
CENTER
 62
               2
100
AcDbLine
 10
45.0
 20
-3.75
 30
0.0
 11
45.0
 21
-9.25
 31
0.0
  0
CIRCLE
  5
373
100
AcDbEntity
  8
0
  6
CONTINUOUS
 62
               2
100
AcDbCircle
 10
45.0
 20
-6.5
 30
0.0
 40
2.0
  0
CIRCLE
  5
374
100
AcDbEntity
  8
0
  6
CONTINUOUS
 62
               7
100
AcDbCircle
 10
45.0
 20
-6.5
 30
0.0
 40
1.6000000000000001
  0
LINE
  5
375
100
AcDbEntity
  8
0
  6
CENTER
 62
               2
100
AcDbLine
 10
42.25
 20
-6.5
 30
0.0
 11
47.75
 21
-6.5
 31
0.0
  0
LINE
  5
376
100
AcDbEntity
  8
0
  6
CENTER
 62
             200
100
AcDbLine
 10
72.25
 20
-6.5
 30
0.0
 11
77.75
 21
-6.5
 31
0.0
  0
LINE
  5
377
100
AcDbEntity
  8
0
  6
CENTER
 62
             200
100
AcDbLine
 10
75.0
 20
-3.75
 30
0.0
 11
75.0
 21
-9.25
 31
0.0
  0
CIRCLE
  5
378
100
AcDbEntity
  8
0
  6
CONTINUOUS
 62
             200
100
AcDbCircle
 10
75.0
 20
-6.5
 30
0.0
 40
2.0
  0
CIRCLE
  5
379
100
AcDbEntity
  8
0
  6
CONTINUOUS
 62
               4
100
AcDbCircle
 10
75.0
 20
-6.5
 30
0.0
 40
1.6000000000000001
  0
LINE
  5
37A
100
AcDbEntity
  8
0
  6
CONTINUOUS
 62
               4
100
AcDbLine
 10
102.5
 20
-9.25
 30
0.0
 11
102.5
 21
-3.75
 31
0.0
  0
LINE
  5
37B
100
AcDbEntity
  8
0
  6
CONTINUOUS
 62
               4
100
AcDbLine
 10
99.5
 20
-9.5
 30
0.0
 11
99.5
 21
-3.5
 31
0.0
  0
LINE
  5
37C
100
AcDbEntity
  8
0
  6
CENTER
 62
               2
100
AcDbLine
 10
117.75
 20
0.0
 30
0.0
 11
-1.5
 21
0.0
 31
0.0
  0
LINE
  5
37D
100
AcDbEntity
  8
0
  6
CENTER
 62
             200
100
AcDbLine
 10
92.25
 20
-6.5
 30
0.0
 11
108.75
 21
-6.5
 31
0.0
  0
LINE
  5
37E
100
AcDbEntity
  8
0
  6
CONTINUOUS
 62
               4
100
AcDbLine
 10
116.5
 20
-3.0
 30
0.0
 11
116.5
 21
-0.5999999999999943
 31
0.0
  0
LINE
  5
37F
100
AcDbEntity
  8
0
  6
CONTINUOUS
 62
               4
100
AcDbLine
 10
116.5
 20
-3.0
 30
0.0
 11
117.0
 21
-2.5
 31
0.0
  0
LINE
  5
380
100
AcDbEntity
  8
0
  6
CONTINUOUS
 62
               4
100
AcDbLine
 10
117.0
 20
-0.5999999999999943
 30
0.0
 11
115.0
 21
-0.5999999999999943
 31
0.0
  0
LINE
  5
381
100
AcDbEntity
  8
0
  6
CONTINUOUS
 62
               4
100
AcDbLine
 10
117.0
 20
-2.5
 30
0.0
 11
117.0
 21
-0.5999999999999943
 31
0.0
  0
LINE
  5
382
100
AcDbEntity
  8
0
  6
CONTINUOUS
 62
               4
100
AcDbLine
 10
116.5
 20
-3.0
 30
0.0
 11
110.0
 21
-3.0
 31
0.0
  0
LINE
  5
383
100
AcDbEntity
  8
0
  6
CONTINUOUS
 62
             200
100
AcDbLine
 10
116.89999999999998
 20
-2.5999999999999943
 30
0.0
 11
110.0
 21
-2.5999999999999943
 31
0.0
  0
LINE
  5
384
100
AcDbEntity
  8
0
  6
CONTINUOUS
 62
               4
100
AcDbLine
 10
110.0
 20
-4.0
 30
0.0
 11
108.0
 21
-4.0
 31
0.0
  0
ARC
  5
385
100
AcDbEntity
  8
0
  6
CONTINUOUS
 62
               4
100
AcDbCircle
 10
104.22329099369261
 20
-2.0
 30
0.0
 40
5.7767090063073505
100
AcDbArc
 50
339.74384199958354
 51
20.256158000416459
  0
LINE
  5
386
100
AcDbEntity
  8
0
  6
CONTINUOUS
 62
               4
100
AcDbLine
 10
99.5
 20
-3.75
 30
0.0
 11
102.5
 21
-3.75
 31
0.0
  0
LINE
  5
387
100
AcDbEntity
  8
0
  6
CONTINUOUS
 62
               4
100
AcDbLine
 10
108.0
 20
-3.5
 30
0.0
 11
99.5
 21
-3.5
 31
0.0
  0
LINE
  5
388
100
AcDbEntity
  8
0
  6
CONTINUOUS
 62
               4
100
AcDbLine
 10
108.0
 20
-9.5
 30
0.0
 11
99.5
 21
-9.5
 31
0.0
  0
LINE
  5
389
100
AcDbEntity
  8
0
  6
CONTINUOUS
 62
               4
100
AcDbLine
 10
93.0
 20
-10.5
 30
0.0
 11
108.0
 21
-10.5
 31
0.0
  0
LINE
  5
38A
100
AcDbEntity
  8
0
  6
CENTER
 62
               2
100
AcDbLine
 10
91.949999999999989
 20
-19.0
 30
0.0
 11
95.189999999999941
 21
-19.0
 31
0.0
  0
LINE
  5
38B
100
AcDbEntity
  8
0
  6
CONTINUOUS
 62
               7
100
AcDbLine
 10
93.639999999999986
 20
-18.499999999999744
 30
0.0
 11
94.439999999999941
 21
-18.499999999999744
 31
0.0
  0
LINE
  5
38C
100
AcDbEntity
  8
0
  6
CONTINUOUS
 62
               7
100
AcDbLine
 10
93.639999999999986
 20
-19.499999999999744
 30
0.0
 11
94.439999999999941
 21
-19.499999999999744
 31
0.0
  0
LINE
  5
38D
100
AcDbEntity
  8
0
  6
CONTINUOUS
 62
               7
100
AcDbLine
 10
93.0
 20
-23.0
 30
0.0
 11
94.439999999999941
 21
-23.0
 31
0.0
  0
LINE
  5
38E
100
AcDbEntity
  8
0
  6
CONTINUOUS
 62
               7
100
AcDbLine
 10
93.0
 20
-15.0
 30
0.0
 11
94.439999999999941
 21
-15.0
 31
0.0
  0
LINE
  5
38F
100
AcDbEntity
  8
0
  6
CONTINUOUS
 62
               7
100
AcDbLine
 10
93.639999999999986
 20
-18.499999999999744
 30
0.0
 11
93.639999999999986
 21
-19.499999999999744
 31
0.0
  0
LINE
  5
390
100
AcDbEntity
  8
0
  6
CONTINUOUS
 62
               7
100
AcDbLine
 10
93.339999999999975
 20
-15.0
 30
0.0
 11
93.339999999999975
 21
-23.0
 31
0.0
  0
LINE
  5
391
100
AcDbEntity
  8
0
  6
CONTINUOUS
 62
               7
100
AcDbLine
 10
94.439999999999941
 20
-15.0
 30
0.0
 11
94.439999999999941
 21
-18.499999999999744
 31
0.0
  0
LINE
  5
392
100
AcDbEntity
  8
0
  6
CONTINUOUS
 62
               7
100
AcDbLine
 10
94.439999999999941
 20
-19.499999999999744
 30
0.0
 11
94.439999999999941
 21
-23.0
 31
0.0
  0
LINE
  5
393
100
AcDbEntity
  8
0
  6
CONTINUOUS
 62
               4
100
AcDbLine
 10
99.5
 20
-9.25
 30
0.0
 11
102.5
 21
-9.25
 31
0.0
  0
ENDBLK
  5
394
100
AcDbEntity
  8
0
100
AcDbBlockEnd
  0
BLOCK
  5
395
100
AcDbEntity
  8
0
100
AcDbBlockBegin
  2
ZS6RS-8
 70
               0
 10
0.0
 20
0.0
 30
0.0
  3
ZS6RS-8
  1

  0
LINE
  5
396
100
AcDbEntity
  8
0
  6
CONTINUOUS
 62
               4
100
AcDbLine
 10
27.25
 20
-3.5999999999999943
 30
0.0
 11
30.5
 21
-3.5999999999999943
 31
0.0
  0
LINE
  5
397
100
AcDbEntity
  8
0
  6
CONTINUOUS
 62
               4
100
AcDbLine
 10
25.75
 20
-1.0
 30
0.0
 11
30.5
 21
-1.0
 31
0.0
  0
LINE
  5
398
100
AcDbEntity
  8
0
  6
CONTINUOUS
 62
               4
100
AcDbLine
 10
22.0
 20
-3.5999999999999943
 30
0.0
 11
25.75
 21
-3.5999999999999943
 31
0.0
  0
LINE
  5
399
100
AcDbEntity
  8
0
  6
CONTINUOUS
 62
               4
100
AcDbLine
 10
22.0
 20
-1.0
 30
0.0
 11
24.25
 21
-1.0
 31
0.0
  0
LINE
  5
39A
100
AcDbEntity
  8
0
  6
CONTINUOUS
 62
               4
100
AcDbLine
 10
0.0
 20
-0.4500000000000028
 30
0.0
 11
22.0
 21
-0.4500000000000028
 31
0.0
  0
LINE
  5
39B
100
AcDbEntity
  8
0
  6
CONTINUOUS
 62
               4
100
AcDbLine
 10
0.0
 20
-1.0
 30
0.0
 11
22.0
 21
-1.0
 31
0.0
  0
LINE
  5
39C
100
AcDbEntity
  8
0
  6
CONTINUOUS
 62
               4
100
AcDbLine
 10
0.75
 20
0.5
 30
0.0
 11
3.25
 21
0.5
 31
0.0
  0
LINE
  5
39D
100
AcDbEntity
  8
0
  6
CONTINUOUS
 62
               4
100
AcDbLine
 10
3.25
 20
0.5
 30
0.0
 11
3.25
 21
0.0
 31
0.0
  0
LINE
  5
39E
100
AcDbEntity
  8
0
  6
CONTINUOUS
 62
             200
100
AcDbLine
 10
3.0200000000000387
 20
0.5
 30
0.0
 11
3.0200000000000387
 21
0.0
 31
0.0
  0
LINE
  5
39F
100
AcDbEntity
  8
0
  6
CONTINUOUS
 62
             200
100
AcDbLine
 10
0.9700000000000273
 20
0.5
 30
0.0
 11
0.9700000000000273
 21
0.0
 31
0.0
  0
LINE
  5
3A0
100
AcDbEntity
  8
0
  6
CONTINUOUS
 62
               4
100
AcDbLine
 10
0.75
 20
0.5
 30
0.0
 11
0.75
 21
0.0
 31
0.0
  0
LINE
  5
3A1
100
AcDbEntity
  8
0
  6
CONTINUOUS
 62
               4
100
AcDbLine
 10
0.75
 20
-3.769999999999996
 30
0.0
 11
3.25
 21
-3.769999999999996
 31
0.0
  0
LINE
  5
3A2
100
AcDbEntity
  8
0
  6
CONTINUOUS
 62
               4
100
AcDbLine
 10
3.25
 20
-2.5900000000000034
 30
0.0
 11
3.25
 21
-3.769999999999996
 31
0.0
  0
LINE
  5
3A3
100
AcDbEntity
  8
0
  6
CONTINUOUS
 62
             200
100
AcDbLine
 10
3.0200000000000387
 20
-2.5900000000000034
 30
0.0
 11
3.0200000000000387
 21
-4.0
 31
0.0
  0
LINE
  5
3A4
100
AcDbEntity
  8
0
  6
CONTINUOUS
 62
             200
100
AcDbLine
 10
0.9700000000000273
 20
-2.5900000000000034
 30
0.0
 11
0.9700000000000273
 21
-4.0
 31
0.0
  0
LINE
  5
3A5
100
AcDbEntity
  8
0
  6
CONTINUOUS
 62
               4
100
AcDbLine
 10
0.75
 20
-2.5900000000000034
 30
0.0
 11
0.75
 21
-3.769999999999996
 31
0.0
  0
LINE
  5
3A6
100
AcDbEntity
  8
0
  6
CONTINUOUS
 62
               4
100
AcDbLine
 10
0.9700000000000273
 20
-4.0
 30
0.0
 11
0.75
 21
-3.769999999999996
 31
0.0
  0
LINE
  5
3A7
100
AcDbEntity
  8
0
  6
CONTINUOUS
 62
               4
100
AcDbLine
 10
3.0200000000000387
 20
-4.0
 30
0.0
 11
3.25
 21
-3.769999999999996
 31
0.0
  0
LINE
  5
3A8
100
AcDbEntity
  8
0
  6
CONTINUOUS
 62
               4
100
AcDbLine
 10
0.9700000000000273
 20
-4.0
 30
0.0
 11
3.0200000000000387
 21
-4.0
 31
0.0
  0
LINE
  5
3A9
100
AcDbEntity
  8
0
  6
CONTINUOUS
 62
             200
100
AcDbLine
 10
23.75
 20
-0.1299999999999955
 30
0.0
 11
26.25
 21
-4.4599999999999937
 31
0.0
  0
LINE
  5
3AA
100
AcDbEntity
  8
0
  6
CONTINUOUS
 62
             200
100
AcDbLine
 10
25.25
 20
-0.1299999999999955
 30
0.0
 11
27.75
 21
-4.4599999999999937
 31
0.0
  0
LINE
  5
3AB
100
AcDbEntity
  8
0
  6
CONTINUOUS
 62
             200
100
AcDbLine
 10
32.730000000000018
 20
-0.1299999999999955
 30
0.0
 11
35.230000000000018
 21
-4.4599999999999937
 31
0.0
  0
LINE
  5
3AC
100
AcDbEntity
  8
0
  6
CENTER
 62
             200
100
AcDbLine
 10
20.680000000000064
 20
-2.2999999999999972
 30
0.0
 11
30.5
 21
-2.2999999999999972
 31
0.0
  0
LINE
  5
3AD
100
AcDbEntity
  8
0
  6
CONTINUOUS
 62
             200
100
AcDbLine
 10
34.230000000000018
 20
-0.1299999999999955
 30
0.0
 11
36.730000000000018
 21
-4.4599999999999937
 31
0.0
  0
LINE
  5
3AE
100
AcDbEntity
  8
0
  6
CONTINUOUS
 62
               4
100
AcDbLine
 10
37.5
 20
-3.0
 30
0.0
 11
40.5
 21
-3.0
 31
0.0
  0
LINE
  5
3AF
100
AcDbEntity
  8
0
  6
CONTINUOUS
 62
               4
100
AcDbLine
 10
37.5
 20
-2.5
 30
0.0
 11
40.5
 21
-2.5
 31
0.0
  0
LINE
  5
3B0
100
AcDbEntity
  8
0
  6
CONTINUOUS
 62
               4
100
AcDbLine
 10
37.5
 20
-2.0999999999999943
 30
0.0
 11
40.5
 21
-2.0999999999999943
 31
0.0
  0
LINE
  5
3B1
100
AcDbEntity
  8
0
  6
CONTINUOUS
 62
               4
100
AcDbLine
 10
37.5
 20
-1.5999999999999943
 30
0.0
 11
40.5
 21
-1.5999999999999943
 31
0.0
  0
LINE
  5
3B2
100
AcDbEntity
  8
0
  6
CONTINUOUS
 62
               4
100
AcDbLine
 10
34.960000000000036
 20
-1.4000000000000057
 30
0.0
 11
37.5
 21
-1.4000000000000057
 31
0.0
  0
LINE
  5
3B3
100
AcDbEntity
  8
0
  6
CONTINUOUS
 62
               4
100
AcDbLine
 10
30.5
 20
-1.4000000000000057
 30
0.0
 11
33.460000000000036
 21
-1.4000000000000057
 31
0.0
  0
LINE
  5
3B4
100
AcDbEntity
  8
0
  6
CONTINUOUS
 62
               4
100
AcDbLine
 10
36.0
 20
-3.2000000000000028
 30
0.0
 11
37.5
 21
-3.2000000000000028
 31
0.0
  0
LINE
  5
3B5
100
AcDbEntity
  8
0
  6
CONTINUOUS
 62
               4
100
AcDbLine
 10
35.480000000000018
 20
-2.2999999999999972
 30
0.0
 11
37.5
 21
-2.2999999999999972
 31
0.0
  0
LINE
  5
3B6
100
AcDbEntity
  8
0
  6
CONTINUOUS
 62
               4
100
AcDbLine
 10
30.5
 20
-2.2999999999999972
 30
0.0
 11
33.980000000000018
 21
-2.2999999999999972
 31
0.0
  0
LINE
  5
3B7
100
AcDbEntity
  8
0
  6
CONTINUOUS
 62
               4
100
AcDbLine
 10
30.5
 20
-3.2000000000000028
 30
0.0
 11
34.5
 21
-3.2000000000000028
 31
0.0
  0
LINE
  5
3B8
100
AcDbEntity
  8
0
  6
CONTINUOUS
 62
               4
100
AcDbLine
 10
37.5
 20
-1.4000000000000057
 30
0.0
 11
37.5
 21
-3.2000000000000028
 31
0.0
  0
LINE
  5
3B9
100
AcDbEntity
  8
0
  6
CONTINUOUS
 62
               4
100
AcDbLine
 10
40.5
 20
-2.5
 30
0.0
 11
40.5
 21
-3.0
 31
0.0
  0
LINE
  5
3BA
100
AcDbEntity
  8
0
  6
CONTINUOUS
 62
               4
100
AcDbLine
 10
40.5
 20
-1.5999999999999943
 30
0.0
 11
40.5
 21
-2.0999999999999943
 31
0.0
  0
LINE
  5
3BB
100
AcDbEntity
  8
0
  6
CENTER
 62
             200
100
AcDbLine
 10
28.82000000000005
 20
-2.75
 30
0.0
 11
40.75
 21
-2.75
 31
0.0
  0
LINE
  5
3BC
100
AcDbEntity
  8
0
  6
CENTER
 62
             200
100
AcDbLine
 10
28.769999999999982
 20
-1.8499999999999943
 30
0.0
 11
40.700000000000045
 21
-1.8499999999999943
 31
0.0
  0
LINE
  5
3BD
100
AcDbEntity
  8
0
  6
CONTINUOUS
 62
               4
100
AcDbLine
 10
30.5
 20
-1.0
 30
0.0
 11
30.5
 21
-3.5999999999999943
 31
0.0
  0
LINE
  5
3BE
100
AcDbEntity
  8
0
  6
CONTINUOUS
 62
               4
100
AcDbLine
 10
4.25
 20
-3.0400000000000063
 30
0.0
 11
4.7000000000000455
 21
-3.0400000000000063
 31
0.0
  0
LINE
  5
3BF
100
AcDbEntity
  8
0
  6
CONTINUOUS
 62
               4
100
AcDbLine
 10
4.2000000000000455
 20
-3.7999999999999972
 30
0.0
 11
4.7000000000000455
 21
-3.7999999999999972
 31
0.0
  0
LINE
  5
3C0
100
AcDbEntity
  8
0
  6
CONTINUOUS
 62
               4
100
AcDbLine
 10
4.2000000000000455
 20
-1.7999999999999972
 30
0.0
 11
4.2000000000000455
 21
-3.7999999999999972
 31
0.0
  0
LINE
  5
3C1
100
AcDbEntity
  8
0
  6
CONTINUOUS
 62
               4
100
AcDbLine
 10
0.0
 20
-2.5999999999999943
 30
0.0
 11
4.0
 21
-2.5999999999999943
 31
0.0
  0
LINE
  5
3C2
100
AcDbEntity
  8
0
  6
CONTINUOUS
 62
               4
100
AcDbLine
 10
0.0
 20
-1.7999999999999972
 30
0.0
 11
0.0
 21
-2.5999999999999943
 31
0.0
  0
LINE
  5
3C3
100
AcDbEntity
  8
0
  6
CONTINUOUS
 62
               4
100
AcDbLine
 10
4.0
 20
-1.7999999999999972
 30
0.0
 11
4.0
 21
-2.5999999999999943
 31
0.0
  0
LINE
  5
3C4
100
AcDbEntity
  8
0
  6
CONTINUOUS
 62
               4
100
AcDbLine
 10
4.25
 20
-1.7999999999999972
 30
0.0
 11
4.25
 21
-3.0400000000000063
 31
0.0
  0
LINE
  5
3C5
100
AcDbEntity
  8
0
  6
CENTER
 62
             200
100
AcDbLine
 10
2.0
 20
0.7999999999999972
 30
0.0
 11
2.0
 21
-5.4300000000000068
 31
0.0
  0
LINE
  5
3C6
100
AcDbEntity
  8
0
  6
CONTINUOUS
 62
               4
100
AcDbLine
 10
0.0
 20
-1.7999999999999972
 30
0.0
 11
4.25
 21
-1.7999999999999972
 31
0.0
  0
LINE
  5
3C7
100
AcDbEntity
  8
0
  6
CONTINUOUS
 62
               4
100
AcDbLine
 10
4.7000000000000455
 20
-3.0400000000000063
 30
0.0
 11
4.7000000000000455
 21
-4.5999999999999943
 31
0.0
  0
LINE
  5
3C8
100
AcDbEntity
  8
0
  6
CONTINUOUS
 62
               4
100
AcDbLine
 10
0.0
 20
-1.7999999999999972
 30
0.0
 11
0.0
 21
0.0
 31
0.0
  0
LINE
  5
3C9
100
AcDbEntity
  8
0
  6
CONTINUOUS
 62
               4
100
AcDbLine
 10
22.0
 20
0.0
 30
0.0
 11
22.0
 21
-4.5999999999999943
 31
0.0
  0
LINE
  5
3CA
100
AcDbEntity
  8
0
  6
CONTINUOUS
 62
               4
100
AcDbLine
 10
4.7000000000000455
 20
-4.5999999999999943
 30
0.0
 11
22.0
 21
-4.5999999999999943
 31
0.0
  0
LINE
  5
3CB
100
AcDbEntity
  8
0
  6
CONTINUOUS
 62
               4
100
AcDbLine
 10
0.0
 20
0.0
 30
0.0
 11
22.0
 21
0.0
 31
0.0
  0
ENDBLK
  5
3CC
100
AcDbEntity
  8
0
100
AcDbBlockEnd
  0
BLOCK
  5
3CD
100
AcDbEntity
  8
0
100
AcDbBlockBegin
  2
ZS6RS-9
 70
               0
 10
0.0
 20
0.0
 30
0.0
  3
ZS6RS-9
  1

  0
LINE
  5
3CE
100
AcDbEntity
  8
0
  6
CONTINUOUS
 62
               4
100
AcDbLine
 10
-1.25
 20
0.5
 30
0.0
 11
1.25
 21
0.5
 31
0.0
  0
LINE
  5
3CF
100
AcDbEntity
  8
0
  6
CONTINUOUS
 62
               4
100
AcDbLine
 10
1.25
 20
0.5
 30
0.0
 11
1.25
 21
0.0
 31
0.0
  0
LINE
  5
3D0
100
AcDbEntity
  8
0
  6
CONTINUOUS
 62
             200
100
AcDbLine
 10
1.0199999999999818
 20
0.5
 30
0.0
 11
1.0199999999999818
 21
0.0
 31
0.0
  0
LINE
  5
3D1
100
AcDbEntity
  8
0
  6
CONTINUOUS
 62
             200
100
AcDbLine
 10
-1.0199999999999818
 20
0.5
 30
0.0
 11
-1.0199999999999818
 21
0.0
 31
0.0
  0
LINE
  5
3D2
100
AcDbEntity
  8
0
  6
CONTINUOUS
 62
               4
100
AcDbLine
 10
-1.25
 20
0.5
 30
0.0
 11
-1.25
 21
0.0
 31
0.0
  0
LINE
  5
3D3
100
AcDbEntity
  8
0
  6
CONTINUOUS
 62
               4
100
AcDbLine
 10
-1.25
 20
-3.769999999999996
 30
0.0
 11
1.25
 21
-3.769999999999996
 31
0.0
  0
LINE
  5
3D4
100
AcDbEntity
  8
0
  6
CONTINUOUS
 62
               4
100
AcDbLine
 10
1.25
 20
-2.5900000000000034
 30
0.0
 11
1.25
 21
-3.769999999999996
 31
0.0
  0
LINE
  5
3D5
100
AcDbEntity
  8
0
  6
CONTINUOUS
 62
             200
100
AcDbLine
 10
1.0199999999999818
 20
-2.5900000000000034
 30
0.0
 11
1.0199999999999818
 21
-4.0
 31
0.0
  0
LINE
  5
3D6
100
AcDbEntity
  8
0
  6
CONTINUOUS
 62
             200
100
AcDbLine
 10
-1.0199999999999818
 20
-2.5900000000000034
 30
0.0
 11
-1.0199999999999818
 21
-4.0
 31
0.0
  0
LINE
  5
3D7
100
AcDbEntity
  8
0
  6
CONTINUOUS
 62
               4
100
AcDbLine
 10
-1.25
 20
-2.5900000000000034
 30
0.0
 11
-1.25
 21
-3.769999999999996
 31
0.0
  0
LINE
  5
3D8
100
AcDbEntity
  8
0
  6
CONTINUOUS
 62
               4
100
AcDbLine
 10
-1.0199999999999818
 20
-4.0
 30
0.0
 11
-1.25
 21
-3.769999999999996
 31
0.0
  0
LINE
  5
3D9
100
AcDbEntity
  8
0
  6
CONTINUOUS
 62
               4
100
AcDbLine
 10
1.0199999999999818
 20
-4.0
 30
0.0
 11
1.25
 21
-3.769999999999996
 31
0.0
  0
LINE
  5
3DA
100
AcDbEntity
  8
0
  6
CONTINUOUS
 62
               4
100
AcDbLine
 10
-1.0199999999999818
 20
-4.0
 30
0.0
 11
1.0199999999999818
 21
-4.0
 31
0.0
  0
LINE
  5
3DB
100
AcDbEntity
  8
0
  6
CONTINUOUS
 62
               4
100
AcDbLine
 10
-2.0496097189465119
 20
-2.5900000000000034
 30
0.0
 11
2.0496097189465114
 21
-2.5900000000000034
 31
0.0
  0
LINE
  5
3DC
100
AcDbEntity
  8
0
  6
CONTINUOUS
 62
               4
100
AcDbLine
 10
-2.0499999999999545
 20
-1.7999999999999972
 30
0.0
 11
2.0500000000000682
 21
-1.7999999999999972
 31
0.0
  0
LINE
  5
3DD
100
AcDbEntity
  8
0
  6
CONTINUOUS
 62
               4
100
AcDbLine
 10
2.0500000000000682
 20
-1.0
 30
0.0
 11
2.0500000000000682
 21
-2.5499999999999972
 31
0.0
  0
LINE
  5
3DE
100
AcDbEntity
  8
0
  6
CONTINUOUS
 62
               4
100
AcDbLine
 10
2.0500000000000682
 20
-1.0
 30
0.0
 11
1.5
 21
-0.4500000000000028
 31
0.0
  0
LINE
  5
3DF
100
AcDbEntity
  8
0
  6
CONTINUOUS
 62
               4
100
AcDbLine
 10
1.5
 20
0.0
 30
0.0
 11
1.5
 21
-0.4500000000000028
 31
0.0
  0
LINE
  5
3E0
100
AcDbEntity
  8
0
  6
CONTINUOUS
 62
               4
100
AcDbLine
 10
-1.5
 20
0.0
 30
0.0
 11
1.5
 21
0.0
 31
0.0
  0
LINE
  5
3E1
100
AcDbEntity
  8
0
  6
CONTINUOUS
 62
               4
100
AcDbLine
 10
-1.5
 20
0.0
 30
0.0
 11
-1.5
 21
-0.4500000000000028
 31
0.0
  0
LINE
  5
3E2
100
AcDbEntity
  8
0
  6
CONTINUOUS
 62
               4
100
AcDbLine
 10
-2.0499999999999545
 20
-1.0
 30
0.0
 11
-1.5
 21
-0.4500000000000028
 31
0.0
  0
LINE
  5
3E3
100
AcDbEntity
  8
0
  6
CONTINUOUS
 62
               4
100
AcDbLine
 10
-2.0499999999999545
 20
-1.0
 30
0.0
 11
-2.0499999999999545
 21
-2.5499999999999972
 31
0.0
  0
LINE
  5
3E4
100
AcDbEntity
  8
0
  6
CENTER
 62
             200
100
AcDbLine
 10
0.0
 20
2.0499999999999972
 30
0.0
 11
0.0
 21
-6.6599999999999966
 31
0.0
  0
ARC
  5
3E5
100
AcDbEntity
  8
0
  6
CONTINUOUS
 62
               4
100
AcDbCircle
 10
0.0
 20
-2.5499999999999998
 30
0.0
 40
2.0499999999999998
100
AcDbArc
 50
179.99999999999952
 51
0.0000000000001018
  0
ENDBLK
  5
3E6
100
AcDbEntity
  8
0
100
AcDbBlockEnd
  0
BLOCK
  5
3E7
100
AcDbEntity
  8
0
100
AcDbBlockBegin
  2
ZS6RS-10
 70
               0
 10
0.0
 20
0.0
 30
0.0
  3
ZS6RS-10
  1

  0
CIRCLE
  5
3E8
100
AcDbEntity
  8
0
  6
CONTINUOUS
 62
               4
100
AcDbCircle
 10
2.0000152587890625
 20
0.0
 30
0.0
 40
1.3999996185302734
  0
CIRCLE
  5
3E9
100
AcDbEntity
  8
0
  6
CONTINUOUS
 62
               4
100
AcDbCircle
 10
2.0000152587890625
 20
0.0
 30
0.0
 40
1.25
  0
LINE
  5
3EA
100
AcDbEntity
  8
0
  6
CONTINUOUS
 62
               4
100
AcDbLine
 10
22.0
 20
-1.2999999999999972
 30
0.0
 11
25.090000000000032
 21
-1.2999999999999972
 31
0.0
  0
LINE
  5
3EB
100
AcDbEntity
  8
0
  6
CONTINUOUS
 62
               4
100
AcDbLine
 10
22.0
 20
1.2999999999999972
 30
0.0
 11
23.580000000000041
 21
1.2999999999999972
 31
0.0
  0
LINE
  5
3EC
100
AcDbEntity
  8
0
  6
CONTINUOUS
 62
             200
100
AcDbLine
 10
23.080000000000041
 20
2.1599999999999966
 30
0.0
 11
25.580000000000041
 21
-2.1599999999999966
 31
0.0
  0
LINE
  5
3ED
100
AcDbEntity
  8
0
  6
CONTINUOUS
 62
               4
100
AcDbLine
 10
1.3000000000000682
 20
-1.0600000000000023
 30
0.0
 11
2.9400000000000546
 21
0.5600000000000023
 31
0.0
  0
LINE
  5
3EE
100
AcDbEntity
  8
0
  6
CONTINUOUS
 62
               4
100
AcDbLine
 10
0.9500000000000455
 20
-0.710000000000008
 30
0.0
 11
2.6800000000000637
 21
1.0200000000000102
 31
0.0
  0
LINE
  5
3EF
100
AcDbEntity
  8
0
  6
CENTER
 62
             200
100
AcDbLine
 10
2.0
 20
2.8299999999999983
 30
0.0
 11
2.0
 21
-2.75
 31
0.0
  0
LINE
  5
3F0
100
AcDbEntity
  8
0
  6
CONTINUOUS
 62
               4
100
AcDbLine
 10
22.0
 20
2.0499999999999972
 30
0.0
 11
22.0
 21
-2.0499999999999972
 31
0.0
  0
LINE
  5
3F1
100
AcDbEntity
  8
0
  6
CONTINUOUS
 62
               4
100
AcDbLine
 10
0.0
 20
2.0499999999999972
 30
0.0
 11
0.0
 21
-2.0499999999999972
 31
0.0
  0
LINE
  5
3F2
100
AcDbEntity
  8
0
  6
CONTINUOUS
 62
               4
100
AcDbLine
 10
0.0
 20
2.0499999999999972
 30
0.0
 11
22.0
 21
2.0499999999999972
 31
0.0
  0
LINE
  5
3F3
100
AcDbEntity
  8
0
  6
CONTINUOUS
 62
               4
100
AcDbLine
 10
0.0
 20
-2.0499999999999972
 30
0.0
 11
22.0
 21
-2.0499999999999972
 31
0.0
  0
LINE
  5
3F4
100
AcDbEntity
  8
0
  6
CONTINUOUS
 62
               4
100
AcDbLine
 10
0.0
 20
1.5
 30
0.0
 11
22.0
 21
1.5
 31
0.0
  0
LINE
  5
3F5
100
AcDbEntity
  8
0
  6
CONTINUOUS
 62
               4
100
AcDbLine
 10
0.0
 20
-1.5
 30
0.0
 11
22.0
 21
-1.5
 31
0.0
  0
LINE
  5
3F6
100
AcDbEntity
  8
0
  6
CENTER
 62
             200
100
AcDbLine
 10
-2.7999999999999545
 20
0.0
 30
0.0
 11
27.400000000000034
 21
0.0
 31
0.0
  0
ENDBLK
  5
3F7
100
AcDbEntity
  8
0
100
AcDbBlockEnd
  0
BLOCK
  5
3F8
100
AcDbEntity
  8
0
100
AcDbBlockBegin
  2
ZS6RS-11
 70
               0
 10
0.0
 20
0.0
 30
0.0
  3
ZS6RS-11
  1

  0
LINE
  5
3F9
100
AcDbEntity
  8
0
  6
CONTINUOUS
 62
               4
100
AcDbLine
 10
20.700000000000017
 20
12.150000000000006
 30
0.0
 11
20.700000000000017
 21
15.399999999999977
 31
0.0
  0
LINE
  5
3FA
100
AcDbEntity
  8
0
  6
CONTINUOUS
 62
               4
100
AcDbLine
 10
18.100000000000023
 20
10.649999999999977
 30
0.0
 11
18.100000000000051
 21
15.399999999999977
 31
0.0
  0
LINE
  5
3FB
100
AcDbEntity
  8
0
  6
CONTINUOUS
 62
               4
100
AcDbLine
 10
18.100000000000023
 20
6.9000000000000057
 30
0.0
 11
18.100000000000051
 21
9.1499999999999773
 31
0.0
  0
LINE
  5
3FC
100
AcDbEntity
  8
0
  6
CONTINUOUS
 62
               4
100
AcDbLine
 10
20.699999999999989
 20
6.9000000000000057
 30
0.0
 11
20.700000000000017
 21
10.650000000000006
 31
0.0
  0
LINE
  5
3FD
100
AcDbEntity
  8
0
  6
CONTINUOUS
 62
               4
100
AcDbLine
 10
0.7500000000000284
 20
0.4999999999999716
 30
0.0
 11
3.25
 21
0.4999999999999716
 31
0.0
  0
LINE
  5
3FE
100
AcDbEntity
  8
0
  6
CONTINUOUS
 62
               4
100
AcDbLine
 10
3.25
 20
0.4999999999999716
 30
0.0
 11
3.2500000000000568
 21
0.0
 31
0.0
  0
LINE
  5
3FF
100
AcDbEntity
  8
0
  6
CONTINUOUS
 62
             200
100
AcDbLine
 10
3.0200000000000102
 20
0.5
 30
0.0
 11
3.0199999999999818
 21
-0.0000000000000284
 31
0.0
  0
LINE
  5
400
100
AcDbEntity
  8
0
  6
CONTINUOUS
 62
             200
100
AcDbLine
 10
0.9700000000000557
 20
0.5
 30
0.0
 11
0.9700000000000841
 21
-0.0000000000000284
 31
0.0
  0
LINE
  5
401
100
AcDbEntity
  8
0
  6
CONTINUOUS
 62
               4
100
AcDbLine
 10
0.7500000000000284
 20
0.4999999999999716
 30
0.0
 11
0.7500000000000284
 21
0.0
 31
0.0
  0
LINE
  5
402
100
AcDbEntity
  8
0
  6
CONTINUOUS
 62
               4
100
AcDbLine
 10
0.7500000000000284
 20
-3.7700000000000102
 30
0.0
 11
3.2500000000000284
 21
-3.7700000000000102
 31
0.0
  0
LINE
  5
403
100
AcDbEntity
  8
0
  6
CONTINUOUS
 62
               4
100
AcDbLine
 10
3.2500000000000284
 20
-2.6000000000000227
 30
0.0
 11
3.2500000000000284
 21
-3.7700000000000102
 31
0.0
  0
LINE
  5
404
100
AcDbEntity
  8
0
  6
CONTINUOUS
 62
             200
100
AcDbLine
 10
3.0200000000000102
 20
-2.6000000000000227
 30
0.0
 11
3.0200000000000387
 21
-4.0
 31
0.0
  0
LINE
  5
405
100
AcDbEntity
  8
0
  6
CONTINUOUS
 62
             200
100
AcDbLine
 10
0.9700000000000557
 20
-2.6000000000000227
 30
0.0
 11
0.9700000000000273
 21
-4.0
 31
0.0
  0
LINE
  5
406
100
AcDbEntity
  8
0
  6
CONTINUOUS
 62
               4
100
AcDbLine
 10
0.75
 20
-2.6000000000000227
 30
0.0
 11
0.7500000000000284
 21
-3.7700000000000102
 31
0.0
  0
LINE
  5
407
100
AcDbEntity
  8
0
  6
CONTINUOUS
 62
               4
100
AcDbLine
 10
0.9700000000000273
 20
-4.0
 30
0.0
 11
0.7500000000000284
 21
-3.7700000000000102
 31
0.0
  0
LINE
  5
408
100
AcDbEntity
  8
0
  6
CONTINUOUS
 62
               4
100
AcDbLine
 10
3.0200000000000387
 20
-4.0
 30
0.0
 11
3.2500000000000284
 21
-3.7700000000000102
 31
0.0
  0
LINE
  5
409
100
AcDbEntity
  8
0
  6
CONTINUOUS
 62
               4
100
AcDbLine
 10
0.9700000000000273
 20
-4.0
 30
0.0
 11
3.0200000000000387
 21
-4.0
 31
0.0
  0
LINE
  5
40A
100
AcDbEntity
  8
0
  6
CONTINUOUS
 62
             200
100
AcDbLine
 10
17.240000000000038
 20
8.6499999999999773
 30
0.0
 11
21.570000000000022
 21
11.149999999999977
 31
0.0
  0
LINE
  5
40B
100
AcDbEntity
  8
0
  6
CONTINUOUS
 62
             200
100
AcDbLine
 10
17.240000000000038
 20
10.150000000000006
 30
0.0
 11
21.570000000000022
 21
12.649999999999977
 31
0.0
  0
LINE
  5
40C
100
AcDbEntity
  8
0
  6
CONTINUOUS
 62
             200
100
AcDbLine
 10
17.240000000000066
 20
17.629999999999967
 30
0.0
 11
21.570000000000022
 21
20.129999999999995
 31
0.0
  0
LINE
  5
40D
100
AcDbEntity
  8
0
  6
CENTER
 62
             200
100
AcDbLine
 10
19.400000000000091
 20
5.5799999999999841
 30
0.0
 11
19.400000000000091
 21
15.399999999999977
 31
0.0
  0
LINE
  5
40E
100
AcDbEntity
  8
0
  6
CONTINUOUS
 62
             200
100
AcDbLine
 10
17.240000000000038
 20
19.129999999999967
 30
0.0
 11
21.57000000000005
 21
21.629999999999995
 31
0.0
  0
LINE
  5
40F
100
AcDbEntity
  8
0
  6
CONTINUOUS
 62
               4
100
AcDbLine
 10
20.100000000000051
 20
22.400000000000006
 30
0.0
 11
20.100000000000051
 21
25.400000000000006
 31
0.0
  0
LINE
  5
410
100
AcDbEntity
  8
0
  6
CONTINUOUS
 62
               4
100
AcDbLine
 10
19.600000000000051
 20
22.399999999999977
 30
0.0
 11
19.600000000000051
 21
25.399999999999977
 31
0.0
  0
LINE
  5
411
100
AcDbEntity
  8
0
  6
CONTINUOUS
 62
               4
100
AcDbLine
 10
19.200000000000045
 20
22.399999999999977
 30
0.0
 11
19.200000000000017
 21
25.399999999999977
 31
0.0
  0
LINE
  5
412
100
AcDbEntity
  8
0
  6
CONTINUOUS
 62
               4
100
AcDbLine
 10
18.699999999999989
 20
22.399999999999977
 30
0.0
 11
18.700000000000045
 21
25.399999999999977
 31
0.0
  0
LINE
  5
413
100
AcDbEntity
  8
0
  6
CONTINUOUS
 62
               4
100
AcDbLine
 10
18.500000000000057
 20
19.859999999999957
 30
0.0
 11
18.500000000000028
 21
22.400000000000006
 31
0.0
  0
LINE
  5
414
100
AcDbEntity
  8
0
  6
CONTINUOUS
 62
               4
100
AcDbLine
 10
18.500000000000028
 20
15.400000000000006
 30
0.0
 11
18.500000000000028
 21
18.359999999999957
 31
0.0
  0
LINE
  5
415
100
AcDbEntity
  8
0
  6
CONTINUOUS
 62
               4
100
AcDbLine
 10
20.30000000000004
 20
20.900000000000006
 30
0.0
 11
20.300000000000068
 21
22.400000000000006
 31
0.0
  0
LINE
  5
416
100
AcDbEntity
  8
0
  6
CONTINUOUS
 62
               4
100
AcDbLine
 10
19.400000000000063
 20
20.379999999999967
 30
0.0
 11
19.400000000000119
 21
22.399999999999977
 31
0.0
  0
LINE
  5
417
100
AcDbEntity
  8
0
  6
CONTINUOUS
 62
               4
100
AcDbLine
 10
19.400000000000091
 20
15.399999999999977
 30
0.0
 11
19.400000000000119
 21
18.879999999999967
 31
0.0
  0
LINE
  5
418
100
AcDbEntity
  8
0
  6
CONTINUOUS
 62
               4
100
AcDbLine
 10
20.300000000000068
 20
15.400000000000006
 30
0.0
 11
20.300000000000068
 21
19.400000000000006
 31
0.0
  0
LINE
  5
419
100
AcDbEntity
  8
0
  6
CONTINUOUS
 62
               4
100
AcDbLine
 10
18.500000000000028
 20
22.400000000000006
 30
0.0
 11
20.300000000000068
 21
22.400000000000006
 31
0.0
  0
LINE
  5
41A
100
AcDbEntity
  8
0
  6
CONTINUOUS
 62
               4
100
AcDbLine
 10
19.600000000000051
 20
25.399999999999977
 30
0.0
 11
20.100000000000051
 21
25.400000000000006
 31
0.0
  0
LINE
  5
41B
100
AcDbEntity
  8
0
  6
CONTINUOUS
 62
               4
100
AcDbLine
 10
18.700000000000045
 20
25.399999999999977
 30
0.0
 11
19.200000000000017
 21
25.399999999999977
 31
0.0
  0
LINE
  5
41C
100
AcDbEntity
  8
0
  6
CENTER
 62
             200
100
AcDbLine
 10
19.850000000000051
 20
13.71999999999997
 30
0.0
 11
19.850000000000051
 21
25.650000000000006
 31
0.0
  0
LINE
  5
41D
100
AcDbEntity
  8
0
  6
CENTER
 62
             200
100
AcDbLine
 10
18.950000000000017
 20
13.669999999999987
 30
0.0
 11
18.950000000000017
 21
25.599999999999994
 31
0.0
  0
LINE
  5
41E
100
AcDbEntity
  8
0
  6
CONTINUOUS
 62
               4
100
AcDbLine
 10
18.100000000000051
 20
15.399999999999977
 30
0.0
 11
20.700000000000017
 21
15.399999999999977
 31
0.0
  0
LINE
  5
41F
100
AcDbEntity
  8
0
  6
CONTINUOUS
 62
               4
100
AcDbLine
 10
16.10000000000008
 20
5.3999999999999773
 30
0.0
 11
22.000000000000028
 21
5.3999999999999773
 31
0.0
  0
LINE
  5
420
100
AcDbEntity
  8
0
  6
CONTINUOUS
 62
               4
100
AcDbLine
 10
16.100000000000051
 20
0.4000000000000057
 30
0.0
 11
22.000000000000028
 21
0.4000000000000057
 31
0.0
  0
LINE
  5
421
100
AcDbEntity
  8
0
  6
CONTINUOUS
 62
               4
100
AcDbLine
 10
16.100000000000051
 20
1.1500000000000057
 30
0.0
 11
22.0
 21
1.1500000000000057
 31
0.0
  0
LINE
  5
422
100
AcDbEntity
  8
0
  6
CONTINUOUS
 62
               4
100
AcDbLine
 10
0.0000000000000284
 20
-0.4500000000000171
 30
0.0
 11
22.000000000000028
 21
-0.4500000000000171
 31
0.0
  0
LINE
  5
423
100
AcDbEntity
  8
0
  6
CONTINUOUS
 62
               4
100
AcDbLine
 10
0.0000000000000284
 20
-1.0000000000000284
 30
0.0
 11
22.000000000000057
 21
-1.0000000000000284
 31
0.0
  0
LINE
  5
424
100
AcDbEntity
  8
0
  6
CONTINUOUS
 62
               4
100
AcDbLine
 10
4.2700000000000102
 20
-1.8000000000000114
 30
0.0
 11
4.2700000000000102
 21
-2.9800000000000182
 31
0.0
  0
LINE
  5
425
100
AcDbEntity
  8
0
  6
CONTINUOUS
 62
               4
100
AcDbLine
 10
4.2700000000000102
 20
-2.9800000000000182
 30
0.0
 11
4.7000000000000171
 21
-2.9800000000000182
 31
0.0
  0
LINE
  5
426
100
AcDbEntity
  8
0
  6
CONTINUOUS
 62
               4
100
AcDbLine
 10
4.2000000000000455
 20
-1.8000000000000114
 30
0.0
 11
4.2000000000000171
 21
-3.7999999999999829
 31
0.0
  0
LINE
  5
427
100
AcDbEntity
  8
0
  6
CONTINUOUS
 62
               4
100
AcDbLine
 10
4.2000000000000171
 20
-3.7999999999999829
 30
0.0
 11
4.6999999999999886
 21
-3.8000000000000114
 31
0.0
  0
LINE
  5
428
100
AcDbEntity
  8
0
  6
CONTINUOUS
 62
               4
100
AcDbLine
 10
16.100000000000051
 20
6.8999999999999773
 30
0.0
 11
22.000000000000028
 21
6.8999999999999773
 31
0.0
  0
LINE
  5
429
100
AcDbEntity
  8
0
  6
CONTINUOUS
 62
               4
100
AcDbLine
 10
4.0000000000000284
 20
-1.8000000000000114
 30
0.0
 11
4.0000000000000568
 21
-2.6000000000000227
 31
0.0
  0
LINE
  5
42A
100
AcDbEntity
  8
0
  6
CONTINUOUS
 62
               4
100
AcDbLine
 10
0.0000000000000284
 20
-2.5999999999999943
 30
0.0
 11
4.0000000000000568
 21
-2.6000000000000227
 31
0.0
  0
LINE
  5
42B
100
AcDbEntity
  8
0
  6
CONTINUOUS
 62
               4
100
AcDbLine
 10
0.0000000000000568
 20
-1.8000000000000114
 30
0.0
 11
4.2700000000000102
 21
-1.8000000000000114
 31
0.0
  0
LINE
  5
42C
100
AcDbEntity
  8
0
  6
CONTINUOUS
 62
               4
100
AcDbLine
 10
16.100000000000051
 20
6.8999999999999773
 30
0.0
 11
16.100000000000023
 21
0.0
 31
0.0
  0
LINE
  5
42D
100
AcDbEntity
  8
0
  6
CENTER
 62
             200
100
AcDbLine
 10
2.0000000000000568
 20
0.7300000000000182
 30
0.0
 11
2.0
 21
-5.1700000000000159
 31
0.0
  0
LINE
  5
42E
100
AcDbEntity
  8
0
  6
CONTINUOUS
 62
               4
100
AcDbLine
 10
4.7000000000000171
 20
-2.9800000000000182
 30
0.0
 11
4.7000000000000171
 21
-4.6000000000000227
 31
0.0
  0
LINE
  5
42F
100
AcDbEntity
  8
0
  6
CONTINUOUS
 62
               4
100
AcDbLine
 10
0.0000000000000284
 20
-2.5999999999999943
 30
0.0
 11
0.0
 21
0.0
 31
0.0
  0
LINE
  5
430
100
AcDbEntity
  8
0
  6
CONTINUOUS
 62
               4
100
AcDbLine
 10
22.000000000000028
 20
6.8999999999999773
 30
0.0
 11
22.000000000000028
 21
-4.6000000000000227
 31
0.0
  0
LINE
  5
431
100
AcDbEntity
  8
0
  6
CONTINUOUS
 62
               4
100
AcDbLine
 10
4.7000000000000171
 20
-4.6000000000000227
 30
0.0
 11
22.000000000000028
 21
-4.6000000000000227
 31
0.0
  0
LINE
  5
432
100
AcDbEntity
  8
0
  6
CONTINUOUS
 62
               4
100
AcDbLine
 10
0.0
 20
0.0
 30
0.0
 11
16.100000000000023
 21
0.0
 31
0.0
  0
ENDBLK
  5
433
100
AcDbEntity
  8
0
100
AcDbBlockEnd
  0
BLOCK
  5
46C
100
AcDbEntity
  8
0
  6
ByBlock
 62
               0
100
AcDbBlockBegin
  2
_OPEN30
 70
               2
 10
0.0
 20
0.0
 30
0.0
  3
_OPEN30
  1

  0
LINE
  5
46D
100
AcDbEntity
  8
0
  6
ByBlock
 62
               0
100
AcDbLine
 10
-1.0
 20
0.267949
 30
0.0
 11
0.0
 21
0.0
 31
0.0
  0
LINE
  5
46E
100
AcDbEntity
  8
0
  6
ByBlock
 62
               0
100
AcDbLine
 10
0.0
 20
0.0
 30
0.0
 11
-1.0
 21
-0.267949
 31
0.0
  0
LINE
  5
46F
100
AcDbEntity
  8
0
  6
ByBlock
 62
               0
100
AcDbLine
 10
0.0
 20
0.0
 30
0.0
 11
-1.0
 21
0.0
 31
0.0
  0
ENDBLK
  5
470
100
AcDbEntity
  8
0
  6
ByBlock
 62
               0
100
AcDbBlockEnd
  0
ENDSEC
  0
SECTION
  2
ENTITIES
  0
INSERT
  5
434
100
AcDbEntity
  8
0
  6
ByBlock
100
AcDbBlockReference
  2
ZS6RS-1
 10
-58.638728323699354
 20
91.781480592520268
 30
0.0
  0
INSERT
  5
435
100
AcDbEntity
  8
0
  6
ByBlock
100
AcDbBlockReference
  2
ZS6RS-4
 10
-160.63872832369941
 20
91.781480592520268
 30
0.0
  0
INSERT
  5
436
100
AcDbEntity
  8
0
  6
ByBlock
100
AcDbBlockReference
  2
ZS6RS-5
 10
130.36127166330493
 20
91.781480592520268
 30
0.0
  0
INSERT
  5
437
100
AcDbEntity
  8
0
  6
ByBlock
100
AcDbBlockReference
  2
ZS6RS-6
 10
-58.638728323699354
 20
-22.218519407479718
 30
0.0
  0
INSERT
  5
438
100
AcDbEntity
  8
0
  6
ByBlock
100
AcDbBlockReference
  2
ZS6RS-7
 10
-58.638728323699354
 20
-107.21851940747973
 30
0.0
  0
INSERT
  5
439
100
AcDbEntity
  8
0
  6
ByBlock
100
AcDbBlockReference
  2
ZS6RS-8
 10
215.47807633471581
 20
-50.647329752673798
 30
0.0
  0
INSERT
  5
43A
100
AcDbEntity
  8
0
  6
ByBlock
100
AcDbBlockReference
  2
ZS6RS-9
 10
170.93535172534081
 20
-50.647329752673798
 30
0.0
  0
INSERT
  5
43B
100
AcDbEntity
  8
0
  6
ByBlock
100
AcDbBlockReference
  2
ZS6RS-10
 10
215.47807633471581
 20
-8.0973267009159855
 30
0.0
  0
INSERT
  5
43C
100
AcDbEntity
  8
0
  6
ByBlock
100
AcDbBlockReference
  2
ZS6RS-11
 10
213.97815323963277
 20
-154.34198413473331
 30
0.0
  0
INSERT
  5
43D
100
AcDbEntity
  8
0
  6
ByBlock
100
AcDbBlockReference
  2
ZS6RS-2
 10
170.93541337147573
 20
-154.3419688758631
 30
0.0
  0
INSERT
  5
43E
100
AcDbEntity
  8
0
  6
ByBlock
100
AcDbBlockReference
  2
ZS6RS-3
 10
213.97812272206167
 20
-106.74196277250272
 30
0.0
  0
MTEXT
  5
43F
100
AcDbEntity
  8
0
  6
CONTINUOUS
 62
               7
100
AcDbMText
 10
-268.29230779218625
 20
160.5
 30
0.0
 40
6.3000001907348633
 41
0.0
 71
               4
 72
               1
  1
\W1.055;\A1;MODEL:ZS6*50-RS2
  0
MTEXT
  5
440
100
AcDbEntity
  8
0
  6
CONTINUOUS
 62
               7
100
AcDbMText
 10
-245.29403745956643
 20
185.5
 30
0.0
 40
6.3000001907348633
 41
0.0
 71
               4
 72
               1
  1
\W1.101;\A1;Z SLIDER
  0
MTEXT
  5
441
100
AcDbEntity
  8
0
  6
CONTINUOUS
 62
               7
100
AcDbMText
 10
170.28101009431273
 20
-185.0
 30
0.0
 40
9.0
 41
0.0
 71
               4
 72
               1
  1
\W1.121;\A1;KOGANEI CORP.
  0
MTEXT
  5
442
100
AcDbEntity
  8
0
  6
CONTINUOUS
 62
               7
100
AcDbMText
 10
198.31570519064027
 20
185.5
 30
0.0
 40
6.3000001907348633
 41
0.0
 71
               4
 72
               1
  1
\W1.348;\A1;Ver. 1.1
  0
LINE
  5
443
100
AcDbEntity
  8
0
  6
CONTINUOUS
 62
               7
100
AcDbLine
 10
-161.25
 20
195.5
 30
0.0
 11
-161.25
 21
175.5
 31
0.0
  0
LINE
  5
444
100
AcDbEntity
  8
0
  6
CONTINUOUS
 62
               7
100
AcDbLine
 10
162.0999755859375
 20
195.5
 30
0.0
 11
162.0999755859375
 21
175.5
 31
0.0
  0
LINE
  5
445
100
AcDbEntity
  8
0
  6
CONTINUOUS
 62
               7
100
AcDbLine
 10
-281.25
 20
175.5
 30
0.0
 11
-161.25
 21
175.5
 31
0.0
  0
LINE
  5
446
100
AcDbEntity
  8
0
  6
CONTINUOUS
 62
               7
100
AcDbLine
 10
162.0999755859375
 20
175.5
 30
0.0
 11
282.099853515625
 21
175.5
 31
0.0
  0
LINE
  5
447
100
AcDbEntity
  8
0
  6
CONTINUOUS
 62
               7
100
AcDbLine
 10
162.0999755859375
 20
-175.0
 30
0.0
 11
282.099853515625
 21
-175.0
 31
0.0
  0
LINE
  5
448
100
AcDbEntity
  8
0
  6
CONTINUOUS
 62
               7
100
AcDbLine
 10
162.0999755859375
 20
-175.0
 30
0.0
 11
162.0999755859375
 21
-195.0
 31
0.0
  0
LINE
  5
449
100
AcDbEntity
  8
0
  6
CONTINUOUS
 62
               7
100
AcDbLine
 10
-281.25
 20
-195.0
 30
0.0
 11
282.099853515625
 21
-195.0
 31
0.0
  0
LINE
  5
44A
100
AcDbEntity
  8
0
  6
CONTINUOUS
 62
               7
100
AcDbLine
 10
-281.25
 20
195.5
 30
0.0
 11
-281.25
 21
-195.0
 31
0.0
  0
LINE
  5
44B
100
AcDbEntity
  8
0
  6
CONTINUOUS
 62
               7
100
AcDbLine
 10
-281.25
 20
195.5
 30
0.0
 11
282.099853515625
 21
195.5
 31
0.0
  0
LINE
  5
44C
100
AcDbEntity
  8
0
  6
CONTINUOUS
 62
               7
100
AcDbLine
 10
282.099853515625
 20
195.5
 30
0.0
 11
282.099853515625
 21
-195.0
 31
0.0
  0
MTEXT
  5
44D
100
AcDbEntity
  8
0
  6
CONTINUOUS
 62
               7
100
AcDbMText
 10
-95.431818172211749
 20
-186.00000002459743
 30
0.0
 40
4.5
 41
0.0
 71
               4
 72
               1
  1
\W1.091;\A1;20
  0
MTEXT
  5
44E
100
AcDbEntity
  8
0
  6
CONTINUOUS
 62
               7
100
AcDbMText
 10
-122.25000003311369
 20
-186.00000002459743
 30
0.0
 40
4.5
 41
0.0
 71
               4
 72
               1
  1
\W1.333;\A1;10
  0
MTEXT
  5
44F
100
AcDbEntity
  8
0
  6
CONTINUOUS
 62
               7
100
AcDbMText
 10
-147.09999999284742
 20
-186.00000002459743
 30
0.0
 40
4.5
 41
0.0
 71
               4
 72
               1
  1
\W1.200;\A1;0
  0
MTEXT
  5
450
100
AcDbEntity
  8
0
  6
CONTINUOUS
 62
               7
100
AcDbMText
 10
-178.60000003576278
 20
-186.00000002459743
 30
0.0
 40
4.5
 41
0.0
 71
               4
 72
               1
  1
\W1.200;\A1;-10
  0
MTEXT
  5
451
100
AcDbEntity
  8
0
  6
CONTINUOUS
 62
               7
100
AcDbMText
 10
-205.70588234180306
 20
-186.00000002459743
 30
0.0
 40
4.5
 41
0.0
 71
               4
 72
               1
  1
\W1.059;\A1;-20
  0
MTEXT
  5
452
100
AcDbEntity
  8
0
  6
CONTINUOUS
 62
               7
100
AcDbMText
 10
-232.70588234180306
 20
-186.00000002459743
 30
0.0
 40
4.5
 41
0.0
 71
               4
 72
               1
  1
\W1.059;\A1;-30
  0
MTEXT
  5
453
100
AcDbEntity
  8
0
  6
CONTINUOUS
 62
               1
100
AcDbMText
 10
-124.52894755816274
 20
-177.99999997540252
 30
0.0
 40
4.5
 41
0.0
 71
               4
 72
               1
  1
\W1.263;\A1;(60)
  0
MTEXT
  5
454
100
AcDbEntity
  8
0
  6
CONTINUOUS
 62
               7
100
AcDbMText
 10
-273.25
 20
-186.00000002459743
 30
0.0
 40
4.5
 41
0.0
 71
               4
 72
               1
  1
\A1;STRETCH
  0
MTEXT
  5
455
100
AcDbEntity
  8
0
  6
CONTINUOUS
 62
               7
100
AcDbMText
 10
-271.0
 20
-178.00000002459743
 30
0.0
 40
4.5
 41
0.0
 71
               4
 72
               1
  1
\A1;STROKE
  0
MTEXT
  5
456
100
AcDbEntity
  8
0
  6
CONTINUOUS
 62
               1
100
AcDbMText
 10
-97.528947558162741
 20
-177.99999998770124
 30
0.0
 40
4.5
 41
0.0
 71
               4
 72
               1
  1
\W1.263;\A1;(70)
  0
MTEXT
  5
457
100
AcDbEntity
  8
0
  6
CONTINUOUS
 62
               1
100
AcDbMText
 10
-151.52894755816271
 20
-178.00000002459743
 30
0.0
 40
4.5
 41
0.0
 71
               4
 72
               1
  1
\W1.263;\A1;(50)
  0
MTEXT
  5
458
100
AcDbEntity
  8
0
  6
CONTINUOUS
 62
               1
100
AcDbMText
 10
-176.43181817221173
 20
-178.0000000122987
 30
0.0
 40
4.5
 41
0.0
 71
               4
 72
               1
  1
\W1.091;\A1;40
  0
MTEXT
  5
459
100
AcDbEntity
  8
0
  6
CONTINUOUS
 62
               7
100
AcDbMText
 10
-273.25
 20
-186.00000002459743
 30
0.0
 40
4.5
 41
0.0
 71
               4
 72
               1
  1
\A1;STRETCH
  0
MTEXT
  5
45A
100
AcDbEntity
  8
0
  6
CONTINUOUS
 62
               7
100
AcDbMText
 10
-203.43181817221173
 20
-178.00000002459743
 30
0.0
 40
4.5
 41
0.0
 71
               4
 72
               1
  1
\W1.091;\A1;30
  0
MTEXT
  5
45B
100
AcDbEntity
  8
0
  6
CONTINUOUS
 62
               7
100
AcDbMText
 10
-230.43181817221173
 20
-178.00000002459743
 30
0.0
 40
4.5
 41
0.0
 71
               4
 72
               1
  1
\W1.091;\A1;20
  0
MTEXT
  5
45C
100
AcDbEntity
  8
0
  6
CONTINUOUS
 62
               7
100
AcDbMText
 10
-271.0
 20
-178.00000002459743
 30
0.0
 40
4.5
 41
0.0
 71
               4
 72
               1
  1
\A1;STROKE
  0
LINE
  5
45D
100
AcDbEntity
  8
0
  6
CONTINUOUS
 62
               7
100
AcDbLine
 10
-78.25
 20
-190.00000002459743
 30
0.0
 11
-78.25
 21
-174.0
 31
0.0
  0
LINE
  5
45E
100
AcDbEntity
  8
0
  6
CONTINUOUS
 62
               7
100
AcDbLine
 10
-105.25
 20
-190.00000002459743
 30
0.0
 11
-105.25
 21
-174.0
 31
0.0
  0
LINE
  5
45F
100
AcDbEntity
  8
0
  6
CONTINUOUS
 62
               7
100
AcDbLine
 10
-132.25
 20
-190.00000002459743
 30
0.0
 11
-132.25
 21
-174.0
 31
0.0
  0
LINE
  5
460
100
AcDbEntity
  8
0
  6
CONTINUOUS
 62
               7
100
AcDbLine
 10
-159.25
 20
-190.00000002459743
 30
0.0
 11
-159.25
 21
-174.0
 31
0.0
  0
LINE
  5
461
100
AcDbEntity
  8
0
  6
CONTINUOUS
 62
               7
100
AcDbLine
 10
-186.25
 20
-190.00000002459743
 30
0.0
 11
-186.25
 21
-174.0
 31
0.0
  0
LINE
  5
462
100
AcDbEntity
  8
0
  6
CONTINUOUS
 62
               7
100
AcDbLine
 10
-213.25
 20
-190.00000002459743
 30
0.0
 11
-213.25
 21
-174.0
 31
0.0
  0
LINE
  5
463
100
AcDbEntity
  8
0
  6
CONTINUOUS
 62
               7
100
AcDbLine
 10
-240.25
 20
-190.00000002459743
 30
0.0
 11
-240.25
 21
-174.0
 31
0.0
  0
LINE
  5
464
100
AcDbEntity
  8
0
  6
CONTINUOUS
 62
               7
100
AcDbLine
 10
-276.25
 20
-190.00000002459743
 30
0.0
 11
-276.25
 21
-174.0
 31
0.0
  0
LINE
  5
465
100
AcDbEntity
  8
0
  6
CONTINUOUS
 62
               7
100
AcDbLine
 10
-276.25
 20
-174.00000002459743
 30
0.0
 11
-78.25
 21
-174.00000002459743
 31
0.0
  0
LINE
  5
466
100
AcDbEntity
  8
0
  6
CONTINUOUS
 62
               7
100
AcDbLine
 10
-276.25
 20
-190.00000002459743
 30
0.0
 11
-78.25
 21
-190.00000002459743
 31
0.0
  0
MTEXT
  5
467
100
AcDbEntity
  8
0
  6
CONTINUOUS
 62
               7
100
AcDbMText
 10
-203.4511834411183
 20
-169.40536178445137
 30
0.0
 40
4.5
 41
0.0
 71
               4
 72
               1
  1
\W1.065;\A1;STRETCH LIST
  0
MTEXT
  5
468
100
AcDbEntity
  8
0
  6
CONTINUOUS
 62
               7
100
AcDbMText
 10
-94.190000194549555
 20
-168.46697330588674
 30
0.0
 40
4.5
 41
0.0
 71
               4
 72
               1
  1
\W1.200;\A1;(mm)
  0
LINE
  5
469
100
AcDbEntity
  8
0
  6
CONTINUOUS
 62
               7
100
AcDbLine
 10
-276.25
 20
-182.00000002459743
 30
0.0
 11
-78.25
 21
-182.00000002459743
 31
0.0
  0
MTEXT
  5
46A
100
AcDbEntity
  8
0
  6
CONTINUOUS
 62
               2
100
AcDbMText
 10
-48.236614262535802
 20
-71.562269645898297
 30
0.0
 40
4.5
 41
0.0
 71
               4
 72
               1
  1
\W1.245;\A1;ST:50,60,70
  0
LEADER
  5
471
100
AcDbEntity
  8
0
  6
CONTINUOUS
 62
               2
100
AcDbLeader
  3
MXDIMSTYLE
 73
               3
 74
               0
 75
               0
 40
0.0
 76
               3
 10
15.361271676300703
 20
-98.986468599910864
 30
0.0
 10
2.2161900811547639
 20
-76.218519407479718
 30
0.0
 10
-48.236614245856344
 20
-76.218519407479718
 30
0.0
 77
               2
1001
ACAD
1000
DSTYLE
1002
{
1070
               6
1000
_OPEN30
1070
               7
1000
_OPEN30
1070
              41
1040
2.77
1070
             173
1070
               1
1070
             341
1005
46B
1002
}
  0
MTEXT
  5
472
100
AcDbEntity
  8
0
  6
CONTINUOUS
 62
               2
100
AcDbMText
 10
-50.580816922217998
 20
132.43773035410169
 30
0.0
 40
4.5
 41
0.0
 71
               4
 72
               1
  1
\W1.245;\A1;ST:50,60,70
  0
LEADER
  5
473
100
AcDbEntity
  8
0
  6
CONTINUOUS
 62
               2
100
AcDbLeader
  3
MXDIMSTYLE
 73
               3
 74
               0
 75
               0
 40
0.0
 76
               3
 10
15.51127167630068
 20
99.753723778953812
 30
0.0
 10
-0.6705612647933776
 20
127.78148059252027
 30
0.0
 10
-50.580816905538541
 20
127.78148059252027
 30
0.0
 77
               2
1001
ACAD
1000
DSTYLE
1002
{
1070
               6
1000
_OPEN30
1070
               7
1000
_OPEN30
1070
              41
1040
2.77
1070
             173
1070
               1
1070
             341
1005
46B
1002
}
  0
MTEXT
  5
474
100
AcDbEntity
  8
0
  6
CONTINUOUS
 62
               3
100
AcDbMText
 10
-4.8399117648176135
 20
142.7814805925203
 30
0.0
 40
4.5
 41
0.0
 71
               4
 72
               1
  1
\W1.065;\A1;STRETCH LINE
  0
LINE
  5
475
100
AcDbEntity
  8
0
  6
CONTINUOUS
 62
               7
100
AcDbLine
 10
122.099853515625
 20
25.0
 30
0.0
 11
282.099853515625
 21
25.0
 31
0.0
  0
LINE
  5
476
100
AcDbEntity
  8
0
  6
CONTINUOUS
 62
               7
100
AcDbLine
 10
122.099853515625
 20
-75.0
 30
0.0
 11
282.099853515625
 21
-75.0
 31
0.0
  0
MTEXT
  5
477
100
AcDbEntity
  8
0
  6
CONTINUOUS
 62
               7
100
AcDbMText
 10
125.7052254392147
 20
-80.0
 30
0.0
 40
4.5
 41
0.0
 71
               4
 72
               1
  1
\W1.140;\A1;MODEL:ZE235,255,202,201
  0
MTEXT
  5
478
100
AcDbEntity
  8
0
  6
CONTINUOUS
 62
               7
100
AcDbMText
 10
125.76578268761037
 20
20.0
 30
0.0
 40
4.5
 41
0.0
 71
               4
 72
               1
  1
\W1.221;\A1;MODEL:ZE135,155,102,101
  0
LINE
  5
479
100
AcDbEntity
  8
0
  6
CONTINUOUS
 62
               7
100
AcDbLine
 10
122.099853515625
 20
-195.0
 30
0.0
 11
122.099853515625
 21
25.0
 31
0.0
  0
ENDSEC
  0
SECTION
  2
OBJECTS
  0
DICTIONARY
  5
19
100
AcDbDictionary
  3
ACAD_GROUP
350
1A
  3
ACAD_MLINESTYLE
350
1B
  0
DICTIONARY
  5
1A
102
{ACAD_REACTORS
330
19
102
}
100
AcDbDictionary
  0
DICTIONARY
  5
1B
102
{ACAD_REACTORS
330
19
102
}
100
AcDbDictionary
  3
STANDARD
350
1C
  0
MLINESTYLE
  5
1C
102
{ACAD_REACTORS
330
1B
102
}
100
AcDbMlineStyle
  2
Standard
 70
               0
  3

 62
               0
 51
90.0
 52
90.0
 71
               2
 49
0.5
 62
             256
  6
ByLayer
 49
-0.5
 62
             256
  6
ByLayer
  0
ENDSEC
  0
EOF
