  0
SECTION
  2
HEADER
  9
$ACADVER
  1
AC1012
  9
$DWGCODEPAGE
  3
dos932
  9
$INSBASE
 10
0.0
 20
0.0
 30
0.0
  9
$EXTMIN
 10
-399.52490234375
 20
-276.5
 30
0.0
  9
$EXTMAX
 10
403.05696657587475
 20
276.5
 30
0.0
  9
$LIMMIN
 10
-399.52490234375
 20
-276.5
  9
$LIMMAX
 10
403.05696657587475
 20
276.5
  9
$ORTHOMODE
 70
               0
  9
$REGENMODE
 70
               1
  9
$FILLMODE
 70
               1
  9
$QTEXTMODE
 70
               0
  9
$MIRRTEXT
 70
               1
  9
$DRAGMODE
 70
               2
  9
$LTSCALE
 40
1.0
  9
$OSMODE
 70
               0
  9
$ATTMODE
 70
               1
  9
$TEXTSIZE
 40
3.2000000476837158
  9
$TRACEWID
 40
0.05
  9
$TEXTSTYLE
  7
MX_NOTE_STANDARD
  9
$CLAYER
  8
0
  9
$CELTYPE
  6
CONTINUOUS
  9
$CECOLOR
 62
             256
  9
$CELTSCALE
 40
1.0
  9
$DELOBJ
 70
               1
  9
$DISPSILH
 70
               0
  9
$DIMSCALE
 40
1.0
  9
$DIMASZ
 40
2.5
  9
$DIMEXO
 40
1.5
  9
$DIMDLI
 40
3.75
  9
$DIMRND
 40
0.0
  9
$DIMDLE
 40
0.0
  9
$DIMEXE
 40
1.5
  9
$DIMTP
 40
0.0
  9
$DIMTM
 40
0.0
  9
$DIMTXT
 40
3.2000000476837158
  9
$DIMCEN
 40
2.5
  9
$DIMTSZ
 40
0.0
  9
$DIMTOL
 70
               0
  9
$DIMLIM
 70
               0
  9
$DIMTIH
 70
               0
  9
$DIMTOH
 70
               0
  9
$DIMSE1
 70
               0
  9
$DIMSE2
 70
               0
  9
$DIMTAD
 70
               1
  9
$DIMZIN
 70
               8
  9
$DIMBLK
  1

  9
$DIMASO
 70
               1
  9
$DIMSHO
 70
               1
  9
$DIMPOST
  1

  9
$DIMAPOST
  1

  9
$DIMALT
 70
               0
  9
$DIMALTD
 70
               4
  9
$DIMALTF
 40
0.03937007874016
  9
$DIMLFAC
 40
1.0
  9
$DIMTOFL
 70
               1
  9
$DIMTVP
 40
0.0
  9
$DIMTIX
 70
               0
  9
$DIMSOXD
 70
               0
  9
$DIMSAH
 70
               0
  9
$DIMBLK1
  1

  9
$DIMBLK2
  1

  9
$DIMSTYLE
  2
MXDIMSTYLE
  9
$DIMCLRD
 70
               0
  9
$DIMCLRE
 70
               0
  9
$DIMCLRT
 70
               0
  9
$DIMTFAC
 40
1.0
  9
$DIMGAP
 40
1.0
  9
$DIMJUST
 70
               0
  9
$DIMSD1
 70
               0
  9
$DIMSD2
 70
               0
  9
$DIMTOLJ
 70
               1
  9
$DIMTZIN
 70
               0
  9
$DIMALTZ
 70
               0
  9
$DIMALTTZ
 70
               0
  9
$DIMFIT
 70
               3
  9
$DIMUPT
 70
               1
  9
$DIMUNIT
 70
               2
  9
$DIMDEC
 70
               4
  9
$DIMTDEC
 70
               4
  9
$DIMALTU
 70
               2
  9
$DIMALTTD
 70
               4
  9
$DIMTXSTY
  7
MX_NOTE_STANDARD
  9
$DIMAUNIT
 70
               0
  9
$LUNITS
 70
               2
  9
$LUPREC
 70
               4
  9
$SKETCHINC
 40
0.1
  9
$FILLETRAD
 40
0.0
  9
$AUNITS
 70
               0
  9
$AUPREC
 70
               0
  9
$MENU
  1
acad
  9
$ELEVATION
 40
0.0
  9
$PELEVATION
 40
0.0
  9
$THICKNESS
 40
0.0
  9
$LIMCHECK
 70
               0
  9
$BLIPMODE
 70
               1
  9
$CHAMFERA
 40
0.0
  9
$CHAMFERB
 40
0.0
  9
$CHAMFERC
 40
0.0
  9
$CHAMFERD
 40
0.0
  9
$SKPOLY
 70
               0
  9
$TDCREATE
 40
2453378.356875000
  9
$TDUPDATE
 40
2453378.356875000
  9
$TDINDWG
 40
0.0000000000
  9
$TDUSRTIMER
 40
0.0000000000
  9
$USRTIMER
 70
               1
  9
$ANGBASE
 50
0.0
  9
$ANGDIR
 70
               0
  9
$PDMODE
 70
               0
  9
$PDSIZE
 40
0.0
  9
$PLINEWID
 40
0.0
  9
$COORDS
 70
               1
  9
$SPLFRAME
 70
               0
  9
$SPLINETYPE
 70
               6
  9
$SPLINESEGS
 70
               8
  9
$ATTDIA
 70
               0
  9
$ATTREQ
 70
               1
  9
$HANDLING
 70
               1
  9
$HANDSEED
  5
493
  9
$SURFTAB1
 70
               6
  9
$SURFTAB2
 70
               6
  9
$SURFTYPE
 70
               6
  9
$SURFU
 70
               6
  9
$SURFV
 70
               6
  9
$UCSNAME
  2

  9
$UCSORG
 10
0.0
 20
0.0
 30
0.0
  9
$UCSXDIR
 10
1.0
 20
0.0
 30
0.0
  9
$UCSYDIR
 10
0.0
 20
1.0
 30
0.0
  9
$PUCSNAME
  2

  9
$PUCSORG
 10
0.0
 20
0.0
 30
0.0
  9
$PUCSXDIR
 10
1.0
 20
0.0
 30
0.0
  9
$PUCSYDIR
 10
0.0
 20
1.0
 30
0.0
  9
$USERI1
 70
               0
  9
$USERI2
 70
               0
  9
$USERI3
 70
               0
  9
$USERI4
 70
               0
  9
$USERI5
 70
               0
  9
$USERR1
 40
0.0
  9
$USERR2
 40
0.0
  9
$USERR3
 40
0.0
  9
$USERR4
 40
0.0
  9
$USERR5
 40
0.0
  9
$WORLDVIEW
 70
               1
  9
$SHADEDGE
 70
               3
  9
$SHADEDIF
 70
              70
  9
$TILEMODE
 70
               1
  9
$MAXACTVP
 70
              16
  9
$PINSBASE
 10
0.0
 20
0.0
 30
0.0
  9
$PLIMCHECK
 70
               0
  9
$PEXTMIN
 10
1.0000000000000000E+20
 20
1.0000000000000000E+20
 30
1.0000000000000000E+20
  9
$PEXTMAX
 10
-1.0000000000000000E+20
 20
-1.0000000000000000E+20
 30
-1.0000000000000000E+20
  9
$PLIMMIN
 10
0.0
 20
0.0
  9
$PLIMMAX
 10
12.0
 20
9.0
  9
$UNITMODE
 70
               0
  9
$VISRETAIN
 70
               0
  9
$PLINEGEN
 70
               1
  9
$PSLTSCALE
 70
               0
  9
$TREEDEPTH
 70
            3020
  9
$PICKSTYLE
 70
               1
  9
$CMLSTYLE
  2
Standard
  9
$CMLJUST
 70
               0
  9
$CMLSCALE
 40
1.0
  9
$SAVEIMAGES
 70
               0
  0
ENDSEC
  0
SECTION
  2
CLASSES
  0
CLASS
  1
LWPOLYLINE
  2
AcDbPolyline
  3
"AutoCAD"
 90
        0
280
               0
281
               1
  0
CLASS
  1
IMAGE
  2
AcDbRasterImage
  3
ISM
 90
      127
280
               0
281
               1
  0
CLASS
  1
OLE2FRAME
  2
AcDbOle2Frame
  3
""
 90
        0
280
               0
281
               1
  0
CLASS
  1
HATCH
  2
AcDbHatch
  3
"ACAD_SEDONA"
 90
        0
280
               0
281
               1
  0
CLASS
  1
DICTIONARYVAR
  2
AcDbDictionaryVar
  3
"AutoCAD"
 90
        0
280
               0
281
               0
  0
CLASS
  1
RASTERVARIABLES
  2
AcDbRasterVariables
  3
ISM
 90
        0
280
               0
281
               0
  0
CLASS
  1
IMAGEDEF
  2
AcDbRasterImageDef
  3
ISM
 90
        0
280
               0
281
               0
  0
CLASS
  1
IMAGEDEF_REACTOR
  2
AcDbRasterImageDefReactor
  3
ISM
 90
        1
280
               0
281
               0
  0
CLASS
  1
IDBUFFER
  2
AcDbIdBuffer
  3
"Acad"
 90
        0
280
               0
281
               0
  0
CLASS
  1
SPATIAL_FILTER
  2
AcDbSpatialFilter
  3
"Acad"
 90
        0
280
               0
281
               0
  0
CLASS
  1
XRECORD
  2
AcDbXrecord
  3
"<Built In>"
 90
        0
280
               0
281
               0
  0
CLASS
  1
SORTENTSTABLE
  2
AcDbSortentsTable
  3
"AutoCAD"
 90
        0
280
               0
281
               0
  0
CLASS
  1
LAYER_INDEX
  2
AcDbLayerIndex
  3
"Acad"
 90
        0
280
               0
281
               0
  0
CLASS
  1
SPATIAL_INDEX
  2
AcDbSpatialIndex
  3
"Acad"
 90
        0
280
               0
281
               0
  0
CLASS
  1
OBJECT_PTR
  2
CAseDLPNTableRecord
  3
"ASE-LPNTableRecord"
 90
        1
280
               0
281
               0
  0
CLASS
  1
LAYOUT
  2
AcDbLayout
  3
"AutoCAD 2000"
 90
        1
280
               0
281
               0
  0
CLASS
  1
PLOTSETTINGS
  2
AcDbPlotSettings
  3
"AutoCAD 2000"
 90
        1
280
               0
281
               0
  0
CLASS
  1
ACDBDICTIONARYWDFLT
  2
AcDbDictionaryWithDefault
  3
"AutoCAD 2000"
 90
        1
280
               0
281
               0
  0
CLASS
  1
ACDBPLACEHOLDER
  2
AcDbPlaceHolder
  3
"AutoCAD 2000"
 90
        1
280
               0
281
               0
  0
ENDSEC
  0
SECTION
  2
TABLES
  0
TABLE
  2
VPORT
  5
7
100
AcDbSymbolTable
 70
               1
  0
VPORT
  5
15
100
AcDbSymbolTableRecord
100
AcDbViewportTableRecord
  2
*ACTIVE
 70
               0
 10
0.0
 20
0.0
 11
1.0
 21
1.0
 12
1.7660321160623766
 22
0.0
 13
0.0
 23
0.0
 14
1.0
 24
1.0
 15
0.0
 25
0.0
 16
0.0
 26
0.0
 36
1.0
 17
0.0
 27
0.0
 37
0.0
 40
558.52999999999997
 41
1.7320508075688772
 42
50.0
 43
0.0
 44
0.0
 50
0.0
 51
0.0
 71
               0
 72
             100
 73
               1
 74
               1
 75
               0
 76
               0
 77
               0
 78
               0
  0
ENDTAB
  0
TABLE
  2
LTYPE
  5
4
100
AcDbSymbolTable
 70
               5
  0
LTYPE
  5
11
100
AcDbSymbolTableRecord
100
AcDbLinetypeTableRecord
  2
BYBLOCK
 70
              64
  3

 72
              65
 73
               0
 40
0.0
  0
LTYPE
  5
12
100
AcDbSymbolTableRecord
100
AcDbLinetypeTableRecord
  2
BYLAYER
 70
              64
  3

 72
              65
 73
               0
 40
0.0
  0
LTYPE
  5
13
100
AcDbSymbolTableRecord
100
AcDbLinetypeTableRecord
  2
CONTINUOUS
 70
              64
  3
Solid line
 72
              65
 73
               0
 40
0.0
  0
LTYPE
  5
35
100
AcDbSymbolTableRecord
100
AcDbLinetypeTableRecord
  2
CENTER
 70
              64
  3
Center ____ _ ____ _ ____ _ ____ _ ____ _ ____
 72
              65
 73
               4
 40
26.0
 49
20.0
 74
               0
 49
-2.0
 74
               0
 49
2.0
 74
               0
 49
-2.0
 74
               0
  0
LTYPE
  5
75
100
AcDbSymbolTableRecord
100
AcDbLinetypeTableRecord
  2
PHANTOM
 70
              64
  3
Phantom ______  __  __  ______  __  __  ______
 72
              65
 73
               6
 40
30.0
 49
20.0
 74
               0
 49
-2.0
 74
               0
 49
2.0
 74
               0
 49
-2.0
 74
               0
 49
2.0
 74
               0
 49
-2.0
 74
               0
  0
ENDTAB
  0
TABLE
  2
LAYER
  5
2
100
AcDbSymbolTable
 70
               2
  0
LAYER
  5
14
100
AcDbSymbolTableRecord
100
AcDbLayerTableRecord
  2
0
 70
               0
 62
               7
  6
CONTINUOUS
  0
LAYER
  5
1D
100
AcDbSymbolTableRecord
100
AcDbLayerTableRecord
  2
DEFPOINTS
 70
               0
 62
               7
  6
CONTINUOUS
  0
ENDTAB
  0
TABLE
  2
STYLE
  5
3
100
AcDbSymbolTable
 70
               1
  0
STYLE
  5
17
100
AcDbSymbolTableRecord
100
AcDbTextStyleTableRecord
  2
MX_NOTE_STANDARD
 70
               0
 40
0.0
 41
1.0
 50
0.0
 71
               0
 42
3.2000000476837158
  3
txt.shx
  4
extfont.shx
  0
ENDTAB
  0
TABLE
  2
VIEW
  5
5
100
AcDbSymbolTable
 70
               0
  0
ENDTAB
  0
TABLE
  2
UCS
  5
6
100
AcDbSymbolTable
 70
               0
  0
ENDTAB
  0
TABLE
  2
APPID
  5
8
100
AcDbSymbolTable
 70
               1
  0
APPID
  5
16
100
AcDbSymbolTableRecord
100
AcDbRegAppTableRecord
  2
ACAD
 70
               0
  0
ENDTAB
  0
TABLE
  2
DIMSTYLE
  5
9
100
AcDbSymbolTable
 70
               1
  0
DIMSTYLE
105
18
100
AcDbSymbolTableRecord
100
AcDbDimStyleTableRecord
  2
MXDIMSTYLE
 70
               0
  3

  4

  5

  6

  7

 40
1.0
 41
2.5
 42
1.5
 43
3.75
 44
1.5
 45
0.0
 46
0.0
 47
0.0
 48
0.0
 71
               0
 72
               0
 73
               0
 74
               0
 75
               0
 76
               0
 77
               1
 78
               8
140
3.2000000476837158
141
2.5
142
0.0
143
0.03937007874016
144
1.0
145
0.0
146
1.0
147
1.0
170
               0
171
               4
172
               1
173
               0
174
               0
175
               0
176
               0
177
               0
178
               0
270
               2
271
               4
272
               4
273
               2
274
               4
275
               0
280
               0
281
               0
282
               0
283
               1
284
               0
285
               0
286
               0
287
               3
288
               1
340
17
  0
ENDTAB
  0
TABLE
  2
BLOCK_RECORD
  5
1
100
AcDbSymbolTable
 70
              12
  0
BLOCK_RECORD
  5
A
100
AcDbSymbolTableRecord
100
AcDbBlockTableRecord
  2
*MODEL_SPACE
  0
BLOCK_RECORD
  5
B
100
AcDbSymbolTableRecord
100
AcDbBlockTableRecord
  2
*PAPER_SPACE
  0
BLOCK_RECORD
  5
1E
100
AcDbSymbolTableRecord
100
AcDbBlockTableRecord
  2
ZS25SS-1
  0
BLOCK_RECORD
  5
1F
100
AcDbSymbolTableRecord
100
AcDbBlockTableRecord
  2
ZS25SS-2
  0
BLOCK_RECORD
  5
20
100
AcDbSymbolTableRecord
100
AcDbBlockTableRecord
  2
ZS25SS-3
  0
BLOCK_RECORD
  5
21
100
AcDbSymbolTableRecord
100
AcDbBlockTableRecord
  2
ZS25SS-4
  0
BLOCK_RECORD
  5
22
100
AcDbSymbolTableRecord
100
AcDbBlockTableRecord
  2
ZS25SS-5
  0
BLOCK_RECORD
  5
23
100
AcDbSymbolTableRecord
100
AcDbBlockTableRecord
  2
ZS25SS-6
  0
BLOCK_RECORD
  5
24
100
AcDbSymbolTableRecord
100
AcDbBlockTableRecord
  2
ZS25SS-7
  0
BLOCK_RECORD
  5
25
100
AcDbSymbolTableRecord
100
AcDbBlockTableRecord
  2
ZS25SS-8
  0
BLOCK_RECORD
  5
26
100
AcDbSymbolTableRecord
100
AcDbBlockTableRecord
  2
ZS25SS-9
  0
BLOCK_RECORD
  5
27
100
AcDbSymbolTableRecord
100
AcDbBlockTableRecord
  2
ZS25SS-10
  0
BLOCK_RECORD
  5
28
100
AcDbSymbolTableRecord
100
AcDbBlockTableRecord
  2
ZS25SS-11
  0
BLOCK_RECORD
  5
45E
100
AcDbSymbolTableRecord
100
AcDbBlockTableRecord
  2
_OPEN30
  0
ENDTAB
  0
ENDSEC
  0
SECTION
  2
BLOCKS
  0
BLOCK
  5
D
100
AcDbEntity
  8
0
100
AcDbBlockBegin
  2
*MODEL_SPACE
 70
               0
 10
0.0
 20
0.0
 30
0.0
  3
*MODEL_SPACE
  1

  0
ENDBLK
  5
E
100
AcDbEntity
  8
0
100
AcDbBlockEnd
  0
BLOCK
  5
F
100
AcDbEntity
 67
               1
  8
0
100
AcDbBlockBegin
  2
*PAPER_SPACE
 70
               0
 10
0.0
 20
0.0
 30
0.0
  3
*PAPER_SPACE
  1

  0
ENDBLK
  5
10
100
AcDbEntity
 67
               1
  8
0
100
AcDbBlockEnd
  0
BLOCK
  5
29
100
AcDbEntity
  8
0
100
AcDbBlockBegin
  2
ZS25SS-1
 70
               0
 10
0.0
 20
0.0
 30
0.0
  3
ZS25SS-1
  1

  0
LINE
  5
2A
100
AcDbEntity
  8
0
  6
CONTINUOUS
 62
               4
100
AcDbLine
 10
245.72168783648704
 20
-4.0
 30
0.0
 11
246.0
 21
-3.5179491924311321
 31
0.0
  0
LINE
  5
2B
100
AcDbEntity
  8
0
  6
CONTINUOUS
 62
               4
100
AcDbLine
 10
245.72168783648704
 20
4.0
 30
0.0
 11
246.0
 21
3.5179491924311321
 31
0.0
  0
LINE
  5
2C
100
AcDbEntity
  8
0
  6
CONTINUOUS
 62
               4
100
AcDbLine
 10
246.0
 20
3.5179491924311321
 30
0.0
 11
246.0
 21
-3.5179491924311321
 31
0.0
  0
LINE
  5
2D
100
AcDbEntity
  8
0
  6
CONTINUOUS
 62
               4
100
AcDbLine
 10
203.0
 20
-22.0
 30
0.0
 11
206.0
 21
-22.0
 31
0.0
  0
LINE
  5
2E
100
AcDbEntity
  8
0
  6
CONTINUOUS
 62
               4
100
AcDbLine
 10
203.0
 20
22.0
 30
0.0
 11
225.0
 21
22.0
 31
0.0
  0
LINE
  5
2F
100
AcDbEntity
  8
0
  6
CONTINUOUS
 62
               7
100
AcDbLine
 10
105.0
 20
-56.5
 30
0.0
 11
105.0
 21
-57.500000000000028
 31
0.0
  0
LINE
  5
30
100
AcDbEntity
  8
0
  6
CONTINUOUS
 62
               7
100
AcDbLine
 10
92.0
 20
-56.5
 30
0.0
 11
92.0
 21
-57.500000000000028
 31
0.0
  0
LINE
  5
31
100
AcDbEntity
  8
0
  6
CONTINUOUS
 62
               7
100
AcDbLine
 10
203.0
 20
-56.000000000000014
 30
0.0
 11
105.0
 21
-56.000000000000014
 31
0.0
  0
LINE
  5
32
100
AcDbEntity
  8
0
  6
CONTINUOUS
 62
               7
100
AcDbLine
 10
104.99999998319345
 20
-57.500000000000028
 30
0.0
 11
92.0
 21
-57.500000000000028
 31
0.0
  0
LINE
  5
33
100
AcDbEntity
  8
0
  6
CONTINUOUS
 62
               4
100
AcDbLine
 10
92.0
 20
-23.5
 30
0.0
 11
92.0
 21
-56.5
 31
0.0
  0
LINE
  5
34
100
AcDbEntity
  8
0
  6
CONTINUOUS
 62
               4
100
AcDbLine
 10
105.0
 20
-23.5
 30
0.0
 11
105.0
 21
-56.5
 31
0.0
  0
LINE
  5
36
100
AcDbEntity
  8
0
  6
CENTER
 62
               2
100
AcDbLine
 10
194.5
 20
-15.0
 30
0.0
 11
183.5
 21
-15.0
 31
0.0
  0
CIRCLE
  5
37
100
AcDbEntity
  8
0
  6
CONTINUOUS
 62
               7
100
AcDbCircle
 10
189.0
 20
-15.0
 30
0.0
 40
3.2999999999999998
  0
LINE
  5
38
100
AcDbEntity
  8
0
  6
CENTER
 62
               2
100
AcDbLine
 10
189.0
 20
-20.5
 30
0.0
 11
189.0
 21
-9.5
 31
0.0
  0
CIRCLE
  5
39
100
AcDbEntity
  8
0
  6
CONTINUOUS
 62
               2
100
AcDbCircle
 10
189.0
 20
-15.0
 30
0.0
 40
4.0
  0
LINE
  5
3A
100
AcDbEntity
  8
0
  6
CENTER
 62
               2
100
AcDbLine
 10
194.5
 20
15.0
 30
0.0
 11
183.5
 21
15.0
 31
0.0
  0
CIRCLE
  5
3B
100
AcDbEntity
  8
0
  6
CONTINUOUS
 62
               7
100
AcDbCircle
 10
189.0
 20
15.0
 30
0.0
 40
3.2999999999999998
  0
LINE
  5
3C
100
AcDbEntity
  8
0
  6
CENTER
 62
               2
100
AcDbLine
 10
189.0
 20
20.5
 30
0.0
 11
189.0
 21
9.5
 31
0.0
  0
CIRCLE
  5
3D
100
AcDbEntity
  8
0
  6
CONTINUOUS
 62
               2
100
AcDbCircle
 10
189.0
 20
15.0
 30
0.0
 40
4.0
  0
LINE
  5
3E
100
AcDbEntity
  8
0
  6
CENTER
 62
               2
100
AcDbLine
 10
46.5
 20
-15.0
 30
0.0
 11
35.5
 21
-15.0
 31
0.0
  0
CIRCLE
  5
3F
100
AcDbEntity
  8
0
  6
CONTINUOUS
 62
               2
100
AcDbCircle
 10
41.0
 20
-15.0
 30
0.0
 40
4.0
  0
CIRCLE
  5
40
100
AcDbEntity
  8
0
  6
CONTINUOUS
 62
               7
100
AcDbCircle
 10
41.0
 20
-15.0
 30
0.0
 40
3.2999999999999998
  0
CIRCLE
  5
41
100
AcDbEntity
  8
0
  6
CONTINUOUS
 62
               2
100
AcDbCircle
 10
81.0
 20
-15.0
 30
0.0
 40
4.0
  0
CIRCLE
  5
42
100
AcDbEntity
  8
0
  6
CONTINUOUS
 62
               7
100
AcDbCircle
 10
81.0
 20
-15.0
 30
0.0
 40
3.2999999999999998
  0
LINE
  5
43
100
AcDbEntity
  8
0
  6
CENTER
 62
               2
100
AcDbLine
 10
81.0
 20
-20.5
 30
0.0
 11
81.0
 21
-9.5
 31
0.0
  0
LINE
  5
44
100
AcDbEntity
  8
0
  6
CENTER
 62
               2
100
AcDbLine
 10
86.5
 20
-15.0
 30
0.0
 11
75.5
 21
-15.0
 31
0.0
  0
LINE
  5
45
100
AcDbEntity
  8
0
  6
CENTER
 62
               2
100
AcDbLine
 10
41.0
 20
-20.5
 30
0.0
 11
41.0
 21
-9.5
 31
0.0
  0
LINE
  5
46
100
AcDbEntity
  8
0
  6
CENTER
 62
               2
100
AcDbLine
 10
41.0
 20
-3.5
 30
0.0
 11
41.0
 21
3.5
 31
0.0
  0
CIRCLE
  5
47
100
AcDbEntity
  8
0
  6
CONTINUOUS
 62
               7
100
AcDbCircle
 10
41.0
 20
0.0
 30
0.0
 40
2.0
  0
LINE
  5
48
100
AcDbEntity
  8
0
  6
CONTINUOUS
 62
               7
100
AcDbLine
 10
82.0
 20
-2.0
 30
0.0
 11
80.0
 21
-2.0
 31
0.0
  0
LINE
  5
49
100
AcDbEntity
  8
0
  6
CONTINUOUS
 62
               7
100
AcDbLine
 10
82.0
 20
2.0
 30
0.0
 11
80.0
 21
2.0
 31
0.0
  0
LINE
  5
4A
100
AcDbEntity
  8
0
  6
CENTER
 62
               2
100
AcDbLine
 10
81.0
 20
3.5
 30
0.0
 11
81.0
 21
-3.5
 31
0.0
  0
LINE
  5
4B
100
AcDbEntity
  8
0
  6
CENTER
 62
               2
100
AcDbLine
 10
80.0
 20
-3.5
 30
0.0
 11
80.0
 21
3.5
 31
0.0
  0
ARC
  5
4C
100
AcDbEntity
  8
0
  6
CONTINUOUS
 62
               7
100
AcDbCircle
 10
82.0
 20
0.0
 30
0.0
 40
2.0
100
AcDbArc
 50
269.99999999999937
 51
89.999999999999801
  0
LINE
  5
4D
100
AcDbEntity
  8
0
  6
CENTER
 62
               2
100
AcDbLine
 10
82.0
 20
-3.5
 30
0.0
 11
82.0
 21
3.5
 31
0.0
  0
ARC
  5
4E
100
AcDbEntity
  8
0
  6
CONTINUOUS
 62
               7
100
AcDbCircle
 10
80.0
 20
0.0
 30
0.0
 40
2.0
100
AcDbArc
 50
89.999999999999815
 51
269.99999999999937
  0
CIRCLE
  5
4F
100
AcDbEntity
  8
0
  6
CONTINUOUS
 62
               7
100
AcDbCircle
 10
81.0
 20
15.0
 30
0.0
 40
3.2999999999999998
  0
LINE
  5
50
100
AcDbEntity
  8
0
  6
CENTER
 62
               2
100
AcDbLine
 10
81.0
 20
20.5
 30
0.0
 11
81.0
 21
9.5
 31
0.0
  0
CIRCLE
  5
51
100
AcDbEntity
  8
0
  6
CONTINUOUS
 62
               2
100
AcDbCircle
 10
81.0
 20
15.0
 30
0.0
 40
4.0
  0
LINE
  5
52
100
AcDbEntity
  8
0
  6
CENTER
 62
               2
100
AcDbLine
 10
86.5
 20
15.0
 30
0.0
 11
75.5
 21
15.0
 31
0.0
  0
CIRCLE
  5
53
100
AcDbEntity
  8
0
  6
CONTINUOUS
 62
               7
100
AcDbCircle
 10
41.0
 20
15.0
 30
0.0
 40
3.2999999999999998
  0
LINE
  5
54
100
AcDbEntity
  8
0
  6
CENTER
 62
               2
100
AcDbLine
 10
41.0
 20
20.5
 30
0.0
 11
41.0
 21
9.5
 31
0.0
  0
CIRCLE
  5
55
100
AcDbEntity
  8
0
  6
CONTINUOUS
 62
               2
100
AcDbCircle
 10
41.0
 20
15.0
 30
0.0
 40
4.0
  0
LINE
  5
56
100
AcDbEntity
  8
0
  6
CENTER
 62
               2
100
AcDbLine
 10
46.5
 20
15.0
 30
0.0
 11
35.5
 21
15.0
 31
0.0
  0
LINE
  5
57
100
AcDbEntity
  8
0
  6
CONTINUOUS
 62
               7
100
AcDbLine
 10
13.999999983193447
 20
56.0
 30
0.0
 11
203.0
 21
56.0
 31
0.0
  0
LINE
  5
58
100
AcDbEntity
  8
0
  6
CENTER
 62
               2
100
AcDbLine
 10
20.0
 20
15.0
 30
0.0
 11
34.0
 21
15.0
 31
0.0
  0
LINE
  5
59
100
AcDbEntity
  8
0
  6
CENTER
 62
               2
100
AcDbLine
 10
27.0
 20
8.0
 30
0.0
 11
27.0
 21
22.0
 31
0.0
  0
CIRCLE
  5
5A
100
AcDbEntity
  8
0
  6
CONTINUOUS
 62
               7
100
AcDbCircle
 10
27.0
 20
15.0
 30
0.0
 40
3.3999999999999999
  0
LINE
  5
5B
100
AcDbEntity
  8
0
  6
CONTINUOUS
 62
               7
100
AcDbLine
 10
12.100000000000023
 20
30.000000000000597
 30
0.0
 11
14.0
 21
30.000000000000597
 31
0.0
  0
CIRCLE
  5
5C
100
AcDbEntity
  8
0
  6
CONTINUOUS
 62
               7
100
AcDbCircle
 10
27.0
 20
15.0
 30
0.0
 40
5.5
  0
LINE
  5
5D
100
AcDbEntity
  8
0
  6
CENTER
 62
               2
100
AcDbLine
 10
90.0
 20
15.0
 30
0.0
 11
104.0
 21
15.0
 31
0.0
  0
LINE
  5
5E
100
AcDbEntity
  8
0
  6
CENTER
 62
               2
100
AcDbLine
 10
97.0
 20
8.0
 30
0.0
 11
97.0
 21
22.0
 31
0.0
  0
CIRCLE
  5
5F
100
AcDbEntity
  8
0
  6
CONTINUOUS
 62
               7
100
AcDbCircle
 10
97.0
 20
15.0
 30
0.0
 40
3.3999999999999999
  0
CIRCLE
  5
60
100
AcDbEntity
  8
0
  6
CONTINUOUS
 62
               7
100
AcDbCircle
 10
97.0
 20
15.0
 30
0.0
 40
5.5
  0
LINE
  5
61
100
AcDbEntity
  8
0
  6
CONTINUOUS
 62
               7
100
AcDbLine
 10
12.100000000000023
 20
30.000000000000597
 30
0.0
 11
12.100000000000023
 21
44.000000000000597
 31
0.0
  0
LINE
  5
62
100
AcDbEntity
  8
0
  6
CONTINUOUS
 62
               7
100
AcDbLine
 10
12.100000000000023
 20
44.000000000000597
 30
0.0
 11
14.0
 21
44.000000000000597
 31
0.0
  0
LINE
  5
63
100
AcDbEntity
  8
0
  6
CONTINUOUS
 62
               7
100
AcDbLine
 10
11.999999983193447
 20
21.5
 30
0.0
 11
203.0
 21
21.5
 31
0.0
  0
LINE
  5
64
100
AcDbEntity
  8
0
  6
CONTINUOUS
 62
               7
100
AcDbLine
 10
11.999999983193447
 20
7.0
 30
0.0
 11
203.0
 21
7.0
 31
0.0
  0
LINE
  5
65
100
AcDbEntity
  8
0
  6
CONTINUOUS
 62
               7
100
AcDbLine
 10
11.999999983193447
 20
22.0
 30
0.0
 11
203.0
 21
22.0
 31
0.0
  0
LINE
  5
66
100
AcDbEntity
  8
0
  6
CONTINUOUS
 62
               7
100
AcDbLine
 10
14.0
 20
23.5
 30
0.0
 11
203.0
 21
23.5
 31
0.0
  0
LINE
  5
67
100
AcDbEntity
  8
0
  6
CONTINUOUS
 62
               7
100
AcDbLine
 10
14.0
 20
22.0
 30
0.0
 11
14.0
 21
60.0
 31
0.0
  0
LINE
  5
68
100
AcDbEntity
  8
0
  6
CENTER
 62
               2
100
AcDbLine
 10
-1.5000000168065526
 20
37.000000000000597
 30
0.0
 11
15.5
 21
37.000000000000597
 31
0.0
  0
LINE
  5
69
100
AcDbEntity
  8
0
  6
CONTINUOUS
 62
               7
100
AcDbLine
 10
13.999999983193447
 20
41.600000000000591
 30
0.0
 11
202.99999998319345
 21
41.600000000000591
 31
0.0
  0
LINE
  5
6A
100
AcDbEntity
  8
0
  6
CONTINUOUS
 62
               7
100
AcDbLine
 10
13.999999983193447
 20
38.400000000000603
 30
0.0
 11
202.99999998319345
 21
38.400000000000603
 31
0.0
  0
LINE
  5
6B
100
AcDbEntity
  8
0
  6
CONTINUOUS
 62
               7
100
AcDbLine
 10
13.999999983193447
 20
35.60000000000062
 30
0.0
 11
202.99999998319345
 21
35.60000000000062
 31
0.0
  0
LINE
  5
6C
100
AcDbEntity
  8
0
  6
CONTINUOUS
 62
               7
100
AcDbLine
 10
13.999999983193447
 20
32.400000000000603
 30
0.0
 11
202.99999998319345
 21
32.400000000000603
 31
0.0
  0
LINE
  5
6D
100
AcDbEntity
  8
0
  6
CONTINUOUS
 62
               7
100
AcDbLine
 10
13.999999983193447
 20
30.500000000000568
 30
0.0
 11
202.99999998319345
 21
30.500000000000568
 31
0.0
  0
LINE
  5
6E
100
AcDbEntity
  8
0
  6
CONTINUOUS
 62
               7
100
AcDbLine
 10
13.999999983193447
 20
43.500000000000625
 30
0.0
 11
202.99999998319345
 21
43.500000000000625
 31
0.0
  0
LINE
  5
6F
100
AcDbEntity
  8
0
  6
CONTINUOUS
 62
               7
100
AcDbLine
 10
11.999999983193447
 20
-21.5
 30
0.0
 11
203.0
 21
-21.5
 31
0.0
  0
LINE
  5
70
100
AcDbEntity
  8
0
  6
CONTINUOUS
 62
               7
100
AcDbLine
 10
13.999999983193447
 20
-56.000000000000014
 30
0.0
 11
92.0
 21
-56.000000000000014
 31
0.0
  0
LINE
  5
71
100
AcDbEntity
  8
0
  6
CONTINUOUS
 62
               7
100
AcDbLine
 10
11.999999983193447
 20
-6.5
 30
0.0
 11
203.0
 21
-6.5
 31
0.0
  0
LINE
  5
72
100
AcDbEntity
  8
0
  6
CONTINUOUS
 62
               7
100
AcDbLine
 10
11.999999983193447
 20
-7.0
 30
0.0
 11
203.0
 21
-7.0
 31
0.0
  0
LINE
  5
73
100
AcDbEntity
  8
0
  6
CONTINUOUS
 62
               7
100
AcDbLine
 10
11.999999983193447
 20
-22.0
 30
0.0
 11
203.0
 21
-22.0
 31
0.0
  0
LINE
  5
74
100
AcDbEntity
  8
0
  6
CONTINUOUS
 62
               7
100
AcDbLine
 10
14.0
 20
-23.5
 30
0.0
 11
203.0
 21
-23.5
 31
0.0
  0
LINE
  5
76
100
AcDbEntity
  8
0
  6
PHANTOM
 62
             200
100
AcDbLine
 10
105.0
 20
-49.426565327711238
 30
0.0
 11
105.0
 21
-51.5
 31
0.0
  0
LINE
  5
77
100
AcDbEntity
  8
0
  6
CONTINUOUS
 62
               7
100
AcDbLine
 10
12.100000000000023
 20
-44.000000000000597
 30
0.0
 11
14.0
 21
-44.000000000000597
 31
0.0
  0
LINE
  5
78
100
AcDbEntity
  8
0
  6
CONTINUOUS
 62
               7
100
AcDbLine
 10
12.100000000000023
 20
-30.000000000000597
 30
0.0
 11
12.100000000000023
 21
-44.000000000000597
 31
0.0
  0
LINE
  5
79
100
AcDbEntity
  8
0
  6
CONTINUOUS
 62
               7
100
AcDbLine
 10
-0.0000000168065526
 20
50.000000000000597
 30
0.0
 11
11.999999983193447
 21
50.000000000000597
 31
0.0
  0
LINE
  5
7A
100
AcDbEntity
  8
0
  6
CONTINUOUS
 62
               7
100
AcDbLine
 10
14.0
 20
60.0
 30
0.0
 11
203.0
 21
60.0
 31
0.0
  0
LINE
  5
7B
100
AcDbEntity
  8
0
  6
CONTINUOUS
 62
               7
100
AcDbLine
 10
203.0
 20
60.0
 30
0.0
 11
203.0
 21
-28.000000000000014
 31
0.0
  0
CIRCLE
  5
7C
100
AcDbEntity
  8
0
  6
CONTINUOUS
 62
               7
100
AcDbCircle
 10
97.0
 20
-15.0
 30
0.0
 40
5.5
  0
CIRCLE
  5
7D
100
AcDbEntity
  8
0
  6
CONTINUOUS
 62
               7
100
AcDbCircle
 10
97.0
 20
-15.0
 30
0.0
 40
3.3999999999999999
  0
LINE
  5
7E
100
AcDbEntity
  8
0
  6
CENTER
 62
               2
100
AcDbLine
 10
97.0
 20
-8.0
 30
0.0
 11
97.0
 21
-22.0
 31
0.0
  0
LINE
  5
7F
100
AcDbEntity
  8
0
  6
CENTER
 62
               2
100
AcDbLine
 10
90.0
 20
-15.0
 30
0.0
 11
104.0
 21
-15.0
 31
0.0
  0
CIRCLE
  5
80
100
AcDbEntity
  8
0
  6
CONTINUOUS
 62
               7
100
AcDbCircle
 10
27.0
 20
-15.0
 30
0.0
 40
5.5
  0
LINE
  5
81
100
AcDbEntity
  8
0
  6
CONTINUOUS
 62
               7
100
AcDbLine
 10
12.100000000000023
 20
-30.000000000000597
 30
0.0
 11
14.0
 21
-30.000000000000597
 31
0.0
  0
CIRCLE
  5
82
100
AcDbEntity
  8
0
  6
CONTINUOUS
 62
               7
100
AcDbCircle
 10
27.0
 20
-15.0
 30
0.0
 40
3.3999999999999999
  0
LINE
  5
83
100
AcDbEntity
  8
0
  6
CENTER
 62
               2
100
AcDbLine
 10
27.0
 20
-8.0
 30
0.0
 11
27.0
 21
-22.0
 31
0.0
  0
LINE
  5
84
100
AcDbEntity
  8
0
  6
CONTINUOUS
 62
               7
100
AcDbLine
 10
14.0
 20
-22.0
 30
0.0
 11
14.0
 21
-60.0
 31
0.0
  0
LINE
  5
85
100
AcDbEntity
  8
0
  6
CONTINUOUS
 62
               7
100
AcDbLine
 10
12.0
 20
50.000000000000597
 30
0.0
 11
12.0
 21
-50.000000000000597
 31
0.0
  0
LINE
  5
86
100
AcDbEntity
  8
0
  6
CONTINUOUS
 62
               7
100
AcDbLine
 10
0.0
 20
50.000000000000597
 30
0.0
 11
0.0
 21
-50.000000000000597
 31
0.0
  0
LINE
  5
87
100
AcDbEntity
  8
0
  6
CENTER
 62
               2
100
AcDbLine
 10
-1.5000000168065526
 20
-37.000000000000597
 30
0.0
 11
15.5
 21
-37.000000000000597
 31
0.0
  0
LINE
  5
88
100
AcDbEntity
  8
0
  6
CONTINUOUS
 62
               7
100
AcDbLine
 10
-0.0000000168065526
 20
-50.000000000000597
 30
0.0
 11
11.999999983193447
 21
-50.000000000000597
 31
0.0
  0
LINE
  5
89
100
AcDbEntity
  8
0
  6
CONTINUOUS
 62
               7
100
AcDbLine
 10
14.0
 20
-60.0
 30
0.0
 11
203.0
 21
-60.0
 31
0.0
  0
LINE
  5
8A
100
AcDbEntity
  8
0
  6
CENTER
 62
               2
100
AcDbLine
 10
20.0
 20
-15.0
 30
0.0
 11
34.0
 21
-15.0
 31
0.0
  0
LINE
  5
8B
100
AcDbEntity
  8
0
  6
CENTER
 62
             200
100
AcDbLine
 10
160.0
 20
15.0
 30
0.0
 11
174.0
 21
15.0
 31
0.0
  0
LINE
  5
8C
100
AcDbEntity
  8
0
  6
CENTER
 62
             200
100
AcDbLine
 10
167.0
 20
8.0
 30
0.0
 11
167.0
 21
22.0
 31
0.0
  0
CIRCLE
  5
8D
100
AcDbEntity
  8
0
  6
CONTINUOUS
 62
               4
100
AcDbCircle
 10
167.0
 20
15.0
 30
0.0
 40
3.3999999999999999
  0
CIRCLE
  5
8E
100
AcDbEntity
  8
0
  6
CONTINUOUS
 62
               4
100
AcDbCircle
 10
167.0
 20
15.0
 30
0.0
 40
5.5
  0
CIRCLE
  5
8F
100
AcDbEntity
  8
0
  6
CONTINUOUS
 62
               4
100
AcDbCircle
 10
167.0
 20
-15.0
 30
0.0
 40
5.5
  0
CIRCLE
  5
90
100
AcDbEntity
  8
0
  6
CONTINUOUS
 62
               4
100
AcDbCircle
 10
167.0
 20
-15.0
 30
0.0
 40
3.3999999999999999
  0
LINE
  5
91
100
AcDbEntity
  8
0
  6
CENTER
 62
             200
100
AcDbLine
 10
167.0
 20
-8.0
 30
0.0
 11
167.0
 21
-22.0
 31
0.0
  0
LINE
  5
92
100
AcDbEntity
  8
0
  6
CENTER
 62
             200
100
AcDbLine
 10
160.0
 20
-15.0
 30
0.0
 11
174.0
 21
-15.0
 31
0.0
  0
LINE
  5
93
100
AcDbEntity
  8
0
  6
CENTER
 62
             200
100
AcDbLine
 10
216.5
 20
15.0
 30
0.0
 11
201.5
 21
15.0
 31
0.0
  0
LINE
  5
94
100
AcDbEntity
  8
0
  6
CENTER
 62
             200
100
AcDbLine
 10
216.5
 20
-15.0
 30
0.0
 11
201.5
 21
-15.0
 31
0.0
  0
LINE
  5
95
100
AcDbEntity
  8
0
  6
CONTINUOUS
 62
               4
100
AcDbLine
 10
206.0
 20
22.0
 30
0.0
 11
206.0
 21
-38.000000000000014
 31
0.0
  0
LINE
  5
96
100
AcDbEntity
  8
0
  6
CONTINUOUS
 62
               4
100
AcDbLine
 10
214.0
 20
22.0
 30
0.0
 11
214.0
 21
-38.000000000000014
 31
0.0
  0
LINE
  5
97
100
AcDbEntity
  8
0
  6
CONTINUOUS
 62
               4
100
AcDbLine
 10
214.0
 20
-38.000000000000014
 30
0.0
 11
206.0
 21
-38.000000000000014
 31
0.0
  0
LINE
  5
98
100
AcDbEntity
  8
0
  6
CONTINUOUS
 62
               4
100
AcDbLine
 10
214.0
 20
-21.959638711273925
 30
0.0
 11
206.0
 21
-21.959638711273925
 31
0.0
  0
LINE
  5
99
100
AcDbEntity
  8
0
  6
CONTINUOUS
 62
               4
100
AcDbLine
 10
225.0
 20
-22.0
 30
0.0
 11
214.0
 21
-22.0
 31
0.0
  0
LINE
  5
9A
100
AcDbEntity
  8
0
  6
CONTINUOUS
 62
               4
100
AcDbLine
 10
214.0
 20
6.0
 30
0.0
 11
215.0
 21
6.0
 31
0.0
  0
LINE
  5
9B
100
AcDbEntity
  8
0
  6
CONTINUOUS
 62
             200
100
AcDbLine
 10
214.0
 20
5.5
 30
0.0
 11
215.0
 21
5.5
 31
0.0
  0
LINE
  5
9C
100
AcDbEntity
  8
0
  6
CONTINUOUS
 62
               4
100
AcDbLine
 10
214.0
 20
-6.0
 30
0.0
 11
215.0
 21
-6.0
 31
0.0
  0
LINE
  5
9D
100
AcDbEntity
  8
0
  6
CONTINUOUS
 62
             200
100
AcDbLine
 10
214.0
 20
-5.5
 30
0.0
 11
215.0
 21
-5.5
 31
0.0
  0
LINE
  5
9E
100
AcDbEntity
  8
0
  6
CONTINUOUS
 62
               4
100
AcDbLine
 10
225.0
 20
22.0
 30
0.0
 11
225.0
 21
-22.0
 31
0.0
  0
LINE
  5
9F
100
AcDbEntity
  8
0
  6
CONTINUOUS
 62
               4
100
AcDbLine
 10
225.0
 20
7.0
 30
0.0
 11
228.0
 21
7.0
 31
0.0
  0
ARC
  5
A0
100
AcDbEntity
  8
0
  6
CONTINUOUS
 62
               4
100
AcDbCircle
 10
235.10924076103788
 20
3.5
 30
0.0
 40
10.10924076103786
100
AcDbArc
 50
159.74384199958308
 51
200.25615800041612
  0
LINE
  5
A1
100
AcDbEntity
  8
0
  6
CONTINUOUS
 62
               4
100
AcDbLine
 10
225.0
 20
-7.0
 30
0.0
 11
228.0
 21
-7.0
 31
0.0
  0
ARC
  5
A2
100
AcDbEntity
  8
0
  6
CONTINUOUS
 62
               4
100
AcDbCircle
 10
235.10924076103788
 20
-3.5
 30
0.0
 40
10.10924076103786
100
AcDbArc
 50
159.74384199958308
 51
200.25615800041612
  0
ARC
  5
A3
100
AcDbEntity
  8
0
  6
CONTINUOUS
 62
               4
100
AcDbCircle
 10
217.89075923896212
 20
-3.5
 30
0.0
 40
10.10924076103786
100
AcDbArc
 50
339.74384199958348
 51
20.256158000416512
  0
LINE
  5
A4
100
AcDbEntity
  8
0
  6
CONTINUOUS
 62
               4
100
AcDbLine
 10
225.6252147823393
 20
0.0
 30
0.0
 11
227.3747852176607
 21
0.0
 31
0.0
  0
ARC
  5
A5
100
AcDbEntity
  8
0
  6
CONTINUOUS
 62
               4
100
AcDbCircle
 10
217.89075923896212
 20
3.5
 30
0.0
 40
10.10924076103786
100
AcDbArc
 50
339.74384199958268
 51
20.256158000416512
  0
LINE
  5
A6
100
AcDbEntity
  8
0
  6
CONTINUOUS
 62
               4
100
AcDbLine
 10
228.0
 20
7.0
 30
0.0
 11
228.0
 21
-7.0
 31
0.0
  0
LINE
  5
A7
100
AcDbEntity
  8
0
  6
CONTINUOUS
 62
               4
100
AcDbLine
 10
214.0
 20
-22.500000000000014
 30
0.0
 11
217.0
 21
-22.500000000000014
 31
0.0
  0
ARC
  5
A8
100
AcDbEntity
  8
0
  6
CONTINUOUS
 62
               4
100
AcDbCircle
 10
224.10924076103788
 20
-26.000000000000014
 30
0.0
 40
10.10924076103786
100
AcDbArc
 50
159.74384199958308
 51
200.25615800041612
  0
LINE
  5
A9
100
AcDbEntity
  8
0
  6
CONTINUOUS
 62
               4
100
AcDbLine
 10
214.0
 20
-36.500000000000014
 30
0.0
 11
217.0
 21
-36.500000000000014
 31
0.0
  0
ARC
  5
AA
100
AcDbEntity
  8
0
  6
CONTINUOUS
 62
               4
100
AcDbCircle
 10
224.10924076103788
 20
-33.000000000000014
 30
0.0
 40
10.10924076103786
100
AcDbArc
 50
159.74384199958308
 51
200.25615800041612
  0
LINE
  5
AB
100
AcDbEntity
  8
0
  6
CONTINUOUS
 62
               4
100
AcDbLine
 10
217.0
 20
-22.500000000000014
 30
0.0
 11
217.0
 21
-36.500000000000014
 31
0.0
  0
ARC
  5
AC
100
AcDbEntity
  8
0
  6
CONTINUOUS
 62
               4
100
AcDbCircle
 10
206.89075923896212
 20
-26.000000000000014
 30
0.0
 40
10.10924076103786
100
AcDbArc
 50
339.74384199958268
 51
20.256158000416512
  0
LINE
  5
AD
100
AcDbEntity
  8
0
  6
CONTINUOUS
 62
               4
100
AcDbLine
 10
214.6252147823393
 20
-29.500000000000014
 30
0.0
 11
216.3747852176607
 21
-29.500000000000014
 31
0.0
  0
ARC
  5
AE
100
AcDbEntity
  8
0
  6
CONTINUOUS
 62
               4
100
AcDbCircle
 10
206.89075923896212
 20
-33.000000000000014
 30
0.0
 40
10.10924076103786
100
AcDbArc
 50
339.74384199958348
 51
20.256158000416512
  0
LINE
  5
AF
100
AcDbEntity
  8
0
  6
CONTINUOUS
 62
               4
100
AcDbLine
 10
215.0
 20
22.0
 30
0.0
 11
215.0
 21
-22.0
 31
0.0
  0
LINE
  5
B0
100
AcDbEntity
  8
0
  6
CONTINUOUS
 62
               4
100
AcDbLine
 10
215.0
 20
19.999999999999986
 30
0.0
 11
214.0
 21
19.999999999999986
 31
0.0
  0
LINE
  5
B1
100
AcDbEntity
  8
0
  6
CONTINUOUS
 62
               4
100
AcDbLine
 10
215.0
 20
10.000000000000014
 30
0.0
 11
214.0
 21
10.000000000000014
 31
0.0
  0
LINE
  5
B2
100
AcDbEntity
  8
0
  6
CONTINUOUS
 62
               4
100
AcDbLine
 10
215.0
 20
-10.000000000000014
 30
0.0
 11
214.0
 21
-10.000000000000014
 31
0.0
  0
LINE
  5
B3
100
AcDbEntity
  8
0
  6
CONTINUOUS
 62
               4
100
AcDbLine
 10
215.0
 20
-19.999999999999972
 30
0.0
 11
214.0
 21
-19.999999999999972
 31
0.0
  0
LINE
  5
B4
100
AcDbEntity
  8
0
  6
CENTER
 62
             200
100
AcDbLine
 10
98.5
 20
-43.0
 30
0.0
 11
98.5
 21
-57.0
 31
0.0
  0
CIRCLE
  5
B5
100
AcDbEntity
  8
0
  6
CONTINUOUS
 62
               4
100
AcDbCircle
 10
98.5
 20
-50.0
 30
0.0
 40
5.5
  0
LINE
  5
B6
100
AcDbEntity
  8
0
  6
CENTER
 62
             200
100
AcDbLine
 10
105.5
 20
-50.0
 30
0.0
 11
91.5
 21
-50.0
 31
0.0
  0
CIRCLE
  5
B7
100
AcDbEntity
  8
0
  6
CONTINUOUS
 62
               4
100
AcDbCircle
 10
98.5
 20
-50.0
 30
0.0
 40
5.0
  0
LINE
  5
B8
100
AcDbEntity
  8
0
  6
CONTINUOUS
 62
               4
100
AcDbLine
 10
101.38675134594814
 20
-50.0
 30
0.0
 11
99.943375672974071
 21
-47.5
 31
0.0
  0
LINE
  5
B9
100
AcDbEntity
  8
0
  6
CONTINUOUS
 62
               4
100
AcDbLine
 10
101.38675134594814
 20
-50.0
 30
0.0
 11
99.943375672974071
 21
-52.5
 31
0.0
  0
LINE
  5
BA
100
AcDbEntity
  8
0
  6
CONTINUOUS
 62
               4
100
AcDbLine
 10
95.613248654051858
 20
-50.0
 30
0.0
 11
97.056624327025929
 21
-52.5
 31
0.0
  0
LINE
  5
BB
100
AcDbEntity
  8
0
  6
CONTINUOUS
 62
               4
100
AcDbLine
 10
95.613248654051858
 20
-50.0
 30
0.0
 11
97.056624327025929
 21
-47.5
 31
0.0
  0
LINE
  5
BC
100
AcDbEntity
  8
0
  6
CONTINUOUS
 62
               4
100
AcDbLine
 10
97.056624327025929
 20
-47.5
 30
0.0
 11
99.943375672974071
 21
-47.5
 31
0.0
  0
LINE
  5
BD
100
AcDbEntity
  8
0
  6
CONTINUOUS
 62
               4
100
AcDbLine
 10
97.056624327025929
 20
-52.5
 30
0.0
 11
99.943375672974071
 21
-52.5
 31
0.0
  0
LINE
  5
BE
100
AcDbEntity
  8
0
  6
CONTINUOUS
 62
               7
100
AcDbLine
 10
105.0
 20
-56.5
 30
0.0
 11
92.0
 21
-56.5
 31
0.0
  0
LINE
  5
BF
100
AcDbEntity
  8
0
  6
CONTINUOUS
 62
               4
100
AcDbLine
 10
217.0
 20
-23.500000000000014
 30
0.0
 11
234.25
 21
-23.500000000000014
 31
0.0
  0
LINE
  5
C0
100
AcDbEntity
  8
0
  6
CONTINUOUS
 62
             200
100
AcDbLine
 10
217.0
 20
-24.000000000000014
 30
0.0
 11
234.75
 21
-24.000000000000014
 31
0.0
  0
LINE
  5
C1
100
AcDbEntity
  8
0
  6
CONTINUOUS
 62
             200
100
AcDbLine
 10
217.0
 20
-35.000000000000014
 30
0.0
 11
234.75
 21
-35.000000000000014
 31
0.0
  0
LINE
  5
C2
100
AcDbEntity
  8
0
  6
CONTINUOUS
 62
               4
100
AcDbLine
 10
217.0
 20
-35.500000000000014
 30
0.0
 11
234.25
 21
-35.500000000000014
 31
0.0
  0
LINE
  5
C3
100
AcDbEntity
  8
0
  6
CONTINUOUS
 62
               4
100
AcDbLine
 10
228.0
 20
6.0
 30
0.0
 11
235.25
 21
6.0
 31
0.0
  0
LINE
  5
C4
100
AcDbEntity
  8
0
  6
CONTINUOUS
 62
             200
100
AcDbLine
 10
228.0
 20
5.5
 30
0.0
 11
235.75
 21
5.5
 31
0.0
  0
LINE
  5
C5
100
AcDbEntity
  8
0
  6
CONTINUOUS
 62
             200
100
AcDbLine
 10
228.0
 20
-5.5
 30
0.0
 11
235.75
 21
-5.5
 31
0.0
  0
LINE
  5
C6
100
AcDbEntity
  8
0
  6
CONTINUOUS
 62
               4
100
AcDbLine
 10
228.0
 20
-6.0
 30
0.0
 11
235.25
 21
-6.0
 31
0.0
  0
LINE
  5
C7
100
AcDbEntity
  8
0
  6
CONTINUOUS
 62
               4
100
AcDbLine
 10
236.0
 20
-5.25
 30
0.0
 11
235.25
 21
-6.0
 31
0.0
  0
LINE
  5
C8
100
AcDbEntity
  8
0
  6
CONTINUOUS
 62
               4
100
AcDbLine
 10
236.0
 20
-5.25
 30
0.0
 11
242.0
 21
-5.25
 31
0.0
  0
LINE
  5
C9
100
AcDbEntity
  8
0
  6
CONTINUOUS
 62
               4
100
AcDbLine
 10
242.0
 20
-5.25
 30
0.0
 11
242.0
 21
-4.0
 31
0.0
  0
LINE
  5
CA
100
AcDbEntity
  8
0
  6
CONTINUOUS
 62
               4
100
AcDbLine
 10
236.0
 20
5.25
 30
0.0
 11
242.0
 21
5.25
 31
0.0
  0
LINE
  5
CB
100
AcDbEntity
  8
0
  6
CONTINUOUS
 62
               4
100
AcDbLine
 10
242.0
 20
5.25
 30
0.0
 11
242.0
 21
4.0
 31
0.0
  0
LINE
  5
CC
100
AcDbEntity
  8
0
  6
CONTINUOUS
 62
               4
100
AcDbLine
 10
236.0
 20
5.25
 30
0.0
 11
235.25
 21
6.0
 31
0.0
  0
LINE
  5
CD
100
AcDbEntity
  8
0
  6
CONTINUOUS
 62
               4
100
AcDbLine
 10
236.0
 20
5.2999999999999972
 30
0.0
 11
236.0
 21
-5.25
 31
0.0
  0
LINE
  5
CE
100
AcDbEntity
  8
0
  6
CONTINUOUS
 62
               4
100
AcDbLine
 10
245.0
 20
4.0
 30
0.0
 11
245.0
 21
-4.0
 31
0.0
  0
LINE
  5
CF
100
AcDbEntity
  8
0
  6
CONTINUOUS
 62
               4
100
AcDbLine
 10
235.25
 20
6.0
 30
0.0
 11
235.25
 21
-6.0
 31
0.0
  0
LINE
  5
D0
100
AcDbEntity
  8
0
  6
CONTINUOUS
 62
               4
100
AcDbLine
 10
235.0
 20
-24.200000000000017
 30
0.0
 11
235.0
 21
-34.750000000000014
 31
0.0
  0
LINE
  5
D1
100
AcDbEntity
  8
0
  6
CONTINUOUS
 62
               4
100
AcDbLine
 10
244.0
 20
-25.500000000000014
 30
0.0
 11
244.0
 21
-33.500000000000014
 31
0.0
  0
LINE
  5
D2
100
AcDbEntity
  8
0
  6
CONTINUOUS
 62
               4
100
AcDbLine
 10
235.0
 20
-24.250000000000014
 30
0.0
 11
234.25
 21
-23.500000000000014
 31
0.0
  0
LINE
  5
D3
100
AcDbEntity
  8
0
  6
CONTINUOUS
 62
               4
100
AcDbLine
 10
241.0
 20
-24.250000000000014
 30
0.0
 11
241.0
 21
-25.500000000000014
 31
0.0
  0
LINE
  5
D4
100
AcDbEntity
  8
0
  6
CONTINUOUS
 62
               4
100
AcDbLine
 10
235.0
 20
-24.250000000000014
 30
0.0
 11
241.0
 21
-24.250000000000014
 31
0.0
  0
LINE
  5
D5
100
AcDbEntity
  8
0
  6
CONTINUOUS
 62
               4
100
AcDbLine
 10
241.0
 20
-34.750000000000014
 30
0.0
 11
241.0
 21
-33.500000000000014
 31
0.0
  0
LINE
  5
D6
100
AcDbEntity
  8
0
  6
CONTINUOUS
 62
               4
100
AcDbLine
 10
235.0
 20
-34.750000000000014
 30
0.0
 11
241.0
 21
-34.750000000000014
 31
0.0
  0
LINE
  5
D7
100
AcDbEntity
  8
0
  6
CONTINUOUS
 62
               4
100
AcDbLine
 10
245.0
 20
-25.982050807568882
 30
0.0
 11
245.0
 21
-33.017949192431146
 31
0.0
  0
LINE
  5
D8
100
AcDbEntity
  8
0
  6
CONTINUOUS
 62
               4
100
AcDbLine
 10
241.0
 20
-25.500000000000014
 30
0.0
 11
244.72168783648704
 21
-25.500000000000014
 31
0.0
  0
LINE
  5
D9
100
AcDbEntity
  8
0
  6
CONTINUOUS
 62
               4
100
AcDbLine
 10
244.72168783648704
 20
-25.500000000000014
 30
0.0
 11
245.0
 21
-25.982050807568882
 31
0.0
  0
LINE
  5
DA
100
AcDbEntity
  8
0
  6
CONTINUOUS
 62
               4
100
AcDbLine
 10
241.0
 20
-33.500000000000014
 30
0.0
 11
244.72168783648704
 21
-33.500000000000014
 31
0.0
  0
LINE
  5
DB
100
AcDbEntity
  8
0
  6
CONTINUOUS
 62
               4
100
AcDbLine
 10
244.72168783648704
 20
-33.500000000000014
 30
0.0
 11
245.0
 21
-33.017949192431146
 31
0.0
  0
LINE
  5
DC
100
AcDbEntity
  8
0
  6
CONTINUOUS
 62
               4
100
AcDbLine
 10
235.0
 20
-34.750000000000014
 30
0.0
 11
234.25
 21
-35.500000000000014
 31
0.0
  0
LINE
  5
DD
100
AcDbEntity
  8
0
  6
CONTINUOUS
 62
               4
100
AcDbLine
 10
234.25
 20
-23.500000000000014
 30
0.0
 11
234.25
 21
-35.500000000000014
 31
0.0
  0
LINE
  5
DE
100
AcDbEntity
  8
0
  6
CONTINUOUS
 62
               4
100
AcDbLine
 10
197.0
 20
-28.000000000000014
 30
0.0
 11
205.0
 21
-28.000000000000014
 31
0.0
  0
LINE
  5
DF
100
AcDbEntity
  8
0
  6
CONTINUOUS
 62
               4
100
AcDbLine
 10
206.0
 20
-24.250000000000014
 30
0.0
 11
205.0
 21
-24.250000000000014
 31
0.0
  0
LINE
  5
E0
100
AcDbEntity
  8
0
  6
CONTINUOUS
 62
               4
100
AcDbLine
 10
206.0
 20
-34.750000000000014
 30
0.0
 11
205.0
 21
-34.750000000000014
 31
0.0
  0
LINE
  5
E1
100
AcDbEntity
  8
0
  6
CONTINUOUS
 62
               4
100
AcDbLine
 10
197.0
 20
-31.000000000000014
 30
0.0
 11
205.0
 21
-31.000000000000014
 31
0.0
  0
LINE
  5
E2
100
AcDbEntity
  8
0
  6
CONTINUOUS
 62
               4
100
AcDbLine
 10
205.0
 20
-24.250000000000014
 30
0.0
 11
205.0
 21
-34.750000000000014
 31
0.0
  0
LINE
  5
E3
100
AcDbEntity
  8
0
  6
CONTINUOUS
 62
               4
100
AcDbLine
 10
197.0
 20
-28.000000000000014
 30
0.0
 11
197.0
 21
-31.000000000000014
 31
0.0
  0
LINE
  5
E4
100
AcDbEntity
  8
0
  6
CONTINUOUS
 62
               7
100
AcDbLine
 10
203.0
 20
-31.000000000000014
 30
0.0
 11
203.0
 21
-60.0
 31
0.0
  0
LINE
  5
E5
100
AcDbEntity
  8
0
  6
CONTINUOUS
 62
               4
100
AcDbLine
 10
242.0
 20
4.0
 30
0.0
 11
245.72168783648704
 21
4.0
 31
0.0
  0
LINE
  5
E6
100
AcDbEntity
  8
0
  6
CONTINUOUS
 62
               4
100
AcDbLine
 10
242.0
 20
-4.0
 30
0.0
 11
245.72168783648704
 21
-4.0
 31
0.0
  0
LINE
  5
E7
100
AcDbEntity
  8
0
  6
CENTER
 62
             200
100
AcDbLine
 10
246.5
 20
-29.500000000000014
 30
0.0
 11
195.5
 21
-29.500000000000014
 31
0.0
  0
LINE
  5
E8
100
AcDbEntity
  8
0
  6
CENTER
 62
               2
100
AcDbLine
 10
249.0
 20
0.0
 30
0.0
 11
-3.0000000168065526
 21
0.0
 31
0.0
  0
LINE
  5
E9
100
AcDbEntity
  8
0
  6
PHANTOM
 62
               3
100
AcDbLine
 10
178.0
 20
82.05551362713291
 30
0.0
 11
178.0
 21
-85.999999999999972
 31
0.0
  0
ENDBLK
  5
EA
100
AcDbEntity
  8
0
100
AcDbBlockEnd
  0
BLOCK
  5
EB
100
AcDbEntity
  8
0
100
AcDbBlockBegin
  2
ZS25SS-2
 70
               0
 10
0.0
 20
0.0
 30
0.0
  3
ZS25SS-2
  1

  0
LINE
  5
EC
100
AcDbEntity
  8
0
  6
CONTINUOUS
 62
               4
100
AcDbLine
 10
-2.2500000000000568
 20
5.3999999999999773
 30
0.0
 11
2.2499999999999432
 21
5.4000000000000341
 31
0.0
  0
LINE
  5
ED
100
AcDbEntity
  8
0
  6
CONTINUOUS
 62
               4
100
AcDbLine
 10
-2.2500000000000568
 20
6.8999999999999488
 30
0.0
 11
-2.2500000000000568
 21
1.1499999999999773
 31
0.0
  0
LINE
  5
EE
100
AcDbEntity
  8
0
  6
CONTINUOUS
 62
               4
100
AcDbLine
 10
-1.5
 20
0.3999999999999488
 30
0.0
 11
-2.2500000000000568
 21
1.1499999999999773
 31
0.0
  0
LINE
  5
EF
100
AcDbEntity
  8
0
  6
CONTINUOUS
 62
               4
100
AcDbLine
 10
-1.5
 20
-0.4500000000000455
 30
0.0
 11
-1.5
 21
0.3999999999999488
 31
0.0
  0
LINE
  5
F0
100
AcDbEntity
  8
0
  6
CONTINUOUS
 62
               4
100
AcDbLine
 10
-2.0499999999999545
 20
-1.0000000000000568
 30
0.0
 11
-1.5
 21
-0.4500000000000455
 31
0.0
  0
LINE
  5
F1
100
AcDbEntity
  8
0
  6
CONTINUOUS
 62
               4
100
AcDbLine
 10
-2.0499999999999545
 20
-1.0000000000000568
 30
0.0
 11
-2.0499999999999545
 21
-2.5500000000000398
 31
0.0
  0
LINE
  5
F2
100
AcDbEntity
  8
0
  6
CONTINUOUS
 62
               4
100
AcDbLine
 10
2.0500000000000114
 20
-1.0
 30
0.0
 11
2.0500000000000114
 21
-2.5499999999999829
 31
0.0
  0
LINE
  5
F3
100
AcDbEntity
  8
0
  6
CONTINUOUS
 62
               4
100
AcDbLine
 10
2.0500000000000114
 20
-1.0
 30
0.0
 11
1.5
 21
-0.4499999999999886
 31
0.0
  0
LINE
  5
F4
100
AcDbEntity
  8
0
  6
CONTINUOUS
 62
               4
100
AcDbLine
 10
1.5
 20
-0.4499999999999886
 30
0.0
 11
1.5
 21
0.4000000000000057
 31
0.0
  0
LINE
  5
F5
100
AcDbEntity
  8
0
  6
CONTINUOUS
 62
               4
100
AcDbLine
 10
1.5
 20
0.4000000000000057
 30
0.0
 11
2.25
 21
1.1500000000000341
 31
0.0
  0
LINE
  5
F6
100
AcDbEntity
  8
0
  6
CONTINUOUS
 62
               4
100
AcDbLine
 10
2.2499999999999432
 20
6.9000000000000057
 30
0.0
 11
2.25
 21
1.1500000000000341
 31
0.0
  0
LINE
  5
F7
100
AcDbEntity
  8
0
  6
CENTER
 62
             200
100
AcDbLine
 10
-0.0000000000001705
 20
12.559999999999974
 30
0.0
 11
0.0000000000000568
 21
-6.0600000000000307
 31
0.0
  0
LINE
  5
F8
100
AcDbEntity
  8
0
  6
CONTINUOUS
 62
               4
100
AcDbLine
 10
-1.5
 20
-0.0000000000000284
 30
0.0
 11
1.5
 21
0.0
 31
0.0
  0
LINE
  5
F9
100
AcDbEntity
  8
0
  6
CONTINUOUS
 62
               4
100
AcDbLine
 10
-2.0499999999999545
 20
-1.8000000000000114
 30
0.0
 11
2.0500000000000682
 21
-1.7999999999999829
 31
0.0
  0
LINE
  5
FA
100
AcDbEntity
  8
0
  6
CONTINUOUS
 62
               4
100
AcDbLine
 10
-2.0493901531919043
 20
-2.6000000000000512
 30
0.0
 11
2.0493901531919345
 21
-2.5999999999999943
 31
0.0
  0
LINE
  5
FB
100
AcDbEntity
  8
0
  6
CONTINUOUS
 62
               4
100
AcDbLine
 10
-2.2500000000000568
 20
6.8999999999999488
 30
0.0
 11
2.2499999999999432
 21
6.9000000000000057
 31
0.0
  0
LINE
  5
FC
100
AcDbEntity
  8
0
  6
CONTINUOUS
 62
             200
100
AcDbLine
 10
-2.1600000000000819
 20
8.6499999999999773
 30
0.0
 11
2.1599999999998545
 21
11.150000000000034
 31
0.0
  0
LINE
  5
FD
100
AcDbEntity
  8
0
  6
CONTINUOUS
 62
               4
100
AcDbLine
 10
-1.0199999999999818
 20
-4.0000000000000284
 30
0.0
 11
1.0200000000000387
 21
-4.0000000000000284
 31
0.0
  0
LINE
  5
FE
100
AcDbEntity
  8
0
  6
CONTINUOUS
 62
               4
100
AcDbLine
 10
1.0200000000000387
 20
-4.0000000000000284
 30
0.0
 11
1.2500000000000568
 21
-3.7700000000000102
 31
0.0
  0
LINE
  5
FF
100
AcDbEntity
  8
0
  6
CONTINUOUS
 62
               4
100
AcDbLine
 10
-1.0199999999999818
 20
-4.0000000000000284
 30
0.0
 11
-1.2499999999999432
 21
-3.7700000000000387
 31
0.0
  0
LINE
  5
100
100
AcDbEntity
  8
0
  6
CONTINUOUS
 62
               4
100
AcDbLine
 10
-1.2499999999999432
 20
-2.6000000000000512
 30
0.0
 11
-1.2499999999999432
 21
-3.7700000000000387
 31
0.0
  0
LINE
  5
101
100
AcDbEntity
  8
0
  6
CONTINUOUS
 62
             200
100
AcDbLine
 10
-1.019999999999925
 20
-2.6000000000000512
 30
0.0
 11
-1.0199999999999818
 21
-4.0000000000000284
 31
0.0
  0
LINE
  5
102
100
AcDbEntity
  8
0
  6
CONTINUOUS
 62
             200
100
AcDbLine
 10
1.0200000000000387
 20
-2.5999999999999943
 30
0.0
 11
1.0200000000000387
 21
-4.0000000000000284
 31
0.0
  0
LINE
  5
103
100
AcDbEntity
  8
0
  6
CONTINUOUS
 62
               4
100
AcDbLine
 10
1.2500000000000568
 20
-2.5999999999999943
 30
0.0
 11
1.2500000000000568
 21
-3.7700000000000102
 31
0.0
  0
LINE
  5
104
100
AcDbEntity
  8
0
  6
CONTINUOUS
 62
               4
100
AcDbLine
 10
-1.2499999999999432
 20
-3.7700000000000387
 30
0.0
 11
1.2500000000000568
 21
-3.7700000000000102
 31
0.0
  0
LINE
  5
105
100
AcDbEntity
  8
0
  6
CONTINUOUS
 62
               4
100
AcDbLine
 10
-1.25
 20
0.4999999999999716
 30
0.0
 11
-1.25
 21
-0.0000000000000284
 31
0.0
  0
LINE
  5
106
100
AcDbEntity
  8
0
  6
CONTINUOUS
 62
             200
100
AcDbLine
 10
-1.0200000000000387
 20
0.4999999999999716
 30
0.0
 11
-1.0199999999999818
 21
-0.0000000000000284
 31
0.0
  0
LINE
  5
107
100
AcDbEntity
  8
0
  6
CONTINUOUS
 62
             200
100
AcDbLine
 10
1.0199999999999818
 20
0.5
 30
0.0
 11
1.0200000000000387
 21
-0.0000000000000284
 31
0.0
  0
LINE
  5
108
100
AcDbEntity
  8
0
  6
CONTINUOUS
 62
               4
100
AcDbLine
 10
1.25
 20
0.5
 30
0.0
 11
1.25
 21
-0.0000000000000284
 31
0.0
  0
LINE
  5
109
100
AcDbEntity
  8
0
  6
CONTINUOUS
 62
               4
100
AcDbLine
 10
-1.25
 20
0.4999999999999716
 30
0.0
 11
1.25
 21
0.5
 31
0.0
  0
LINE
  5
10A
100
AcDbEntity
  8
0
  6
CONTINUOUS
 62
               4
100
AcDbLine
 10
-1.3000000000001251
 20
9.1499999999999773
 30
0.0
 11
-1.3000000000000682
 21
6.8999999999999773
 31
0.0
  0
LINE
  5
10B
100
AcDbEntity
  8
0
  6
CONTINUOUS
 62
               4
100
AcDbLine
 10
1.2999999999998977
 20
10.650000000000006
 30
0.0
 11
1.2999999999999545
 21
6.9000000000000057
 31
0.0
  0
ARC
  5
10C
100
AcDbEntity
  8
0
  6
CONTINUOUS
 62
               4
100
AcDbCircle
 10
0.000000000000014
 20
-2.550000000000014
 30
0.0
 40
2.0499999999999998
100
AcDbArc
 50
180.00000000000031
 51
0.0000000000008651
  0
ENDBLK
  5
10D
100
AcDbEntity
  8
0
100
AcDbBlockEnd
  0
BLOCK
  5
10E
100
AcDbEntity
  8
0
100
AcDbBlockBegin
  2
ZS25SS-3
 70
               0
 10
0.0
 20
0.0
 30
0.0
  3
ZS25SS-3
  1

  0
LINE
  5
10F
100
AcDbEntity
  8
0
  6
CENTER
 62
             200
100
AcDbLine
 10
-1.3199999999999932
 20
0.0
 30
0.0
 11
23.579999999999984
 21
0.0
 31
0.0
  0
LINE
  5
110
100
AcDbEntity
  8
0
  6
CONTINUOUS
 62
               4
100
AcDbLine
 10
0.0
 20
-1.5
 30
0.0
 11
16.560000000000002
 21
-1.5
 31
0.0
  0
LINE
  5
111
100
AcDbEntity
  8
0
  6
CONTINUOUS
 62
               4
100
AcDbLine
 10
0.0
 20
1.5
 30
0.0
 11
16.560000000000002
 21
1.5
 31
0.0
  0
LINE
  5
112
100
AcDbEntity
  8
0
  6
CONTINUOUS
 62
               4
100
AcDbLine
 10
0.0
 20
-2.0499999999999829
 30
0.0
 11
16.910000000000025
 21
-2.0499999999999829
 31
0.0
  0
LINE
  5
113
100
AcDbEntity
  8
0
  6
CONTINUOUS
 62
               4
100
AcDbLine
 10
0.0
 20
2.0499999999999829
 30
0.0
 11
16.910000000000025
 21
2.0499999999999829
 31
0.0
  0
LINE
  5
114
100
AcDbEntity
  8
0
  6
CONTINUOUS
 62
               4
100
AcDbLine
 10
0.0
 20
2.0499999999999829
 30
0.0
 11
0.0
 21
-2.0499999999999829
 31
0.0
  0
LINE
  5
115
100
AcDbEntity
  8
0
  6
CENTER
 62
             200
100
AcDbLine
 10
2.0
 20
2.8300000000000125
 30
0.0
 11
2.0
 21
-2.75
 31
0.0
  0
LINE
  5
116
100
AcDbEntity
  8
0
  6
CONTINUOUS
 62
               4
100
AcDbLine
 10
17.079999999999984
 20
2.25
 30
0.0
 11
22.0
 21
2.25
 31
0.0
  0
LINE
  5
117
100
AcDbEntity
  8
0
  6
CONTINUOUS
 62
               4
100
AcDbLine
 10
17.079999999999984
 20
-2.25
 30
0.0
 11
22.0
 21
-2.25
 31
0.0
  0
LINE
  5
118
100
AcDbEntity
  8
0
  6
CONTINUOUS
 62
               4
100
AcDbLine
 10
22.0
 20
2.25
 30
0.0
 11
22.0
 21
-2.25
 31
0.0
  0
LINE
  5
119
100
AcDbEntity
  8
0
  6
CONTINUOUS
 62
               4
100
AcDbLine
 10
1.3500000000000227
 20
-1.0699999999999932
 30
0.0
 11
3.0699999999999932
 21
0.6400000000000148
 31
0.0
  0
LINE
  5
11A
100
AcDbEntity
  8
0
  6
CONTINUOUS
 62
               4
100
AcDbLine
 10
0.9300000000000068
 20
-0.6400000000000148
 30
0.0
 11
2.6399999999999864
 21
1.0699999999999932
 31
0.0
  0
ARC
  5
11B
100
AcDbEntity
  8
0
  6
CONTINUOUS
 62
               4
100
AcDbCircle
 10
19.5
 20
0.0
 30
0.0
 40
3.3043758866085451
100
AcDbArc
 50
137.08479304050996
 51
222.91520695948927
  0
CIRCLE
  5
11C
100
AcDbEntity
  8
0
  6
CONTINUOUS
 62
               4
100
AcDbCircle
 10
2.0
 20
0.0
 30
0.0
 40
1.25
  0
CIRCLE
  5
11D
100
AcDbEntity
  8
0
  6
CONTINUOUS
 62
               4
100
AcDbCircle
 10
2.0
 20
0.0
 30
0.0
 40
1.3999996185302734
  0
CIRCLE
  5
11E
100
AcDbEntity
  8
0
  6
CONTINUOUS
 62
               4
100
AcDbCircle
 10
19.4073486328125
 20
0.0
 30
0.0
 40
1.2999992370605469
  0
CIRCLE
  5
11F
100
AcDbEntity
  8
0
  6
CONTINUOUS
 62
               4
100
AcDbCircle
 10
19.729156494140625
 20
-0.34100341796875
 30
0.0
 40
0.449999988079071
  0
CIRCLE
  5
120
100
AcDbEntity
  8
0
  6
CONTINUOUS
 62
               4
100
AcDbCircle
 10
19.117279052734375
 20
0.3181533813476563
 30
0.0
 40
0.449999988079071
  0
CIRCLE
  5
121
100
AcDbEntity
  8
0
  6
CONTINUOUS
 62
               4
100
AcDbCircle
 10
19.729156494140625
 20
-0.34100341796875
 30
0.0
 40
0.25
  0
CIRCLE
  5
122
100
AcDbEntity
  8
0
  6
CONTINUOUS
 62
               4
100
AcDbCircle
 10
19.117279052734375
 20
0.3181533813476563
 30
0.0
 40
0.25
  0
ENDBLK
  5
123
100
AcDbEntity
  8
0
100
AcDbBlockEnd
  0
BLOCK
  5
124
100
AcDbEntity
  8
0
100
AcDbBlockBegin
  2
ZS25SS-4
 70
               0
 10
0.0
 20
0.0
 30
0.0
  3
ZS25SS-4
  1

  0
LINE
  5
125
100
AcDbEntity
  8
0
  6
CONTINUOUS
 62
               7
100
AcDbLine
 10
36.5
 20
-22.0
 30
0.0
 11
37.0
 21
-21.5
 31
0.0
  0
LINE
  5
126
100
AcDbEntity
  8
0
  6
CONTINUOUS
 62
               7
100
AcDbLine
 10
36.5
 20
22.0
 30
0.0
 11
37.0
 21
21.5
 31
0.0
  0
LINE
  5
127
100
AcDbEntity
  8
0
  6
CONTINUOUS
 62
               7
100
AcDbLine
 10
37.0
 20
7.0
 30
0.0
 11
36.5
 21
6.5
 31
0.0
  0
LINE
  5
128
100
AcDbEntity
  8
0
  6
CONTINUOUS
 62
               7
100
AcDbLine
 10
37.0
 20
21.5
 30
0.0
 11
37.0
 21
7.0
 31
0.0
  0
LINE
  5
129
100
AcDbEntity
  8
0
  6
CONTINUOUS
 62
               7
100
AcDbLine
 10
37.0
 20
-7.0
 30
0.0
 11
36.5
 21
-6.5
 31
0.0
  0
LINE
  5
12A
100
AcDbEntity
  8
0
  6
CONTINUOUS
 62
               7
100
AcDbLine
 10
37.0
 20
-21.5
 30
0.0
 11
37.0
 21
-7.0
 31
0.0
  0
LINE
  5
12B
100
AcDbEntity
  8
0
  6
CONTINUOUS
 62
               7
100
AcDbLine
 10
0.800000000000523
 20
-59.999999999999986
 30
0.0
 11
32.0
 21
-59.999999999999986
 31
0.0
  0
LINE
  5
12C
100
AcDbEntity
  8
0
  6
CONTINUOUS
 62
               7
100
AcDbLine
 10
0.3000000119213837
 20
-58.300000011920915
 30
0.0
 11
0.0000000000004547
 21
-57.999999999999986
 31
0.0
  0
LINE
  5
12D
100
AcDbEntity
  8
0
  6
CONTINUOUS
 62
               7
100
AcDbLine
 10
0.300000000000523
 20
-59.499999999999986
 30
0.0
 11
0.300000000000523
 21
-58.299999999999983
 31
0.0
  0
ARC
  5
12E
100
AcDbEntity
  8
0
  6
CONTINUOUS
 62
               7
100
AcDbCircle
 10
0.800000000000523
 20
-59.499999999999986
 30
0.0
 40
0.5
100
AcDbArc
 50
179.99999999999963
 51
269.99999999999937
  0
LINE
  5
12F
100
AcDbEntity
  8
0
  6
CONTINUOUS
 62
               7
100
AcDbLine
 10
0.3000000119211563
 20
-46.699999988079725
 30
0.0
 11
0.0000000596048721
 21
-46.999999940396016
 31
0.0
  0
LINE
  5
130
100
AcDbEntity
  8
0
  6
CONTINUOUS
 62
               7
100
AcDbLine
 10
0.0000000000004547
 20
-57.999999999999972
 30
0.0
 11
0.0000000000004547
 21
-46.999999940396016
 31
0.0
  0
LINE
  5
131
100
AcDbEntity
  8
0
  6
CONTINUOUS
 62
               7
100
AcDbLine
 10
0.3000000119211563
 20
-25.300000011921583
 30
0.0
 11
0.0000000000002274
 21
-25.000000000000654
 31
0.0
  0
LINE
  5
132
100
AcDbEntity
  8
0
  6
CONTINUOUS
 62
               7
100
AcDbLine
 10
0.3000000000001819
 20
-46.700000000000657
 30
0.0
 11
0.3000000000001819
 21
-25.300000000000665
 31
0.0
  0
LINE
  5
133
100
AcDbEntity
  8
0
  6
CONTINUOUS
 62
               7
100
AcDbLine
 10
0.3000000119207016
 20
-6.69999998807927
 30
0.0
 11
0.0000000596044174
 21
-6.9999999403955542
 31
0.0
  0
LINE
  5
134
100
AcDbEntity
  8
0
  6
CONTINUOUS
 62
               7
100
AcDbLine
 10
0.0
 20
-25.000000000000654
 30
0.0
 11
0.0
 21
-7.0
 31
0.0
  0
LINE
  5
135
100
AcDbEntity
  8
0
  6
CONTINUOUS
 62
               7
100
AcDbLine
 10
0.3000000119207016
 20
6.69999998807927
 30
0.0
 11
0.0000000596044174
 21
6.9999999403955542
 31
0.0
  0
LINE
  5
136
100
AcDbEntity
  8
0
  6
CONTINUOUS
 62
               7
100
AcDbLine
 10
0.2999999999997272
 20
6.7000000000001876
 30
0.0
 11
0.2999999999997272
 21
-6.7000000000001876
 31
0.0
  0
LINE
  5
137
100
AcDbEntity
  8
0
  6
CONTINUOUS
 62
               7
100
AcDbLine
 10
0.3000000119211563
 20
25.300000011921583
 30
0.0
 11
0.0000000000002274
 21
25.000000000000654
 31
0.0
  0
LINE
  5
138
100
AcDbEntity
  8
0
  6
CONTINUOUS
 62
               7
100
AcDbLine
 10
0.0
 20
25.000000000000654
 30
0.0
 11
0.0
 21
7.0
 31
0.0
  0
LINE
  5
139
100
AcDbEntity
  8
0
  6
CONTINUOUS
 62
               7
100
AcDbLine
 10
0.3000000119211563
 20
46.699999988079725
 30
0.0
 11
0.0000000596048721
 21
46.999999940396009
 31
0.0
  0
LINE
  5
13A
100
AcDbEntity
  8
0
  6
CONTINUOUS
 62
               7
100
AcDbLine
 10
0.3000000000001819
 20
46.700000000000642
 30
0.0
 11
0.3000000000001819
 21
25.300000000000665
 31
0.0
  0
ARC
  5
13B
100
AcDbEntity
  8
0
  6
CONTINUOUS
 62
               7
100
AcDbCircle
 10
0.800000000000523
 20
59.5
 30
0.0
 40
0.5
100
AcDbArc
 50
89.999999999999815
 51
179.99999999999963
  0
LINE
  5
13C
100
AcDbEntity
  8
0
  6
CONTINUOUS
 62
               7
100
AcDbLine
 10
0.300000000000523
 20
59.5
 30
0.0
 11
0.300000000000523
 21
58.299999999999983
 31
0.0
  0
LINE
  5
13D
100
AcDbEntity
  8
0
  6
CONTINUOUS
 62
               7
100
AcDbLine
 10
0.3000000119213837
 20
58.300000011920929
 30
0.0
 11
0.0000000000004547
 21
58.0
 31
0.0
  0
LINE
  5
13E
100
AcDbEntity
  8
0
  6
CONTINUOUS
 62
               7
100
AcDbLine
 10
0.800000000000523
 20
60.0
 30
0.0
 11
6.5000000000005684
 21
60.0
 31
0.0
  0
LINE
  5
13F
100
AcDbEntity
  8
0
  6
CONTINUOUS
 62
               7
100
AcDbLine
 10
0.0000000000004547
 20
57.999999999999972
 30
0.0
 11
0.0000000000004547
 21
46.999999940396009
 31
0.0
  0
LINE
  5
140
100
AcDbEntity
  8
0
  6
CONTINUOUS
 62
               7
100
AcDbLine
 10
12.690598923241453
 20
-37.000000000000597
 30
0.0
 11
13.845299461620698
 21
-39.000000000000597
 31
0.0
  0
LINE
  5
141
100
AcDbEntity
  8
0
  6
CONTINUOUS
 62
               7
100
AcDbLine
 10
12.690598923241453
 20
-37.000000000000597
 30
0.0
 11
13.845299461620698
 21
-35.000000000000597
 31
0.0
  0
LINE
  5
142
100
AcDbEntity
  8
0
  6
CONTINUOUS
 62
               7
100
AcDbLine
 10
16.154700538379188
 20
-35.000000000000597
 30
0.0
 11
17.30940107675849
 21
-37.000000000000597
 31
0.0
  0
LINE
  5
143
100
AcDbEntity
  8
0
  6
CONTINUOUS
 62
               7
100
AcDbLine
 10
13.845299461620698
 20
-35.000000000000597
 30
0.0
 11
16.154700538379188
 21
-35.000000000000597
 31
0.0
  0
LINE
  5
144
100
AcDbEntity
  8
0
  6
CONTINUOUS
 62
               7
100
AcDbLine
 10
16.154700538379188
 20
-39.000000000000597
 30
0.0
 11
17.30940107675849
 21
-37.000000000000597
 31
0.0
  0
LINE
  5
145
100
AcDbEntity
  8
0
  6
CONTINUOUS
 62
               7
100
AcDbLine
 10
13.845299461620698
 20
-39.000000000000597
 30
0.0
 11
16.154700538379188
 21
-39.000000000000597
 31
0.0
  0
CIRCLE
  5
146
100
AcDbEntity
  8
0
  6
CONTINUOUS
 62
               7
100
AcDbCircle
 10
15.0
 20
-37.000000000000597
 30
0.0
 40
4.25
  0
LINE
  5
147
100
AcDbEntity
  8
0
  6
CONTINUOUS
 62
               7
100
AcDbLine
 10
13.845299461620698
 20
39.000000000000597
 30
0.0
 11
16.154700538379188
 21
39.000000000000597
 31
0.0
  0
LINE
  5
148
100
AcDbEntity
  8
0
  6
CONTINUOUS
 62
               7
100
AcDbLine
 10
16.154700538379188
 20
39.000000000000597
 30
0.0
 11
17.30940107675849
 21
37.000000000000597
 31
0.0
  0
LINE
  5
149
100
AcDbEntity
  8
0
  6
CONTINUOUS
 62
               7
100
AcDbLine
 10
13.845299461620698
 20
35.000000000000597
 30
0.0
 11
16.154700538379188
 21
35.000000000000597
 31
0.0
  0
LINE
  5
14A
100
AcDbEntity
  8
0
  6
CONTINUOUS
 62
               7
100
AcDbLine
 10
16.154700538379188
 20
35.000000000000597
 30
0.0
 11
17.30940107675849
 21
37.000000000000597
 31
0.0
  0
LINE
  5
14B
100
AcDbEntity
  8
0
  6
CONTINUOUS
 62
               7
100
AcDbLine
 10
12.690598923241453
 20
37.000000000000597
 30
0.0
 11
13.845299461620698
 21
35.000000000000597
 31
0.0
  0
LINE
  5
14C
100
AcDbEntity
  8
0
  6
CONTINUOUS
 62
               7
100
AcDbLine
 10
12.690598923241453
 20
37.000000000000597
 30
0.0
 11
13.845299461620698
 21
39.000000000000597
 31
0.0
  0
CIRCLE
  5
14D
100
AcDbEntity
  8
0
  6
CONTINUOUS
 62
               7
100
AcDbCircle
 10
15.0
 20
37.000000000000597
 30
0.0
 40
4.25
  0
LINE
  5
14E
100
AcDbEntity
  8
0
  6
CONTINUOUS
 62
               7
100
AcDbLine
 10
1.5
 20
-50.000000000000597
 30
0.0
 11
36.5
 21
-50.000000000000597
 31
0.0
  0
CIRCLE
  5
14F
100
AcDbEntity
  8
0
  6
CONTINUOUS
 62
               7
100
AcDbCircle
 10
9.5
 20
-20.0
 30
0.0
 40
3.2999999999999998
  0
CIRCLE
  5
150
100
AcDbEntity
  8
0
  6
CONTINUOUS
 62
               2
100
AcDbCircle
 10
9.5
 20
-20.0
 30
0.0
 40
4.0
  0
LINE
  5
151
100
AcDbEntity
  8
0
  6
CENTER
 62
               2
100
AcDbLine
 10
15.0
 20
-20.0
 30
0.0
 11
4.0
 21
-20.0
 31
0.0
  0
LINE
  5
152
100
AcDbEntity
  8
0
  6
CENTER
 62
               2
100
AcDbLine
 10
9.5
 20
-14.5
 30
0.0
 11
9.5
 21
-25.5
 31
0.0
  0
LINE
  5
153
100
AcDbEntity
  8
0
  6
CONTINUOUS
 62
               7
100
AcDbLine
 10
1.5
 20
50.000000000000597
 30
0.0
 11
36.5
 21
50.000000000000597
 31
0.0
  0
LINE
  5
154
100
AcDbEntity
  8
0
  6
CONTINUOUS
 62
               7
100
AcDbLine
 10
1.5
 20
50.000000000000597
 30
0.0
 11
1.5
 21
-50.000000000000597
 31
0.0
  0
LINE
  5
155
100
AcDbEntity
  8
0
  6
CONTINUOUS
 62
               7
100
AcDbLine
 10
36.0
 20
-56.0
 30
0.0
 11
32.0
 21
-60.0
 31
0.0
  0
LINE
  5
156
100
AcDbEntity
  8
0
  6
CONTINUOUS
 62
               7
100
AcDbLine
 10
36.0
 20
-50.000000000000597
 30
0.0
 11
36.0
 21
-56.0
 31
0.0
  0
LINE
  5
157
100
AcDbEntity
  8
0
  6
CONTINUOUS
 62
               7
100
AcDbLine
 10
32.386751345948085
 20
-15.0
 30
0.0
 11
30.943375672974014
 21
-12.5
 31
0.0
  0
LINE
  5
158
100
AcDbEntity
  8
0
  6
CONTINUOUS
 62
               7
100
AcDbLine
 10
32.386751345948085
 20
-15.0
 30
0.0
 11
30.943375672974014
 21
-17.5
 31
0.0
  0
LINE
  5
159
100
AcDbEntity
  8
0
  6
CENTER
 62
               2
100
AcDbLine
 10
15.0
 20
-28.000000000000597
 30
0.0
 11
15.0
 21
-46.000000000000597
 31
0.0
  0
LINE
  5
15A
100
AcDbEntity
  8
0
  6
CENTER
 62
               2
100
AcDbLine
 10
24.0
 20
-37.000000000000568
 30
0.0
 11
6.0
 21
-37.000000000000639
 31
0.0
  0
CIRCLE
  5
15B
100
AcDbEntity
  8
0
  6
CONTINUOUS
 62
               7
100
AcDbCircle
 10
15.0
 20
-37.000000000000597
 30
0.0
 40
7.5
  0
LINE
  5
15C
100
AcDbEntity
  8
0
  6
CENTER
 62
               2
100
AcDbLine
 10
29.5
 20
-24.5
 30
0.0
 11
29.5
 21
-35.5
 31
0.0
  0
LINE
  5
15D
100
AcDbEntity
  8
0
  6
CONTINUOUS
 62
               7
100
AcDbLine
 10
26.613248654051858
 20
-15.0
 30
0.0
 11
28.056624327025929
 21
-17.5
 31
0.0
  0
LINE
  5
15E
100
AcDbEntity
  8
0
  6
CONTINUOUS
 62
               7
100
AcDbLine
 10
26.613248654051858
 20
-15.0
 30
0.0
 11
28.056624327025929
 21
-12.5
 31
0.0
  0
CIRCLE
  5
15F
100
AcDbEntity
  8
0
  6
CONTINUOUS
 62
               7
100
AcDbCircle
 10
15.0
 20
-37.000000000000597
 30
0.0
 40
7.0
  0
LINE
  5
160
100
AcDbEntity
  8
0
  6
CONTINUOUS
 62
               7
100
AcDbLine
 10
28.056624327025929
 20
-12.5
 30
0.0
 11
30.943375672974014
 21
-12.5
 31
0.0
  0
LINE
  5
161
100
AcDbEntity
  8
0
  6
CONTINUOUS
 62
               7
100
AcDbLine
 10
28.056624327025929
 20
-17.5
 30
0.0
 11
30.943375672974014
 21
-17.5
 31
0.0
  0
CIRCLE
  5
162
100
AcDbEntity
  8
0
  6
CONTINUOUS
 62
               7
100
AcDbCircle
 10
29.5
 20
-30.0
 30
0.0
 40
3.2999999999999998
  0
CIRCLE
  5
163
100
AcDbEntity
  8
0
  6
CONTINUOUS
 62
               2
100
AcDbCircle
 10
29.5
 20
-30.0
 30
0.0
 40
4.0
  0
LINE
  5
164
100
AcDbEntity
  8
0
  6
CENTER
 62
               2
100
AcDbLine
 10
35.0
 20
-30.0
 30
0.0
 11
24.0
 21
-30.0
 31
0.0
  0
LINE
  5
165
100
AcDbEntity
  8
0
  6
CENTER
 62
               2
100
AcDbLine
 10
36.5
 20
-15.0
 30
0.0
 11
22.5
 21
-15.0
 31
0.0
  0
CIRCLE
  5
166
100
AcDbEntity
  8
0
  6
CONTINUOUS
 62
               7
100
AcDbCircle
 10
29.5
 20
-15.0
 30
0.0
 40
5.5
  0
CIRCLE
  5
167
100
AcDbEntity
  8
0
  6
CONTINUOUS
 62
               7
100
AcDbCircle
 10
29.5
 20
-15.0
 30
0.0
 40
5.0
  0
LINE
  5
168
100
AcDbEntity
  8
0
  6
CENTER
 62
               2
100
AcDbLine
 10
29.5
 20
-8.0
 30
0.0
 11
29.5
 21
-22.0
 31
0.0
  0
CIRCLE
  5
169
100
AcDbEntity
  8
0
  6
CONTINUOUS
 62
               7
100
AcDbCircle
 10
9.5
 20
20.0
 30
0.0
 40
3.2999999999999998
  0
CIRCLE
  5
16A
100
AcDbEntity
  8
0
  6
CONTINUOUS
 62
               2
100
AcDbCircle
 10
9.5
 20
20.0
 30
0.0
 40
4.0
  0
LINE
  5
16B
100
AcDbEntity
  8
0
  6
CENTER
 62
               2
100
AcDbLine
 10
15.0
 20
20.0
 30
0.0
 11
4.0
 21
20.0
 31
0.0
  0
LINE
  5
16C
100
AcDbEntity
  8
0
  6
CENTER
 62
               2
100
AcDbLine
 10
9.5
 20
14.5
 30
0.0
 11
9.5
 21
25.5
 31
0.0
  0
CIRCLE
  5
16D
100
AcDbEntity
  8
0
  6
CONTINUOUS
 62
               7
100
AcDbCircle
 10
15.0
 20
37.000000000000597
 30
0.0
 40
7.0
  0
LINE
  5
16E
100
AcDbEntity
  8
0
  6
CONTINUOUS
 62
               7
100
AcDbLine
 10
26.613248654051858
 20
15.0
 30
0.0
 11
28.056624327025929
 21
12.5
 31
0.0
  0
LINE
  5
16F
100
AcDbEntity
  8
0
  6
CONTINUOUS
 62
               7
100
AcDbLine
 10
32.386751345948085
 20
15.0
 30
0.0
 11
30.943375672974014
 21
12.5
 31
0.0
  0
LINE
  5
170
100
AcDbEntity
  8
0
  6
CONTINUOUS
 62
               7
100
AcDbLine
 10
28.056624327025929
 20
12.5
 30
0.0
 11
30.943375672974014
 21
12.5
 31
0.0
  0
LINE
  5
171
100
AcDbEntity
  8
0
  6
CONTINUOUS
 62
               7
100
AcDbLine
 10
26.613248654051858
 20
15.0
 30
0.0
 11
28.056624327025929
 21
17.5
 31
0.0
  0
LINE
  5
172
100
AcDbEntity
  8
0
  6
CONTINUOUS
 62
               7
100
AcDbLine
 10
32.386751345948085
 20
15.0
 30
0.0
 11
30.943375672974014
 21
17.5
 31
0.0
  0
LINE
  5
173
100
AcDbEntity
  8
0
  6
CONTINUOUS
 62
               7
100
AcDbLine
 10
28.056624327025929
 20
17.5
 30
0.0
 11
30.943375672974014
 21
17.5
 31
0.0
  0
CIRCLE
  5
174
100
AcDbEntity
  8
0
  6
CONTINUOUS
 62
               7
100
AcDbCircle
 10
29.5
 20
30.0
 30
0.0
 40
3.2999999999999998
  0
CIRCLE
  5
175
100
AcDbEntity
  8
0
  6
CONTINUOUS
 62
               2
100
AcDbCircle
 10
29.5
 20
30.0
 30
0.0
 40
4.0
  0
LINE
  5
176
100
AcDbEntity
  8
0
  6
CENTER
 62
               2
100
AcDbLine
 10
35.0
 20
30.0
 30
0.0
 11
24.0
 21
30.0
 31
0.0
  0
LINE
  5
177
100
AcDbEntity
  8
0
  6
CENTER
 62
               2
100
AcDbLine
 10
29.5
 20
24.5
 30
0.0
 11
29.5
 21
35.5
 31
0.0
  0
LINE
  5
178
100
AcDbEntity
  8
0
  6
CONTINUOUS
 62
               7
100
AcDbLine
 10
36.5
 20
50.000000000000597
 30
0.0
 11
36.5
 21
-50.000000000000597
 31
0.0
  0
CIRCLE
  5
179
100
AcDbEntity
  8
0
  6
CONTINUOUS
 62
               7
100
AcDbCircle
 10
15.0
 20
37.000000000000597
 30
0.0
 40
7.5
  0
LINE
  5
17A
100
AcDbEntity
  8
0
  6
CENTER
 62
               2
100
AcDbLine
 10
40.0
 20
0.0
 30
0.0
 11
-3.0
 21
0.0
 31
0.0
  0
LINE
  5
17B
100
AcDbEntity
  8
0
  6
CENTER
 62
               2
100
AcDbLine
 10
36.5
 20
15.0
 30
0.0
 11
22.5
 21
15.0
 31
0.0
  0
LINE
  5
17C
100
AcDbEntity
  8
0
  6
CONTINUOUS
 62
               7
100
AcDbLine
 10
36.0
 20
56.0
 30
0.0
 11
32.0
 21
60.0
 31
0.0
  0
LINE
  5
17D
100
AcDbEntity
  8
0
  6
CONTINUOUS
 62
               7
100
AcDbLine
 10
36.0
 20
50.000000000000597
 30
0.0
 11
36.0
 21
56.0
 31
0.0
  0
LINE
  5
17E
100
AcDbEntity
  8
0
  6
CONTINUOUS
 62
               7
100
AcDbLine
 10
14.074999999999932
 20
55.095000000000596
 30
0.0
 11
13.599999999999909
 21
55.570000000000562
 31
0.0
  0
LINE
  5
17F
100
AcDbEntity
  8
0
  6
CONTINUOUS
 62
               7
100
AcDbLine
 10
13.599999999999909
 20
55.570000000000562
 30
0.0
 11
13.599999999999909
 21
55.80000000000058
 31
0.0
  0
ARC
  5
180
100
AcDbEntity
  8
0
  6
CONTINUOUS
 62
               7
100
AcDbCircle
 10
13.899999999999977
 20
55.80000000000058
 30
0.0
 40
0.3
100
AcDbArc
 50
89.999999999999815
 51
179.99999999999963
  0
LINE
  5
181
100
AcDbEntity
  8
0
  6
CONTINUOUS
 62
               7
100
AcDbLine
 10
14.074999999999932
 20
53.475000000000591
 30
0.0
 11
14.074999999999932
 21
55.095000000000596
 31
0.0
  0
LINE
  5
182
100
AcDbEntity
  8
0
  6
CENTER
 62
               2
100
AcDbLine
 10
12.0
 20
49.899997531017391
 30
0.0
 11
12.0
 21
57.600000000000591
 31
0.0
  0
ARC
  5
183
100
AcDbEntity
  8
0
  6
CONTINUOUS
 62
               7
100
AcDbCircle
 10
12.0
 20
53.475000000000591
 30
0.0
 40
2.0750000000000002
100
AcDbArc
 50
179.99999999999963
 51
0.0
  0
LINE
  5
184
100
AcDbEntity
  8
0
  6
CONTINUOUS
 62
               7
100
AcDbLine
 10
10.399999999999977
 20
55.570000000000562
 30
0.0
 11
10.399999999999977
 21
56.100000000000591
 31
0.0
  0
LINE
  5
185
100
AcDbEntity
  8
0
  6
CONTINUOUS
 62
               7
100
AcDbLine
 10
9.9249999999999545
 20
55.100000000000591
 30
0.0
 11
10.399999999999977
 21
55.575000000000557
 31
0.0
  0
LINE
  5
186
100
AcDbEntity
  8
0
  6
CONTINUOUS
 62
               7
100
AcDbLine
 10
10.399999999999977
 20
56.100000000000591
 30
0.0
 11
6.5000000000005684
 21
60.0
 31
0.0
  0
LINE
  5
187
100
AcDbEntity
  8
0
  6
CONTINUOUS
 62
               7
100
AcDbLine
 10
9.9249999999999545
 20
53.475000000000591
 30
0.0
 11
9.9249999999999545
 21
55.100000000000591
 31
0.0
  0
ARC
  5
188
100
AcDbEntity
  8
0
  6
CONTINUOUS
 62
               7
100
AcDbCircle
 10
16.099999999999909
 20
55.80000000000058
 30
0.0
 40
0.3
100
AcDbArc
 50
0.0
 51
89.999999999999815
  0
LINE
  5
189
100
AcDbEntity
  8
0
  6
CONTINUOUS
 62
               7
100
AcDbLine
 10
16.099999999999909
 20
56.100000000000591
 30
0.0
 11
13.899999999999977
 21
56.100000000000591
 31
0.0
  0
LINE
  5
18A
100
AcDbEntity
  8
0
  6
CONTINUOUS
 62
               7
100
AcDbLine
 10
19.599999999999909
 20
56.100000000000563
 30
0.0
 11
23.499999999999432
 21
60.0
 31
0.0
  0
LINE
  5
18B
100
AcDbEntity
  8
0
  6
CONTINUOUS
 62
               7
100
AcDbLine
 10
20.074999999999932
 20
55.100000000000563
 30
0.0
 11
19.599999999999909
 21
55.575000000000557
 31
0.0
  0
LINE
  5
18C
100
AcDbEntity
  8
0
  6
CONTINUOUS
 62
               7
100
AcDbLine
 10
32.0
 20
60.0
 30
0.0
 11
23.499999999999432
 21
60.0
 31
0.0
  0
LINE
  5
18D
100
AcDbEntity
  8
0
  6
CONTINUOUS
 62
               7
100
AcDbLine
 10
15.924999999999955
 20
53.475000000000591
 30
0.0
 11
15.924999999999955
 21
55.095000000000596
 31
0.0
  0
LINE
  5
18E
100
AcDbEntity
  8
0
  6
CONTINUOUS
 62
               7
100
AcDbLine
 10
20.074999999999932
 20
53.475000000000563
 30
0.0
 11
20.074999999999932
 21
55.100000000000563
 31
0.0
  0
LINE
  5
18F
100
AcDbEntity
  8
0
  6
CONTINUOUS
 62
               7
100
AcDbLine
 10
16.399999999999977
 20
55.570000000000562
 30
0.0
 11
16.399999999999977
 21
55.80000000000058
 31
0.0
  0
LINE
  5
190
100
AcDbEntity
  8
0
  6
CONTINUOUS
 62
               7
100
AcDbLine
 10
15.924999999999955
 20
55.095000000000596
 30
0.0
 11
16.399999999999977
 21
55.570000000000562
 31
0.0
  0
LINE
  5
191
100
AcDbEntity
  8
0
  6
CONTINUOUS
 62
               7
100
AcDbLine
 10
19.599999999999909
 20
55.570000000000562
 30
0.0
 11
19.599999999999909
 21
56.100000000000563
 31
0.0
  0
ARC
  5
192
100
AcDbEntity
  8
0
  6
CONTINUOUS
 62
               7
100
AcDbCircle
 10
18.0
 20
53.475000000000591
 30
0.0
 40
2.0750000000000002
100
AcDbArc
 50
179.99999999999963
 51
0.0
  0
LINE
  5
193
100
AcDbEntity
  8
0
  6
CENTER
 62
               2
100
AcDbLine
 10
18.0
 20
49.899997531017391
 30
0.0
 11
18.0
 21
57.600000000000591
 31
0.0
  0
LINE
  5
194
100
AcDbEntity
  8
0
  6
CENTER
 62
               2
100
AcDbLine
 10
21.56000596548256
 20
53.475000000000563
 30
0.0
 11
8.4399940345173263
 21
53.475000000000591
 31
0.0
  0
CIRCLE
  5
195
100
AcDbEntity
  8
0
  6
CONTINUOUS
 62
               7
100
AcDbCircle
 10
29.5
 20
15.0
 30
0.0
 40
5.5
  0
CIRCLE
  5
196
100
AcDbEntity
  8
0
  6
CONTINUOUS
 62
               7
100
AcDbCircle
 10
29.5
 20
15.0
 30
0.0
 40
5.0
  0
LINE
  5
197
100
AcDbEntity
  8
0
  6
CENTER
 62
               2
100
AcDbLine
 10
29.5
 20
8.0
 30
0.0
 11
29.5
 21
22.0
 31
0.0
  0
LINE
  5
198
100
AcDbEntity
  8
0
  6
CENTER
 62
               2
100
AcDbLine
 10
24.0
 20
37.000000000000568
 30
0.0
 11
6.0
 21
37.000000000000654
 31
0.0
  0
LINE
  5
199
100
AcDbEntity
  8
0
  6
CENTER
 62
               2
100
AcDbLine
 10
15.0
 20
28.000000000000597
 30
0.0
 11
15.0
 21
46.000000000000597
 31
0.0
  0
LINE
  5
19A
100
AcDbEntity
  8
0
  6
CONTINUOUS
 62
               4
100
AcDbLine
 10
36.5
 20
-23.5
 30
0.0
 11
49.5
 21
-23.5
 31
0.0
  0
LINE
  5
19B
100
AcDbEntity
  8
0
  6
CONTINUOUS
 62
               4
100
AcDbLine
 10
37.0
 20
22.0
 30
0.0
 11
36.5
 21
22.0
 31
0.0
  0
LINE
  5
19C
100
AcDbEntity
  8
0
  6
CONTINUOUS
 62
               4
100
AcDbLine
 10
53.0
 20
-38.0
 30
0.0
 11
53.0
 21
-21.959638711273911
 31
0.0
  0
LINE
  5
19D
100
AcDbEntity
  8
0
  6
CENTER
 62
             200
100
AcDbLine
 10
45.0
 20
-22.0
 30
0.0
 11
45.0
 21
-37.0
 31
0.0
  0
ARC
  5
19E
100
AcDbEntity
  8
0
  6
CONTINUOUS
 62
               4
100
AcDbCircle
 10
45.0
 20
-29.5
 30
0.0
 40
6.0
100
AcDbArc
 50
318.5903778907284
 51
41.409622109270778
  0
ARC
  5
19F
100
AcDbEntity
  8
0
  6
CONTINUOUS
 62
               4
100
AcDbCircle
 10
45.0
 20
-29.5
 30
0.0
 40
5.2999999999999998
100
AcDbArc
 50
328.10920819815362
 51
31.890791801845619
  0
ARC
  5
1A0
100
AcDbEntity
  8
0
  6
CONTINUOUS
 62
               4
100
AcDbCircle
 10
35.5
 20
-23.5
 30
0.0
 40
1.5
100
AcDbArc
 50
0.0
 51
48.189685104221432
  0
LINE
  5
1A1
100
AcDbEntity
  8
0
  6
CONTINUOUS
 62
               4
100
AcDbLine
 10
37.0
 20
22.0
 30
0.0
 11
53.0
 21
-21.959638711273897
 31
0.0
  0
LINE
  5
1A2
100
AcDbEntity
  8
0
  6
CONTINUOUS
 62
               4
100
AcDbLine
 10
49.5
 20
-23.5
 30
0.0
 11
49.5
 21
-56.499999999999986
 31
0.0
  0
LINE
  5
1A3
100
AcDbEntity
  8
0
  6
CENTER
 62
             200
100
AcDbLine
 10
52.5
 20
-29.5
 30
0.0
 11
37.5
 21
-29.5
 31
0.0
  0
LINE
  5
1A4
100
AcDbEntity
  8
0
  6
CONTINUOUS
 62
               4
100
AcDbLine
 10
49.5
 20
-38.0
 30
0.0
 11
53.0
 21
-38.0
 31
0.0
  0
LINE
  5
1A5
100
AcDbEntity
  8
0
  6
CONTINUOUS
 62
               4
100
AcDbLine
 10
49.5
 20
-56.499999999999986
 30
0.0
 11
35.5
 21
-56.499999999999986
 31
0.0
  0
LINE
  5
1A6
100
AcDbEntity
  8
0
  6
CENTER
 62
             200
100
AcDbLine
 10
51.0
 20
-49.999999999999986
 30
0.0
 11
34.5
 21
-49.999999999999986
 31
0.0
  0
ENDBLK
  5
1A7
100
AcDbEntity
  8
0
100
AcDbBlockEnd
  0
BLOCK
  5
1A8
100
AcDbEntity
  8
0
100
AcDbBlockBegin
  2
ZS25SS-5
 70
               0
 10
0.0
 20
0.0
 30
0.0
  3
ZS25SS-5
  1

  0
LINE
  5
1A9
100
AcDbEntity
  8
0
  6
CONTINUOUS
 62
               7
100
AcDbLine
 10
-35.5
 20
-23.5
 30
0.0
 11
-22.615773105862786
 21
-23.5
 31
0.0
  0
LINE
  5
1AA
100
AcDbEntity
  8
0
  6
CONTINUOUS
 62
               4
100
AcDbLine
 10
-36.5
 20
22.0
 30
0.0
 11
-36.5
 21
-22.0
 31
0.0
  0
ARC
  5
1AB
100
AcDbEntity
  8
0
  6
CONTINUOUS
 62
               7
100
AcDbCircle
 10
-35.5
 20
-24.0
 30
0.0
 40
0.5
100
AcDbArc
 50
89.999999999999815
 51
179.99999999999963
  0
ARC
  5
1AC
100
AcDbEntity
  8
0
  6
CONTINUOUS
 62
               7
100
AcDbCircle
 10
-35.5
 20
24.0
 30
0.0
 40
0.5
100
AcDbArc
 50
179.99999999999963
 51
269.99999999999937
  0
ARC
  5
1AD
100
AcDbEntity
  8
0
  6
CONTINUOUS
 62
               7
100
AcDbCircle
 10
-15.0
 20
37.000000000000597
 30
0.0
 40
15.5
100
AcDbArc
 50
240.57129282313699
 51
255.40744939797477
  0
LINE
  5
1AE
100
AcDbEntity
  8
0
  6
CONTINUOUS
 62
               7
100
AcDbLine
 10
-35.5
 20
23.5
 30
0.0
 11
-22.615773105862786
 21
23.5
 31
0.0
  0
LINE
  5
1AF
100
AcDbEntity
  8
0
  6
CONTINUOUS
 62
               7
100
AcDbLine
 10
-36.0
 20
-24.0
 30
0.0
 11
-36.0
 21
-56.000000000000014
 31
0.0
  0
LINE
  5
1B0
100
AcDbEntity
  8
0
  6
CONTINUOUS
 62
               4
100
AcDbLine
 10
-37.0
 20
-23.5
 30
0.0
 11
-35.5
 21
-23.5
 31
0.0
  0
LINE
  5
1B1
100
AcDbEntity
  8
0
  6
CONTINUOUS
 62
               4
100
AcDbLine
 10
-37.0
 20
22.0
 30
0.0
 11
-1.5
 21
22.0
 31
0.0
  0
LINE
  5
1B2
100
AcDbEntity
  8
0
  6
CONTINUOUS
 62
               4
100
AcDbLine
 10
-37.0
 20
22.0
 30
0.0
 11
-53.0
 21
-21.959638711273897
 31
0.0
  0
LINE
  5
1B3
100
AcDbEntity
  8
0
  6
CONTINUOUS
 62
               4
100
AcDbLine
 10
-53.0
 20
-38.0
 30
0.0
 11
-53.0
 21
-21.959638711273911
 31
0.0
  0
LINE
  5
1B4
100
AcDbEntity
  8
0
  6
CONTINUOUS
 62
               4
100
AcDbLine
 10
-37.0
 20
-38.0
 30
0.0
 11
-53.0
 21
-38.0
 31
0.0
  0
LINE
  5
1B5
100
AcDbEntity
  8
0
  6
CONTINUOUS
 62
               4
100
AcDbLine
 10
-49.5
 20
-38.0
 30
0.0
 11
-49.5
 21
-56.499999999999986
 31
0.0
  0
LINE
  5
1B6
100
AcDbEntity
  8
0
  6
CENTER
 62
             200
100
AcDbLine
 10
-51.0
 20
-49.999999999999986
 30
0.0
 11
-34.5
 21
-49.999999999999986
 31
0.0
  0
LINE
  5
1B7
100
AcDbEntity
  8
0
  6
CONTINUOUS
 62
               4
100
AcDbLine
 10
-49.5
 20
-56.499999999999986
 30
0.0
 11
-35.5
 21
-56.499999999999986
 31
0.0
  0
LINE
  5
1B8
100
AcDbEntity
  8
0
  6
CONTINUOUS
 62
               4
100
AcDbLine
 10
-37.0
 20
-23.5
 30
0.0
 11
-37.0
 21
-38.0
 31
0.0
  0
LINE
  5
1B9
100
AcDbEntity
  8
0
  6
CONTINUOUS
 62
               4
100
AcDbLine
 10
-1.5
 20
-22.0
 30
0.0
 11
-1.5
 21
22.0
 31
0.0
  0
LINE
  5
1BA
100
AcDbEntity
  8
0
  6
CONTINUOUS
 62
               4
100
AcDbLine
 10
-36.5
 20
-22.0
 30
0.0
 11
-1.5
 21
-22.0
 31
0.0
  0
LINE
  5
1BB
100
AcDbEntity
  8
0
  6
CENTER
 62
             200
100
AcDbLine
 10
-8.5
 20
8.0
 30
0.0
 11
-8.5
 21
22.0
 31
0.0
  0
CIRCLE
  5
1BC
100
AcDbEntity
  8
0
  6
CONTINUOUS
 62
               4
100
AcDbCircle
 10
-8.5
 20
15.0
 30
0.0
 40
5.0
  0
CIRCLE
  5
1BD
100
AcDbEntity
  8
0
  6
CONTINUOUS
 62
               4
100
AcDbCircle
 10
-8.5
 20
15.0
 30
0.0
 40
5.5
  0
LINE
  5
1BE
100
AcDbEntity
  8
0
  6
CENTER
 62
             200
100
AcDbLine
 10
-15.5
 20
15.0
 30
0.0
 11
-1.5
 21
15.0
 31
0.0
  0
LINE
  5
1BF
100
AcDbEntity
  8
0
  6
CONTINUOUS
 62
               4
100
AcDbLine
 10
-7.0566243270259292
 20
17.5
 30
0.0
 11
-9.9433756729740708
 21
17.5
 31
0.0
  0
LINE
  5
1C0
100
AcDbEntity
  8
0
  6
CONTINUOUS
 62
               4
100
AcDbLine
 10
-11.386751345948142
 20
15.0
 30
0.0
 11
-9.9433756729740708
 21
17.5
 31
0.0
  0
LINE
  5
1C1
100
AcDbEntity
  8
0
  6
CONTINUOUS
 62
               4
100
AcDbLine
 10
-5.6132486540518585
 20
15.0
 30
0.0
 11
-7.0566243270259292
 21
17.5
 31
0.0
  0
LINE
  5
1C2
100
AcDbEntity
  8
0
  6
CONTINUOUS
 62
               4
100
AcDbLine
 10
-7.0566243270259292
 20
12.5
 30
0.0
 11
-9.9433756729740708
 21
12.5
 31
0.0
  0
LINE
  5
1C3
100
AcDbEntity
  8
0
  6
CONTINUOUS
 62
               4
100
AcDbLine
 10
-11.386751345948142
 20
15.0
 30
0.0
 11
-9.9433756729740708
 21
12.5
 31
0.0
  0
LINE
  5
1C4
100
AcDbEntity
  8
0
  6
CONTINUOUS
 62
               4
100
AcDbLine
 10
-5.6132486540518585
 20
15.0
 30
0.0
 11
-7.0566243270259292
 21
12.5
 31
0.0
  0
LINE
  5
1C5
100
AcDbEntity
  8
0
  6
CENTER
 62
             200
100
AcDbLine
 10
-8.5
 20
-8.0
 30
0.0
 11
-8.5
 21
-22.0
 31
0.0
  0
CIRCLE
  5
1C6
100
AcDbEntity
  8
0
  6
CONTINUOUS
 62
               4
100
AcDbCircle
 10
-8.5
 20
-15.0
 30
0.0
 40
5.0
  0
CIRCLE
  5
1C7
100
AcDbEntity
  8
0
  6
CONTINUOUS
 62
               4
100
AcDbCircle
 10
-8.5
 20
-15.0
 30
0.0
 40
5.5
  0
LINE
  5
1C8
100
AcDbEntity
  8
0
  6
CENTER
 62
             200
100
AcDbLine
 10
-15.5
 20
-15.0
 30
0.0
 11
-1.5
 21
-15.0
 31
0.0
  0
LINE
  5
1C9
100
AcDbEntity
  8
0
  6
CONTINUOUS
 62
               4
100
AcDbLine
 10
-11.386751345948142
 20
-15.0
 30
0.0
 11
-9.9433756729740708
 21
-17.5
 31
0.0
  0
LINE
  5
1CA
100
AcDbEntity
  8
0
  6
CONTINUOUS
 62
               4
100
AcDbLine
 10
-11.386751345948142
 20
-15.0
 30
0.0
 11
-9.9433756729740708
 21
-12.5
 31
0.0
  0
LINE
  5
1CB
100
AcDbEntity
  8
0
  6
CONTINUOUS
 62
               4
100
AcDbLine
 10
-5.6132486540518585
 20
-15.0
 30
0.0
 11
-7.0566243270259292
 21
-12.5
 31
0.0
  0
LINE
  5
1CC
100
AcDbEntity
  8
0
  6
CONTINUOUS
 62
               4
100
AcDbLine
 10
-7.0566243270259292
 20
-12.5
 30
0.0
 11
-9.9433756729740708
 21
-12.5
 31
0.0
  0
LINE
  5
1CD
100
AcDbEntity
  8
0
  6
CONTINUOUS
 62
               4
100
AcDbLine
 10
-5.6132486540518585
 20
-15.0
 30
0.0
 11
-7.0566243270259292
 21
-17.5
 31
0.0
  0
LINE
  5
1CE
100
AcDbEntity
  8
0
  6
CONTINUOUS
 62
               4
100
AcDbLine
 10
-7.0566243270259292
 20
-17.5
 30
0.0
 11
-9.9433756729740708
 21
-17.5
 31
0.0
  0
ARC
  5
1CF
100
AcDbEntity
  8
0
  6
CONTINUOUS
 62
               7
100
AcDbCircle
 10
-15.0
 20
-37.000000000000597
 30
0.0
 40
15.5
100
AcDbArc
 50
104.59255060202443
 51
119.42870717686225
  0
LINE
  5
1D0
100
AcDbEntity
  8
0
  6
CENTER
 62
             200
100
AcDbLine
 10
-27.5
 20
9.5999999999999943
 30
0.0
 11
-27.5
 21
-9.5999999999999943
 31
0.0
  0
CIRCLE
  5
1D1
100
AcDbEntity
  8
0
  6
CONTINUOUS
 62
               4
100
AcDbCircle
 10
-27.5
 20
0.0
 30
0.0
 40
7.0
  0
LINE
  5
1D2
100
AcDbEntity
  8
0
  6
CONTINUOUS
 62
               4
100
AcDbLine
 10
-31.54145188432733
 20
7.0
 30
0.0
 11
-35.582903768654774
 21
0.0
 31
0.0
  0
LINE
  5
1D3
100
AcDbEntity
  8
0
  6
CONTINUOUS
 62
               4
100
AcDbLine
 10
-23.45854811567267
 20
7.0
 30
0.0
 11
-19.417096231345226
 21
0.0
 31
0.0
  0
LINE
  5
1D4
100
AcDbEntity
  8
0
  6
CONTINUOUS
 62
               4
100
AcDbLine
 10
-23.45854811567267
 20
-7.0
 30
0.0
 11
-19.417096231345226
 21
0.0
 31
0.0
  0
LINE
  5
1D5
100
AcDbEntity
  8
0
  6
CONTINUOUS
 62
               4
100
AcDbLine
 10
-31.54145188432733
 20
-7.0
 30
0.0
 11
-35.582903768654774
 21
0.0
 31
0.0
  0
LINE
  5
1D6
100
AcDbEntity
  8
0
  6
CONTINUOUS
 62
               4
100
AcDbLine
 10
-23.45854811567267
 20
7.0
 30
0.0
 11
-31.54145188432733
 21
7.0
 31
0.0
  0
LINE
  5
1D7
100
AcDbEntity
  8
0
  6
CONTINUOUS
 62
               4
100
AcDbLine
 10
-23.45854811567267
 20
-7.0
 30
0.0
 11
-31.54145188432733
 21
-7.0
 31
0.0
  0
LINE
  5
1D8
100
AcDbEntity
  8
0
  6
CENTER
 62
             200
100
AcDbLine
 10
-45.0
 20
-19.900000000000006
 30
0.0
 11
-45.0
 21
-39.099999999999994
 31
0.0
  0
CIRCLE
  5
1D9
100
AcDbEntity
  8
0
  6
CONTINUOUS
 62
               4
100
AcDbCircle
 10
-45.0
 20
-29.5
 30
0.0
 40
7.0
  0
LINE
  5
1DA
100
AcDbEntity
  8
0
  6
CENTER
 62
             200
100
AcDbLine
 10
-54.600000000000023
 20
-29.5
 30
0.0
 11
-35.399999999999977
 21
-29.5
 31
0.0
  0
LINE
  5
1DB
100
AcDbEntity
  8
0
  6
CONTINUOUS
 62
               4
100
AcDbLine
 10
-49.04145188432733
 20
-22.5
 30
0.0
 11
-53.082903768654774
 21
-29.5
 31
0.0
  0
LINE
  5
1DC
100
AcDbEntity
  8
0
  6
CONTINUOUS
 62
               4
100
AcDbLine
 10
-40.95854811567267
 20
-22.5
 30
0.0
 11
-36.917096231345226
 21
-29.5
 31
0.0
  0
LINE
  5
1DD
100
AcDbEntity
  8
0
  6
CONTINUOUS
 62
               4
100
AcDbLine
 10
-40.95854811567267
 20
-36.5
 30
0.0
 11
-36.917096231345226
 21
-29.5
 31
0.0
  0
LINE
  5
1DE
100
AcDbEntity
  8
0
  6
CONTINUOUS
 62
               4
100
AcDbLine
 10
-49.04145188432733
 20
-36.5
 30
0.0
 11
-53.082903768654774
 21
-29.5
 31
0.0
  0
LINE
  5
1DF
100
AcDbEntity
  8
0
  6
CONTINUOUS
 62
               4
100
AcDbLine
 10
-40.95854811567267
 20
-36.5
 30
0.0
 11
-49.04145188432733
 21
-36.5
 31
0.0
  0
LINE
  5
1E0
100
AcDbEntity
  8
0
  6
CONTINUOUS
 62
               4
100
AcDbLine
 10
-40.95854811567267
 20
-22.5
 30
0.0
 11
-49.04145188432733
 21
-22.5
 31
0.0
  0
LINE
  5
1E1
100
AcDbEntity
  8
0
  6
CONTINUOUS
 62
               7
100
AcDbLine
 10
-36.5
 20
50.000000000000597
 30
0.0
 11
-36.5
 21
22.0
 31
0.0
  0
LINE
  5
1E2
100
AcDbEntity
  8
0
  6
CONTINUOUS
 62
               7
100
AcDbLine
 10
-36.0
 20
24.0
 30
0.0
 11
-36.0
 21
30.500000000000568
 31
0.0
  0
LINE
  5
1E3
100
AcDbEntity
  8
0
  6
CONTINUOUS
 62
               7
100
AcDbLine
 10
-36.0
 20
50.000000000000597
 30
0.0
 11
-36.5
 21
50.000000000000597
 31
0.0
  0
ARC
  5
1E4
100
AcDbEntity
  8
0
  6
CONTINUOUS
 62
               7
100
AcDbCircle
 10
-0.800000000000523
 20
-59.499999999999986
 30
0.0
 40
0.5
100
AcDbArc
 50
270.00000000000023
 51
0.0
  0
LINE
  5
1E5
100
AcDbEntity
  8
0
  6
CONTINUOUS
 62
               7
100
AcDbLine
 10
-0.300000000000523
 20
-59.499999999999986
 30
0.0
 11
-0.300000000000523
 21
-58.299999999999969
 31
0.0
  0
LINE
  5
1E6
100
AcDbEntity
  8
0
  6
CONTINUOUS
 62
               7
100
AcDbLine
 10
-0.800000000000523
 20
-59.999999999999986
 30
0.0
 11
-32.0
 21
-59.999999999999986
 31
0.0
  0
LINE
  5
1E7
100
AcDbEntity
  8
0
  6
CONTINUOUS
 62
               7
100
AcDbLine
 10
-0.3000000119214974
 20
-58.300000011920915
 30
0.0
 11
-0.0000000000005684
 21
-57.999999999999986
 31
0.0
  0
LINE
  5
1E8
100
AcDbEntity
  8
0
  6
CONTINUOUS
 62
               7
100
AcDbLine
 10
-0.3000000119211563
 20
-46.699999988079725
 30
0.0
 11
-0.0000000596048721
 21
-46.999999940396023
 31
0.0
  0
LINE
  5
1E9
100
AcDbEntity
  8
0
  6
CONTINUOUS
 62
               7
100
AcDbLine
 10
-0.0000000000005684
 20
-57.999999999999957
 30
0.0
 11
-0.0000000000004547
 21
-46.999999940396023
 31
0.0
  0
LINE
  5
1EA
100
AcDbEntity
  8
0
  6
CONTINUOUS
 62
               7
100
AcDbLine
 10
-0.3000000119211563
 20
-25.300000011921597
 30
0.0
 11
-0.0000000000002274
 21
-25.000000000000668
 31
0.0
  0
LINE
  5
1EB
100
AcDbEntity
  8
0
  6
CONTINUOUS
 62
               7
100
AcDbLine
 10
-0.3000000000002956
 20
-46.700000000000657
 30
0.0
 11
-0.3000000000002956
 21
-25.300000000000679
 31
0.0
  0
LINE
  5
1EC
100
AcDbEntity
  8
0
  6
CONTINUOUS
 62
               7
100
AcDbLine
 10
-0.3000000119207016
 20
-6.6999999880792558
 30
0.0
 11
-0.0000000596044174
 21
-6.9999999403955542
 31
0.0
  0
LINE
  5
1ED
100
AcDbEntity
  8
0
  6
CONTINUOUS
 62
               7
100
AcDbLine
 10
0.0
 20
-25.000000000000668
 30
0.0
 11
0.0
 21
-7.0
 31
0.0
  0
LINE
  5
1EE
100
AcDbEntity
  8
0
  6
CONTINUOUS
 62
               7
100
AcDbLine
 10
-0.3000000119207016
 20
6.6999999880792558
 30
0.0
 11
-0.0000000596044174
 21
6.9999999403955542
 31
0.0
  0
LINE
  5
1EF
100
AcDbEntity
  8
0
  6
CONTINUOUS
 62
               7
100
AcDbLine
 10
-0.2999999999998408
 20
6.7000000000002018
 30
0.0
 11
-0.2999999999998408
 21
-6.7000000000001876
 31
0.0
  0
LINE
  5
1F0
100
AcDbEntity
  8
0
  6
CONTINUOUS
 62
               7
100
AcDbLine
 10
-0.3000000119214974
 20
58.300000011920929
 30
0.0
 11
-0.0000000000005684
 21
58.0
 31
0.0
  0
LINE
  5
1F1
100
AcDbEntity
  8
0
  6
CONTINUOUS
 62
               7
100
AcDbLine
 10
-0.300000000000523
 20
59.5
 30
0.0
 11
-0.300000000000523
 21
58.299999999999983
 31
0.0
  0
ARC
  5
1F2
100
AcDbEntity
  8
0
  6
CONTINUOUS
 62
               7
100
AcDbCircle
 10
-0.800000000000523
 20
59.5
 30
0.0
 40
0.5
100
AcDbArc
 50
0.0
 51
89.999999999999815
  0
LINE
  5
1F3
100
AcDbEntity
  8
0
  6
CONTINUOUS
 62
               7
100
AcDbLine
 10
-0.800000000000523
 20
60.0
 30
0.0
 11
-6.5000000000005684
 21
60.0
 31
0.0
  0
LINE
  5
1F4
100
AcDbEntity
  8
0
  6
CONTINUOUS
 62
               7
100
AcDbLine
 10
-0.0000000000005684
 20
57.999999999999972
 30
0.0
 11
-0.0000000000004547
 21
46.999999940396009
 31
0.0
  0
CIRCLE
  5
1F5
100
AcDbEntity
  8
0
  6
CONTINUOUS
 62
               7
100
AcDbCircle
 10
-15.0
 20
37.000000000000597
 30
0.0
 40
13.0
  0
LINE
  5
1F6
100
AcDbEntity
  8
0
  6
CENTER
 62
               2
100
AcDbLine
 10
-15.0
 20
21.900000000000603
 30
0.0
 11
-15.0
 21
52.100000000000591
 31
0.0
  0
LINE
  5
1F7
100
AcDbEntity
  8
0
  6
CENTER
 62
               2
100
AcDbLine
 10
-30.100000000000023
 20
37.00000000000054
 30
0.0
 11
0.1000000000000227
 21
37.000000000000654
 31
0.0
  0
LINE
  5
1F8
100
AcDbEntity
  8
0
  6
CONTINUOUS
 62
               7
100
AcDbLine
 10
-0.3000000119211563
 20
46.699999988079725
 30
0.0
 11
-0.0000000596048721
 21
46.999999940396009
 31
0.0
  0
LINE
  5
1F9
100
AcDbEntity
  8
0
  6
CONTINUOUS
 62
               7
100
AcDbLine
 10
-0.3000000119211563
 20
25.300000011921583
 30
0.0
 11
-0.0000000000002274
 21
25.000000000000654
 31
0.0
  0
LINE
  5
1FA
100
AcDbEntity
  8
0
  6
CONTINUOUS
 62
               7
100
AcDbLine
 10
-0.3000000000002956
 20
46.700000000000642
 30
0.0
 11
-0.3000000000002956
 21
25.300000000000665
 31
0.0
  0
LINE
  5
1FB
100
AcDbEntity
  8
0
  6
CENTER
 62
               2
100
AcDbLine
 10
-21.56000596548256
 20
53.475000000000563
 30
0.0
 11
-8.43999403451744
 21
53.475000000000591
 31
0.0
  0
LINE
  5
1FC
100
AcDbEntity
  8
0
  6
CENTER
 62
               2
100
AcDbLine
 10
-18.0
 20
49.899997531017391
 30
0.0
 11
-18.0
 21
57.600000000000591
 31
0.0
  0
ARC
  5
1FD
100
AcDbEntity
  8
0
  6
CONTINUOUS
 62
               7
100
AcDbCircle
 10
-18.0
 20
53.475000000000591
 30
0.0
 40
2.0750000000000002
100
AcDbArc
 50
179.99999999999963
 51
0.0
  0
LINE
  5
1FE
100
AcDbEntity
  8
0
  6
CONTINUOUS
 62
               7
100
AcDbLine
 10
-19.600000000000023
 20
55.570000000000562
 30
0.0
 11
-19.600000000000023
 21
56.100000000000563
 31
0.0
  0
LINE
  5
1FF
100
AcDbEntity
  8
0
  6
CONTINUOUS
 62
               7
100
AcDbLine
 10
-15.925000000000068
 20
55.095000000000596
 30
0.0
 11
-16.399999999999977
 21
55.570000000000562
 31
0.0
  0
LINE
  5
200
100
AcDbEntity
  8
0
  6
CONTINUOUS
 62
               7
100
AcDbLine
 10
-16.399999999999977
 20
55.570000000000562
 30
0.0
 11
-16.399999999999977
 21
55.80000000000058
 31
0.0
  0
LINE
  5
201
100
AcDbEntity
  8
0
  6
CONTINUOUS
 62
               7
100
AcDbLine
 10
-20.074999999999932
 20
53.475000000000563
 30
0.0
 11
-20.074999999999932
 21
55.100000000000563
 31
0.0
  0
LINE
  5
202
100
AcDbEntity
  8
0
  6
CONTINUOUS
 62
               7
100
AcDbLine
 10
-15.925000000000068
 20
53.475000000000591
 30
0.0
 11
-15.925000000000068
 21
55.095000000000596
 31
0.0
  0
LINE
  5
203
100
AcDbEntity
  8
0
  6
CONTINUOUS
 62
               7
100
AcDbLine
 10
-32.0
 20
60.0
 30
0.0
 11
-23.499999999999432
 21
60.0
 31
0.0
  0
LINE
  5
204
100
AcDbEntity
  8
0
  6
CONTINUOUS
 62
               7
100
AcDbLine
 10
-20.074999999999932
 20
55.100000000000563
 30
0.0
 11
-19.600000000000023
 21
55.575000000000557
 31
0.0
  0
LINE
  5
205
100
AcDbEntity
  8
0
  6
CONTINUOUS
 62
               7
100
AcDbLine
 10
-19.600000000000023
 20
56.100000000000563
 30
0.0
 11
-23.499999999999432
 21
60.0
 31
0.0
  0
LINE
  5
206
100
AcDbEntity
  8
0
  6
CONTINUOUS
 62
               7
100
AcDbLine
 10
-16.100000000000023
 20
56.100000000000591
 30
0.0
 11
-13.899999999999977
 21
56.100000000000591
 31
0.0
  0
ARC
  5
207
100
AcDbEntity
  8
0
  6
CONTINUOUS
 62
               7
100
AcDbCircle
 10
-16.100000000000023
 20
55.80000000000058
 30
0.0
 40
0.3
100
AcDbArc
 50
89.999999999999815
 51
179.99999999999963
  0
LINE
  5
208
100
AcDbEntity
  8
0
  6
CONTINUOUS
 62
               7
100
AcDbLine
 10
-9.9250000000000682
 20
53.475000000000591
 30
0.0
 11
-9.9250000000000682
 21
55.100000000000591
 31
0.0
  0
LINE
  5
209
100
AcDbEntity
  8
0
  6
CONTINUOUS
 62
               7
100
AcDbLine
 10
-10.399999999999977
 20
56.100000000000591
 30
0.0
 11
-6.5000000000005684
 21
60.0
 31
0.0
  0
LINE
  5
20A
100
AcDbEntity
  8
0
  6
CONTINUOUS
 62
               7
100
AcDbLine
 10
-9.9250000000000682
 20
55.100000000000591
 30
0.0
 11
-10.399999999999977
 21
55.575000000000557
 31
0.0
  0
LINE
  5
20B
100
AcDbEntity
  8
0
  6
CONTINUOUS
 62
               7
100
AcDbLine
 10
-10.399999999999977
 20
55.570000000000562
 30
0.0
 11
-10.399999999999977
 21
56.100000000000591
 31
0.0
  0
ARC
  5
20C
100
AcDbEntity
  8
0
  6
CONTINUOUS
 62
               7
100
AcDbCircle
 10
-12.0
 20
53.475000000000591
 30
0.0
 40
2.0750000000000002
100
AcDbArc
 50
180.00000000000037
 51
0.0
  0
LINE
  5
20D
100
AcDbEntity
  8
0
  6
CENTER
 62
               2
100
AcDbLine
 10
-12.0
 20
49.899997531017391
 30
0.0
 11
-12.0
 21
57.600000000000591
 31
0.0
  0
LINE
  5
20E
100
AcDbEntity
  8
0
  6
CONTINUOUS
 62
               7
100
AcDbLine
 10
-14.074999999999932
 20
53.475000000000591
 30
0.0
 11
-14.074999999999932
 21
55.095000000000596
 31
0.0
  0
ARC
  5
20F
100
AcDbEntity
  8
0
  6
CONTINUOUS
 62
               7
100
AcDbCircle
 10
-13.899999999999977
 20
55.80000000000058
 30
0.0
 40
0.3
100
AcDbArc
 50
0.0
 51
89.999999999999815
  0
LINE
  5
210
100
AcDbEntity
  8
0
  6
CONTINUOUS
 62
               7
100
AcDbLine
 10
-13.600000000000023
 20
55.570000000000562
 30
0.0
 11
-13.600000000000023
 21
55.80000000000058
 31
0.0
  0
LINE
  5
211
100
AcDbEntity
  8
0
  6
CONTINUOUS
 62
               7
100
AcDbLine
 10
-14.074999999999932
 20
55.095000000000596
 30
0.0
 11
-13.600000000000023
 21
55.570000000000562
 31
0.0
  0
ARC
  5
212
100
AcDbEntity
  8
0
  6
CONTINUOUS
 62
               7
100
AcDbCircle
 10
-31.475000000000023
 20
34.000000000000597
 30
0.0
 40
2.0750000000000002
100
AcDbArc
 50
269.99999999999937
 51
89.999999999999801
  0
LINE
  5
213
100
AcDbEntity
  8
0
  6
CONTINUOUS
 62
               7
100
AcDbLine
 10
-31.475000000000023
 20
36.075000000000585
 30
0.0
 11
-33.094999999999914
 21
36.075000000000585
 31
0.0
  0
LINE
  5
214
100
AcDbEntity
  8
0
  6
CONTINUOUS
 62
               7
100
AcDbLine
 10
-31.475000000000023
 20
37.925000000000608
 30
0.0
 11
-33.094999999999914
 21
37.925000000000608
 31
0.0
  0
LINE
  5
215
100
AcDbEntity
  8
0
  6
CONTINUOUS
 62
               7
100
AcDbLine
 10
-33.094999999999914
 20
37.925000000000608
 30
0.0
 11
-33.569999999999936
 21
38.400000000000603
 31
0.0
  0
LINE
  5
216
100
AcDbEntity
  8
0
  6
CONTINUOUS
 62
               7
100
AcDbLine
 10
-33.569999999999936
 20
38.400000000000603
 30
0.0
 11
-33.799999999999955
 21
38.400000000000603
 31
0.0
  0
ARC
  5
217
100
AcDbEntity
  8
0
  6
CONTINUOUS
 62
               7
100
AcDbCircle
 10
-33.799999999999955
 20
38.100000000000591
 30
0.0
 40
0.3
100
AcDbArc
 50
89.999999999999815
 51
179.99999999999963
  0
ARC
  5
218
100
AcDbEntity
  8
0
  6
CONTINUOUS
 62
               7
100
AcDbCircle
 10
-33.799999999999955
 20
35.900000000000603
 30
0.0
 40
0.3
100
AcDbArc
 50
179.99999999999963
 51
269.99999999999937
  0
LINE
  5
219
100
AcDbEntity
  8
0
  6
CONTINUOUS
 62
               7
100
AcDbLine
 10
-34.100000000000023
 20
35.900000000000603
 30
0.0
 11
-34.100000000000023
 21
38.100000000000591
 31
0.0
  0
LINE
  5
21A
100
AcDbEntity
  8
0
  6
CONTINUOUS
 62
               7
100
AcDbLine
 10
-33.569999999999936
 20
35.600000000000591
 30
0.0
 11
-33.799999999999955
 21
35.600000000000591
 31
0.0
  0
LINE
  5
21B
100
AcDbEntity
  8
0
  6
CONTINUOUS
 62
               7
100
AcDbLine
 10
-33.094999999999914
 20
36.075000000000585
 30
0.0
 11
-33.569999999999936
 21
35.600000000000591
 31
0.0
  0
ARC
  5
21C
100
AcDbEntity
  8
0
  6
CONTINUOUS
 62
               7
100
AcDbCircle
 10
-31.475000000000023
 20
40.000000000000597
 30
0.0
 40
2.0750000000000002
100
AcDbArc
 50
270.00000000000023
 51
89.999999999999801
  0
LINE
  5
21D
100
AcDbEntity
  8
0
  6
CONTINUOUS
 62
               7
100
AcDbLine
 10
-31.475000000000023
 20
42.075000000000585
 30
0.0
 11
-33.100000000000023
 21
42.075000000000585
 31
0.0
  0
LINE
  5
21E
100
AcDbEntity
  8
0
  6
CONTINUOUS
 62
               7
100
AcDbLine
 10
-34.100000000000023
 20
41.600000000000591
 30
0.0
 11
-36.0
 21
43.500000000000625
 31
0.0
  0
LINE
  5
21F
100
AcDbEntity
  8
0
  6
CONTINUOUS
 62
               7
100
AcDbLine
 10
-33.569999999999936
 20
41.600000000000591
 30
0.0
 11
-34.100000000000023
 21
41.600000000000591
 31
0.0
  0
LINE
  5
220
100
AcDbEntity
  8
0
  6
CONTINUOUS
 62
               7
100
AcDbLine
 10
-33.100000000000023
 20
42.075000000000585
 30
0.0
 11
-33.574999999999932
 21
41.600000000000591
 31
0.0
  0
LINE
  5
221
100
AcDbEntity
  8
0
  6
CONTINUOUS
 62
               7
100
AcDbLine
 10
-31.475000000000023
 20
31.925000000000608
 30
0.0
 11
-33.100000000000023
 21
31.925000000000608
 31
0.0
  0
LINE
  5
222
100
AcDbEntity
  8
0
  6
CONTINUOUS
 62
               7
100
AcDbLine
 10
-34.100000000000023
 20
32.400000000000603
 30
0.0
 11
-36.0
 21
30.500000000000568
 31
0.0
  0
LINE
  5
223
100
AcDbEntity
  8
0
  6
CONTINUOUS
 62
               7
100
AcDbLine
 10
-33.100000000000023
 20
31.925000000000608
 30
0.0
 11
-33.574999999999932
 21
32.400000000000603
 31
0.0
  0
LINE
  5
224
100
AcDbEntity
  8
0
  6
CONTINUOUS
 62
               7
100
AcDbLine
 10
-33.569999999999936
 20
32.400000000000603
 30
0.0
 11
-34.100000000000023
 21
32.400000000000603
 31
0.0
  0
LINE
  5
225
100
AcDbEntity
  8
0
  6
CENTER
 62
               2
100
AcDbLine
 10
-27.899997531016766
 20
34.000000000000597
 30
0.0
 11
-35.600000000000023
 21
34.000000000000597
 31
0.0
  0
LINE
  5
226
100
AcDbEntity
  8
0
  6
CENTER
 62
               2
100
AcDbLine
 10
-31.475000000000023
 20
30.439994034518008
 30
0.0
 11
-31.475000000000023
 21
43.560005965483185
 31
0.0
  0
LINE
  5
227
100
AcDbEntity
  8
0
  6
CENTER
 62
               2
100
AcDbLine
 10
-27.899997531016766
 20
40.000000000000597
 30
0.0
 11
-35.600000000000023
 21
40.000000000000597
 31
0.0
  0
LINE
  5
228
100
AcDbEntity
  8
0
  6
CONTINUOUS
 62
               7
100
AcDbLine
 10
-36.0
 20
43.500000000000625
 30
0.0
 11
-36.0
 21
56.0
 31
0.0
  0
LINE
  5
229
100
AcDbEntity
  8
0
  6
CONTINUOUS
 62
               7
100
AcDbLine
 10
-36.0
 20
56.0
 30
0.0
 11
-32.0
 21
60.0
 31
0.0
  0
LINE
  5
22A
100
AcDbEntity
  8
0
  6
CONTINUOUS
 62
               7
100
AcDbLine
 10
-36.0
 20
-56.000000000000014
 30
0.0
 11
-32.0
 21
-60.000000000000014
 31
0.0
  0
LINE
  5
22B
100
AcDbEntity
  8
0
  6
CONTINUOUS
 62
               7
100
AcDbLine
 10
0.0
 20
25.000000000000654
 30
0.0
 11
0.0
 21
7.0
 31
0.0
  0
LINE
  5
22C
100
AcDbEntity
  8
0
  6
CENTER
 62
               2
100
AcDbLine
 10
-40.0
 20
0.0
 30
0.0
 11
3.0
 21
0.0
 31
0.0
  0
LINE
  5
22D
100
AcDbEntity
  8
0
  6
CENTER
 62
               2
100
AcDbLine
 10
-29.0
 20
59.5
 30
0.0
 11
-29.0
 21
46.5
 31
0.0
  0
LINE
  5
22E
100
AcDbEntity
  8
0
  6
CENTER
 62
               2
100
AcDbLine
 10
-35.5
 20
53.0
 30
0.0
 11
-22.5
 21
53.0
 31
0.0
  0
CIRCLE
  5
22F
100
AcDbEntity
  8
0
  6
CONTINUOUS
 62
               7
100
AcDbCircle
 10
-29.0
 20
53.0
 30
0.0
 40
5.0
  0
CIRCLE
  5
230
100
AcDbEntity
  8
0
  6
CONTINUOUS
 62
               2
100
AcDbCircle
 10
-29.0
 20
53.0
 30
0.0
 40
4.0999999999999996
  0
LINE
  5
231
100
AcDbEntity
  8
0
  6
CONTINUOUS
 62
               7
100
AcDbLine
 10
-30.443375672974071
 20
50.5
 30
0.0
 11
-27.556624327025929
 21
50.5
 31
0.0
  0
LINE
  5
232
100
AcDbEntity
  8
0
  6
CONTINUOUS
 62
               7
100
AcDbLine
 10
-30.443375672974071
 20
50.5
 30
0.0
 11
-31.886751345948142
 21
53.0
 31
0.0
  0
LINE
  5
233
100
AcDbEntity
  8
0
  6
CONTINUOUS
 62
               7
100
AcDbLine
 10
-30.443375672974071
 20
55.5
 30
0.0
 11
-27.556624327025929
 21
55.5
 31
0.0
  0
LINE
  5
234
100
AcDbEntity
  8
0
  6
CONTINUOUS
 62
               7
100
AcDbLine
 10
-30.443375672974071
 20
55.5
 30
0.0
 11
-31.886751345948142
 21
53.0
 31
0.0
  0
LINE
  5
235
100
AcDbEntity
  8
0
  6
CONTINUOUS
 62
               7
100
AcDbLine
 10
-27.556624327025929
 20
55.5
 30
0.0
 11
-26.113248654051858
 21
53.0
 31
0.0
  0
LINE
  5
236
100
AcDbEntity
  8
0
  6
CONTINUOUS
 62
               7
100
AcDbLine
 10
-27.556624327025929
 20
50.5
 30
0.0
 11
-26.113248654051858
 21
53.0
 31
0.0
  0
ARC
  5
237
100
AcDbEntity
  8
0
  6
CONTINUOUS
 62
               7
100
AcDbCircle
 10
-4.6565237951643894
 20
41.550000000000637
 30
0.0
 40
2.2999999999999972
100
AcDbArc
 50
135.28301283394904
 51
282.00021728661977
  0
LINE
  5
238
100
AcDbEntity
  8
0
  6
CONTINUOUS
 62
               7
100
AcDbLine
 10
-4.1783183744494181
 20
39.300262331827156
 30
0.0
 11
-2.284091440758516
 21
39.702900204042209
 31
0.0
  0
CIRCLE
  5
239
100
AcDbEntity
  8
0
  6
CONTINUOUS
 62
               7
100
AcDbCircle
 10
-4.6565237951643894
 20
41.550000000000637
 30
0.0
 40
1.0
  0
ARC
  5
23A
100
AcDbEntity
  8
0
  6
CONTINUOUS
 62
               7
100
AcDbCircle
 10
-13.850000000000023
 20
37.00000000000054
 30
0.0
 40
11.75
100
AcDbArc
 50
50.984409775309793
 51
309.01559022469019
  0
ARC
  5
23B
100
AcDbEntity
  8
0
  6
CONTINUOUS
 62
               7
100
AcDbCircle
 10
-7.7120646599311158
 20
44.575503267845733
 30
0.0
 40
2.0
100
AcDbArc
 50
315.28301283394939
 51
50.984409775309757
  0
ARC
  5
23C
100
AcDbEntity
  8
0
  6
CONTINUOUS
 62
               7
100
AcDbCircle
 10
-4.6565237951643894
 20
32.450000000000642
 30
0.0
 40
2.2999999999999972
100
AcDbArc
 50
77.999782713379901
 51
224.71698716605067
  0
CIRCLE
  5
23D
100
AcDbEntity
  8
0
  6
CONTINUOUS
 62
               7
100
AcDbCircle
 10
-4.6565237951643894
 20
32.450000000000642
 30
0.0
 40
1.0
  0
ARC
  5
23E
100
AcDbEntity
  8
0
  6
CONTINUOUS
 62
               7
100
AcDbCircle
 10
-7.7120646599310021
 20
29.424496732155546
 30
0.0
 40
2.0
100
AcDbArc
 50
309.01559022468996
 51
44.716987166051098
  0
LINE
  5
23F
100
AcDbEntity
  8
0
  6
CONTINUOUS
 62
               7
100
AcDbLine
 10
-4.1783183744494181
 20
34.699737668174151
 30
0.0
 11
-2.284091440758516
 21
34.297099795959099
 31
0.0
  0
CIRCLE
  5
240
100
AcDbEntity
  8
0
  6
CONTINUOUS
 62
               7
100
AcDbCircle
 10
-15.0
 20
37.000000000000597
 30
0.0
 40
1.75
  0
CIRCLE
  5
241
100
AcDbEntity
  8
0
  6
CONTINUOUS
 62
               7
100
AcDbCircle
 10
-15.0
 20
37.000000000000597
 30
0.0
 40
2.25
  0
LINE
  5
242
100
AcDbEntity
  8
0
  6
CENTER
 62
               2
100
AcDbLine
 10
-29.0
 20
-59.499999999999993
 30
0.0
 11
-29.0
 21
-46.5
 31
0.0
  0
LINE
  5
243
100
AcDbEntity
  8
0
  6
CENTER
 62
               2
100
AcDbLine
 10
-35.5
 20
-52.999999999999993
 30
0.0
 11
-22.5
 21
-52.999999999999993
 31
0.0
  0
CIRCLE
  5
244
100
AcDbEntity
  8
0
  6
CONTINUOUS
 62
               7
100
AcDbCircle
 10
-29.0
 20
-52.999999999999993
 30
0.0
 40
5.0
  0
CIRCLE
  5
245
100
AcDbEntity
  8
0
  6
CONTINUOUS
 62
               2
100
AcDbCircle
 10
-29.0
 20
-52.999999999999993
 30
0.0
 40
4.0999999999999996
  0
LINE
  5
246
100
AcDbEntity
  8
0
  6
CONTINUOUS
 62
               7
100
AcDbLine
 10
-27.556624327025929
 20
-50.499999999999993
 30
0.0
 11
-26.113248654051858
 21
-52.999999999999993
 31
0.0
  0
LINE
  5
247
100
AcDbEntity
  8
0
  6
CONTINUOUS
 62
               7
100
AcDbLine
 10
-27.556624327025929
 20
-55.499999999999993
 30
0.0
 11
-26.113248654051858
 21
-52.999999999999993
 31
0.0
  0
LINE
  5
248
100
AcDbEntity
  8
0
  6
CONTINUOUS
 62
               7
100
AcDbLine
 10
-30.443375672974071
 20
-55.499999999999993
 30
0.0
 11
-31.886751345948142
 21
-52.999999999999993
 31
0.0
  0
LINE
  5
249
100
AcDbEntity
  8
0
  6
CONTINUOUS
 62
               7
100
AcDbLine
 10
-30.443375672974071
 20
-55.499999999999993
 30
0.0
 11
-27.556624327025929
 21
-55.499999999999993
 31
0.0
  0
LINE
  5
24A
100
AcDbEntity
  8
0
  6
CONTINUOUS
 62
               7
100
AcDbLine
 10
-30.443375672974071
 20
-50.499999999999993
 30
0.0
 11
-31.886751345948142
 21
-52.999999999999993
 31
0.0
  0
LINE
  5
24B
100
AcDbEntity
  8
0
  6
CONTINUOUS
 62
               7
100
AcDbLine
 10
-30.443375672974071
 20
-50.499999999999993
 30
0.0
 11
-27.556624327025929
 21
-50.499999999999993
 31
0.0
  0
CIRCLE
  5
24C
100
AcDbEntity
  8
0
  6
CONTINUOUS
 62
               7
100
AcDbCircle
 10
-15.0
 20
-37.000000000000597
 30
0.0
 40
13.0
  0
LINE
  5
24D
100
AcDbEntity
  8
0
  6
CENTER
 62
               2
100
AcDbLine
 10
-15.0
 20
-21.900000000000603
 30
0.0
 11
-15.0
 21
-52.100000000000591
 31
0.0
  0
LINE
  5
24E
100
AcDbEntity
  8
0
  6
CENTER
 62
               2
100
AcDbLine
 10
-30.100000000000023
 20
-37.00000000000054
 30
0.0
 11
0.1000000000000227
 21
-37.000000000000668
 31
0.0
  0
LINE
  5
24F
100
AcDbEntity
  8
0
  6
CONTINUOUS
 62
               7
100
AcDbLine
 10
-4.1783183744494181
 20
-39.300262331827156
 30
0.0
 11
-2.284091440758516
 21
-39.702900204042209
 31
0.0
  0
ARC
  5
250
100
AcDbEntity
  8
0
  6
CONTINUOUS
 62
               7
100
AcDbCircle
 10
-13.850000000000023
 20
-37.000000000000554
 30
0.0
 40
11.75
100
AcDbArc
 50
50.984409775308983
 51
309.01559022468939
  0
LINE
  5
251
100
AcDbEntity
  8
0
  6
CONTINUOUS
 62
               7
100
AcDbLine
 10
-4.1783183744494181
 20
-34.699737668174151
 30
0.0
 11
-2.284091440758516
 21
-34.297099795959113
 31
0.0
  0
CIRCLE
  5
252
100
AcDbEntity
  8
0
  6
CONTINUOUS
 62
               7
100
AcDbCircle
 10
-15.0
 20
-37.000000000000597
 30
0.0
 40
2.25
  0
CIRCLE
  5
253
100
AcDbEntity
  8
0
  6
CONTINUOUS
 62
               7
100
AcDbCircle
 10
-15.0
 20
-37.000000000000597
 30
0.0
 40
1.75
  0
ARC
  5
254
100
AcDbEntity
  8
0
  6
CONTINUOUS
 62
               7
100
AcDbCircle
 10
-7.7120646599310021
 20
-29.424496732155546
 30
0.0
 40
2.0
100
AcDbArc
 50
315.28301283394887
 51
50.984409775309246
  0
CIRCLE
  5
255
100
AcDbEntity
  8
0
  6
CONTINUOUS
 62
               7
100
AcDbCircle
 10
-4.6565237951643894
 20
-32.450000000000642
 30
0.0
 40
1.0
  0
ARC
  5
256
100
AcDbEntity
  8
0
  6
CONTINUOUS
 62
               7
100
AcDbCircle
 10
-4.6565237951643894
 20
-32.450000000000642
 30
0.0
 40
2.2999999999999972
100
AcDbArc
 50
135.28301283394853
 51
282.00021728661926
  0
ARC
  5
257
100
AcDbEntity
  8
0
  6
CONTINUOUS
 62
               7
100
AcDbCircle
 10
-7.7120646599311158
 20
-44.575503267845725
 30
0.0
 40
2.0
100
AcDbArc
 50
309.0155902246895
 51
44.716987166050586
  0
CIRCLE
  5
258
100
AcDbEntity
  8
0
  6
CONTINUOUS
 62
               7
100
AcDbCircle
 10
-4.6565237951643894
 20
-41.550000000000644
 30
0.0
 40
1.0
  0
ARC
  5
259
100
AcDbEntity
  8
0
  6
CONTINUOUS
 62
               7
100
AcDbCircle
 10
-4.6565237951643894
 20
-41.550000000000644
 30
0.0
 40
2.2999999999999972
100
AcDbArc
 50
77.999782713379403
 51
224.71698716605019
  0
ARC
  5
25A
100
AcDbEntity
  8
0
  6
CONTINUOUS
 62
               4
100
AcDbCircle
 10
-35.5
 20
-23.5
 30
0.0
 40
1.5
100
AcDbArc
 50
89.999999999999815
 51
179.99999999999963
  0
LINE
  5
25B
100
AcDbEntity
  8
0
  6
CONTINUOUS
 62
               7
100
AcDbLine
 10
-36.5
 20
-23.5
 30
0.0
 11
-36.5
 21
-22.3819660112501
 31
0.0
  0
CIRCLE
  5
25C
100
AcDbEntity
  8
0
  6
CONTINUOUS
 62
               4
100
AcDbCircle
 10
-45.0
 20
-29.5
 30
0.0
 40
6.0
  0
LINE
  5
25D
100
AcDbEntity
  8
0
  6
CONTINUOUS
 62
               4
100
AcDbLine
 10
-48.400367627183869
 20
-25.5
 30
0.0
 11
-41.599632372816131
 21
-25.5
 31
0.0
  0
CIRCLE
  5
25E
100
AcDbEntity
  8
0
  6
CONTINUOUS
 62
               4
100
AcDbCircle
 10
-45.0
 20
-29.5
 30
0.0
 40
3.5179491924311321
  0
CIRCLE
  5
25F
100
AcDbEntity
  8
0
  6
CONTINUOUS
 62
               4
100
AcDbCircle
 10
-45.0
 20
-29.5
 30
0.0
 40
5.25
  0
LINE
  5
260
100
AcDbEntity
  8
0
  6
CONTINUOUS
 62
               4
100
AcDbLine
 10
-48.400367627183869
 20
-33.5
 30
0.0
 11
-41.599632372816131
 21
-33.5
 31
0.0
  0
CIRCLE
  5
261
100
AcDbEntity
  8
0
  6
CONTINUOUS
 62
               4
100
AcDbCircle
 10
-27.5
 20
0.0
 30
0.0
 40
6.0
  0
LINE
  5
262
100
AcDbEntity
  8
0
  6
CONTINUOUS
 62
               4
100
AcDbLine
 10
-30.900367627183869
 20
4.0
 30
0.0
 11
-24.099632372816131
 21
4.0
 31
0.0
  0
CIRCLE
  5
263
100
AcDbEntity
  8
0
  6
CONTINUOUS
 62
               4
100
AcDbCircle
 10
-27.5
 20
0.0
 30
0.0
 40
3.5179491924311321
  0
CIRCLE
  5
264
100
AcDbEntity
  8
0
  6
CONTINUOUS
 62
               4
100
AcDbCircle
 10
-27.5
 20
0.0
 30
0.0
 40
5.25
  0
LINE
  5
265
100
AcDbEntity
  8
0
  6
CONTINUOUS
 62
               4
100
AcDbLine
 10
-30.900367627183869
 20
-4.0
 30
0.0
 11
-24.099632372816131
 21
-4.0
 31
0.0
  0
ENDBLK
  5
266
100
AcDbEntity
  8
0
100
AcDbBlockEnd
  0
BLOCK
  5
267
100
AcDbEntity
  8
0
100
AcDbBlockBegin
  2
ZS25SS-6
 70
               0
 10
0.0
 20
0.0
 30
0.0
  3
ZS25SS-6
  1

  0
LINE
  5
268
100
AcDbEntity
  8
0
  6
CONTINUOUS
 62
               4
100
AcDbLine
 10
203.0
 20
36.5
 30
0.0
 11
206.0
 21
36.5
 31
0.0
  0
LINE
  5
269
100
AcDbEntity
  8
0
  6
CONTINUOUS
 62
               7
100
AcDbLine
 10
104.99999998319345
 20
36.0
 30
0.0
 11
203.0
 21
36.0
 31
0.0
  0
LINE
  5
26A
100
AcDbEntity
  8
0
  6
CONTINUOUS
 62
               4
100
AcDbLine
 10
104.99999998319345
 20
49.5
 30
0.0
 11
104.99999998319345
 21
34.5
 31
0.0
  0
LINE
  5
26B
100
AcDbEntity
  8
0
  6
CONTINUOUS
 62
               4
100
AcDbLine
 10
92.0
 20
34.5
 30
0.0
 11
104.99999998319345
 21
34.5
 31
0.0
  0
LINE
  5
26C
100
AcDbEntity
  8
0
  6
CONTINUOUS
 62
               4
100
AcDbLine
 10
92.0
 20
49.5
 30
0.0
 11
92.0
 21
34.5
 31
0.0
  0
LINE
  5
26D
100
AcDbEntity
  8
0
  6
CENTER
 62
               2
100
AcDbLine
 10
192.5
 20
17.0
 30
0.0
 11
179.5
 21
17.0
 31
0.0
  0
CIRCLE
  5
26E
100
AcDbEntity
  8
0
  6
CONTINUOUS
 62
               7
100
AcDbCircle
 10
186.0
 20
17.0
 30
0.0
 40
1.25
  0
CIRCLE
  5
26F
100
AcDbEntity
  8
0
  6
CONTINUOUS
 62
               2
100
AcDbCircle
 10
186.0
 20
17.0
 30
0.0
 40
5.0
  0
CIRCLE
  5
270
100
AcDbEntity
  8
0
  6
CONTINUOUS
 62
               7
100
AcDbCircle
 10
186.0
 20
17.0
 30
0.0
 40
4.0999999999999996
  0
LINE
  5
271
100
AcDbEntity
  8
0
  6
CENTER
 62
               2
100
AcDbLine
 10
186.0
 20
10.5
 30
0.0
 11
186.0
 21
23.5
 31
0.0
  0
CIRCLE
  5
272
100
AcDbEntity
  8
0
  6
CONTINUOUS
 62
               7
100
AcDbCircle
 10
35.0
 20
17.0
 30
0.0
 40
1.25
  0
LINE
  5
273
100
AcDbEntity
  8
0
  6
CENTER
 62
               2
100
AcDbLine
 10
28.5
 20
17.0
 30
0.0
 11
41.5
 21
17.0
 31
0.0
  0
CIRCLE
  5
274
100
AcDbEntity
  8
0
  6
CONTINUOUS
 62
               2
100
AcDbCircle
 10
35.0
 20
17.0
 30
0.0
 40
5.0
  0
CIRCLE
  5
275
100
AcDbEntity
  8
0
  6
CONTINUOUS
 62
               7
100
AcDbCircle
 10
35.0
 20
17.0
 30
0.0
 40
4.0999999999999996
  0
LINE
  5
276
100
AcDbEntity
  8
0
  6
CENTER
 62
               2
100
AcDbLine
 10
35.0
 20
10.5
 30
0.0
 11
35.0
 21
23.5
 31
0.0
  0
LINE
  5
277
100
AcDbEntity
  8
0
  6
CONTINUOUS
 62
               7
100
AcDbLine
 10
12.100000000000023
 20
22.0
 30
0.0
 11
12.100000000000023
 21
8.0
 31
0.0
  0
LINE
  5
278
100
AcDbEntity
  8
0
  6
CONTINUOUS
 62
               7
100
AcDbLine
 10
12.100000000000023
 20
8.0
 30
0.0
 11
14.0
 21
8.0
 31
0.0
  0
LINE
  5
279
100
AcDbEntity
  8
0
  6
CENTER
 62
               2
100
AcDbLine
 10
-3.0
 20
15.0
 30
0.0
 11
228.0
 21
15.0
 31
0.0
  0
LINE
  5
27A
100
AcDbEntity
  8
0
  6
CONTINUOUS
 62
               7
100
AcDbLine
 10
203.0
 20
37.0
 30
0.0
 11
203.0
 21
0.0
 31
0.0
  0
LINE
  5
27B
100
AcDbEntity
  8
0
  6
CONTINUOUS
 62
               7
100
AcDbLine
 10
14.0
 20
36.0
 30
0.0
 11
14.0
 21
0.0
 31
0.0
  0
LINE
  5
27C
100
AcDbEntity
  8
0
  6
CONTINUOUS
 62
               7
100
AcDbLine
 10
12.0
 20
37.0
 30
0.0
 11
12.0
 21
1.5
 31
0.0
  0
LINE
  5
27D
100
AcDbEntity
  8
0
  6
CONTINUOUS
 62
               7
100
AcDbLine
 10
0.0
 20
36.5
 30
0.0
 11
0.0
 21
1.5
 31
0.0
  0
LINE
  5
27E
100
AcDbEntity
  8
0
  6
CONTINUOUS
 62
               7
100
AcDbLine
 10
14.0
 20
0.5
 30
0.0
 11
203.0
 21
0.5
 31
0.0
  0
LINE
  5
27F
100
AcDbEntity
  8
0
  6
CONTINUOUS
 62
               7
100
AcDbLine
 10
14.0
 20
22.0
 30
0.0
 11
12.0
 21
22.0
 31
0.0
  0
LINE
  5
280
100
AcDbEntity
  8
0
  6
CONTINUOUS
 62
               7
100
AcDbLine
 10
0.0
 20
1.5
 30
0.0
 11
12.0
 21
1.5
 31
0.0
  0
LINE
  5
281
100
AcDbEntity
  8
0
  6
CONTINUOUS
 62
               7
100
AcDbLine
 10
14.0
 20
36.0
 30
0.0
 11
92.0
 21
36.0
 31
0.0
  0
LINE
  5
282
100
AcDbEntity
  8
0
  6
CONTINUOUS
 62
               7
100
AcDbLine
 10
0.0
 20
36.5
 30
0.0
 11
92.0
 21
36.5
 31
0.0
  0
LINE
  5
283
100
AcDbEntity
  8
0
  6
CONTINUOUS
 62
               7
100
AcDbLine
 10
14.0
 20
0.0
 30
0.0
 11
203.0
 21
0.0
 31
0.0
  0
LINE
  5
284
100
AcDbEntity
  8
0
  6
CONTINUOUS
 62
               7
100
AcDbLine
 10
12.0
 20
37.0
 30
0.0
 11
92.0
 21
37.0
 31
0.0
  0
LINE
  5
285
100
AcDbEntity
  8
0
  6
CENTER
 62
               2
100
AcDbLine
 10
15.5
 20
8.0
 30
0.0
 11
10.5
 21
8.0
 31
0.0
  0
LINE
  5
286
100
AcDbEntity
  8
0
  6
CONTINUOUS
 62
               7
100
AcDbLine
 10
14.0
 20
3.0
 30
0.0
 11
12.0
 21
3.0
 31
0.0
  0
LINE
  5
287
100
AcDbEntity
  8
0
  6
CONTINUOUS
 62
               4
100
AcDbLine
 10
225.0
 20
1.5
 30
0.0
 11
203.0
 21
1.5
 31
0.0
  0
LINE
  5
288
100
AcDbEntity
  8
0
  6
CONTINUOUS
 62
               4
100
AcDbLine
 10
213.0
 20
18.5
 30
0.0
 11
203.0
 21
18.5
 31
0.0
  0
LINE
  5
289
100
AcDbEntity
  8
0
  6
CONTINUOUS
 62
               4
100
AcDbLine
 10
206.0
 20
22.5
 30
0.0
 11
203.0
 21
22.5
 31
0.0
  0
LINE
  5
28A
100
AcDbEntity
  8
0
  6
CENTER
 62
             200
100
AcDbLine
 10
216.5
 20
29.5
 30
0.0
 11
201.5
 21
29.5
 31
0.0
  0
LINE
  5
28B
100
AcDbEntity
  8
0
  6
CONTINUOUS
 62
               4
100
AcDbLine
 10
214.0
 20
53.0
 30
0.0
 11
206.0
 21
53.0
 31
0.0
  0
LINE
  5
28C
100
AcDbEntity
  8
0
  6
CONTINUOUS
 62
               4
100
AcDbLine
 10
216.3747852176607
 20
53.082903768654774
 30
0.0
 11
214.6252147823393
 21
53.082903768654774
 31
0.0
  0
LINE
  5
28D
100
AcDbEntity
  8
0
  6
CONTINUOUS
 62
               4
100
AcDbLine
 10
225.0
 20
36.5
 30
0.0
 11
215.0
 21
36.5
 31
0.0
  0
LINE
  5
28E
100
AcDbEntity
  8
0
  6
CONTINUOUS
 62
               4
100
AcDbLine
 10
215.0
 20
36.5
 30
0.0
 11
215.0
 21
20.5
 31
0.0
  0
LINE
  5
28F
100
AcDbEntity
  8
0
  6
CONTINUOUS
 62
               4
100
AcDbLine
 10
225.0
 20
36.5
 30
0.0
 11
225.0
 21
1.5
 31
0.0
  0
LINE
  5
290
100
AcDbEntity
  8
0
  6
CONTINUOUS
 62
               4
100
AcDbLine
 10
228.0
 20
34.5
 30
0.0
 11
228.0
 21
20.5
 31
0.0
  0
LINE
  5
291
100
AcDbEntity
  8
0
  6
CONTINUOUS
 62
               4
100
AcDbLine
 10
214.0
 20
23.0
 30
0.0
 11
206.0
 21
23.0
 31
0.0
  0
LINE
  5
292
100
AcDbEntity
  8
0
  6
CONTINUOUS
 62
               4
100
AcDbLine
 10
217.0
 20
52.0
 30
0.0
 11
217.0
 21
38.0
 31
0.0
  0
ARC
  5
293
100
AcDbEntity
  8
0
  6
CONTINUOUS
 62
               4
100
AcDbCircle
 10
213.0
 20
20.5
 30
0.0
 40
2.0
100
AcDbArc
 50
269.99999999999937
 51
0.0
  0
LINE
  5
294
100
AcDbEntity
  8
0
  6
CONTINUOUS
 62
               4
100
AcDbLine
 10
214.6252147823393
 20
49.041451884327387
 30
0.0
 11
216.3747852176607
 21
49.041451884327387
 31
0.0
  0
ARC
  5
295
100
AcDbEntity
  8
0
  6
CONTINUOUS
 62
               4
100
AcDbCircle
 10
213.42184815220764
 20
51.06217782649108
 30
0.0
 40
3.5781518477923622
100
AcDbArc
 50
325.61575253195673
 51
0.0
  0
LINE
  5
296
100
AcDbEntity
  8
0
  6
CONTINUOUS
 62
               4
100
AcDbLine
 10
217.0
 20
38.0
 30
0.0
 11
216.3747852176607
 21
36.917096231345226
 31
0.0
  0
ARC
  5
297
100
AcDbEntity
  8
0
  6
CONTINUOUS
 62
               4
100
AcDbCircle
 10
213.42184815220764
 20
38.93782217350892
 30
0.0
 40
3.5781518477923622
100
AcDbArc
 50
0.0
 51
34.384247468042489
  0
LINE
  5
298
100
AcDbEntity
  8
0
  6
CONTINUOUS
 62
               4
100
AcDbLine
 10
216.3747852176607
 20
36.917096231345226
 30
0.0
 11
214.6252147823393
 21
36.917096231345226
 31
0.0
  0
LINE
  5
299
100
AcDbEntity
  8
0
  6
CONTINUOUS
 62
               4
100
AcDbLine
 10
216.3747852176607
 20
40.958548115672613
 30
0.0
 11
214.6252147823393
 21
40.958548115672613
 31
0.0
  0
ARC
  5
29A
100
AcDbEntity
  8
0
  6
CONTINUOUS
 62
               4
100
AcDbCircle
 10
203.62521478233953
 20
45.0
 30
0.0
 40
13.3747852176605
100
AcDbArc
 50
342.41204622600515
 51
17.587953773994034
  0
ARC
  5
29B
100
AcDbEntity
  8
0
  6
CONTINUOUS
 62
               4
100
AcDbCircle
 10
227.37478521766047
 20
45.0
 30
0.0
 40
13.3747852176605
100
AcDbArc
 50
162.41204622600554
 51
197.58795377399363
  0
ARC
  5
29C
100
AcDbEntity
  8
0
  6
CONTINUOUS
 62
               4
100
AcDbCircle
 10
217.57815184779236
 20
51.06217782649108
 30
0.0
 40
3.5781518477923622
100
AcDbArc
 50
179.99999999999963
 51
214.38424746804208
  0
ARC
  5
29D
100
AcDbEntity
  8
0
  6
CONTINUOUS
 62
               4
100
AcDbCircle
 10
217.57815184779236
 20
38.93782217350892
 30
0.0
 40
3.5781518477923622
100
AcDbArc
 50
145.6157525319571
 51
179.99999999999963
  0
LINE
  5
29E
100
AcDbEntity
  8
0
  6
CONTINUOUS
 62
               4
100
AcDbLine
 10
214.0
 20
38.0
 30
0.0
 11
214.6252147823393
 21
36.917096231345226
 31
0.0
  0
LINE
  5
29F
100
AcDbEntity
  8
0
  6
CONTINUOUS
 62
               4
100
AcDbLine
 10
228.0
 20
34.5
 30
0.0
 11
227.3747852176607
 21
35.582903768654774
 31
0.0
  0
ARC
  5
2A0
100
AcDbEntity
  8
0
  6
CONTINUOUS
 62
               4
100
AcDbCircle
 10
224.42184815220764
 20
33.56217782649108
 30
0.0
 40
3.5781518477923622
100
AcDbArc
 50
325.61575253195673
 51
0.0
  0
ARC
  5
2A1
100
AcDbEntity
  8
0
  6
CONTINUOUS
 62
               4
100
AcDbCircle
 10
214.62521478233953
 20
27.5
 30
0.0
 40
13.3747852176605
100
AcDbArc
 50
342.41204622600515
 51
17.587953773994034
  0
ARC
  5
2A2
100
AcDbEntity
  8
0
  6
CONTINUOUS
 62
               4
100
AcDbCircle
 10
238.37478521766047
 20
27.5
 30
0.0
 40
13.3747852176605
100
AcDbArc
 50
162.41204622600554
 51
197.58795377399363
  0
ARC
  5
2A3
100
AcDbEntity
  8
0
  6
CONTINUOUS
 62
               4
100
AcDbCircle
 10
228.57815184779236
 20
33.56217782649108
 30
0.0
 40
3.5781518477923622
100
AcDbArc
 50
179.99999999999963
 51
214.38424746804208
  0
LINE
  5
2A4
100
AcDbEntity
  8
0
  6
CONTINUOUS
 62
               4
100
AcDbLine
 10
225.0
 20
34.5
 30
0.0
 11
225.6252147823393
 21
35.582903768654774
 31
0.0
  0
LINE
  5
2A5
100
AcDbEntity
  8
0
  6
CONTINUOUS
 62
               4
100
AcDbLine
 10
225.6252147823393
 20
31.541451884327387
 30
0.0
 11
227.3747852176607
 21
31.541451884327387
 31
0.0
  0
LINE
  5
2A6
100
AcDbEntity
  8
0
  6
CONTINUOUS
 62
               4
100
AcDbLine
 10
227.3747852176607
 20
35.582903768654774
 30
0.0
 11
225.6252147823393
 21
35.582903768654774
 31
0.0
  0
LINE
  5
2A7
100
AcDbEntity
  8
0
  6
CONTINUOUS
 62
               4
100
AcDbLine
 10
228.0
 20
20.5
 30
0.0
 11
227.3747852176607
 21
19.417096231345226
 31
0.0
  0
ARC
  5
2A8
100
AcDbEntity
  8
0
  6
CONTINUOUS
 62
               4
100
AcDbCircle
 10
224.42184815220764
 20
21.43782217350892
 30
0.0
 40
3.5781518477923622
100
AcDbArc
 50
0.0
 51
34.384247468042489
  0
ARC
  5
2A9
100
AcDbEntity
  8
0
  6
CONTINUOUS
 62
               4
100
AcDbCircle
 10
228.57815184779236
 20
21.43782217350892
 30
0.0
 40
3.5781518477923622
100
AcDbArc
 50
145.6157525319571
 51
179.99999999999963
  0
LINE
  5
2AA
100
AcDbEntity
  8
0
  6
CONTINUOUS
 62
               4
100
AcDbLine
 10
225.0
 20
20.5
 30
0.0
 11
225.6252147823393
 21
19.417096231345226
 31
0.0
  0
LINE
  5
2AB
100
AcDbEntity
  8
0
  6
CONTINUOUS
 62
               4
100
AcDbLine
 10
227.3747852176607
 20
23.458548115672613
 30
0.0
 11
225.6252147823393
 21
23.458548115672613
 31
0.0
  0
LINE
  5
2AC
100
AcDbEntity
  8
0
  6
CONTINUOUS
 62
               4
100
AcDbLine
 10
227.3747852176607
 20
19.417096231345226
 30
0.0
 11
225.6252147823393
 21
19.417096231345226
 31
0.0
  0
LINE
  5
2AD
100
AcDbEntity
  8
0
  6
CONTINUOUS
 62
               4
100
AcDbLine
 10
215.0
 20
34.499999999999986
 30
0.0
 11
214.0
 21
34.499999999999986
 31
0.0
  0
LINE
  5
2AE
100
AcDbEntity
  8
0
  6
CONTINUOUS
 62
               4
100
AcDbLine
 10
215.0
 20
24.500000000000028
 30
0.0
 11
214.0
 21
24.500000000000028
 31
0.0
  0
LINE
  5
2AF
100
AcDbEntity
  8
0
  6
CONTINUOUS
 62
               4
100
AcDbLine
 10
214.0
 20
37.0
 30
0.0
 11
206.0
 21
37.0
 31
0.0
  0
LINE
  5
2B0
100
AcDbEntity
  8
0
  6
CONTINUOUS
 62
               4
100
AcDbLine
 10
214.0
 20
52.0
 30
0.0
 11
214.6252147823393
 21
53.082903768654774
 31
0.0
  0
LINE
  5
2B1
100
AcDbEntity
  8
0
  6
CONTINUOUS
 62
               4
100
AcDbLine
 10
217.0
 20
52.0
 30
0.0
 11
216.3747852176607
 21
53.082903768654774
 31
0.0
  0
LINE
  5
2B2
100
AcDbEntity
  8
0
  6
CONTINUOUS
 62
               4
100
AcDbLine
 10
214.0
 20
53.0
 30
0.0
 11
214.0
 21
23.056682131164905
 31
0.0
  0
LINE
  5
2B3
100
AcDbEntity
  8
0
  6
CONTINUOUS
 62
               4
100
AcDbLine
 10
206.0
 20
53.0
 30
0.0
 11
206.0
 21
22.5
 31
0.0
  0
LINE
  5
2B4
100
AcDbEntity
  8
0
  6
CONTINUOUS
 62
               4
100
AcDbLine
 10
92.0
 20
49.5
 30
0.0
 11
104.99999998319345
 21
49.5
 31
0.0
  0
LINE
  5
2B5
100
AcDbEntity
  8
0
  6
CENTER
 62
             200
100
AcDbLine
 10
98.499999991596724
 20
51.0
 30
0.0
 11
98.499999991596724
 21
33.0
 31
0.0
  0
LINE
  5
2B6
100
AcDbEntity
  8
0
  6
CONTINUOUS
 62
               7
100
AcDbLine
 10
104.99999998319345
 20
36.5
 30
0.0
 11
203.0
 21
36.5
 31
0.0
  0
LINE
  5
2B7
100
AcDbEntity
  8
0
  6
CONTINUOUS
 62
               7
100
AcDbLine
 10
104.99999998319345
 20
37.0
 30
0.0
 11
203.0
 21
37.0
 31
0.0
  0
LINE
  5
2B8
100
AcDbEntity
  8
0
  6
CENTER
 62
             200
100
AcDbLine
 10
247.5
 20
27.5
 30
0.0
 11
201.5
 21
27.5
 31
0.0
  0
LINE
  5
2B9
100
AcDbEntity
  8
0
  6
CONTINUOUS
 62
               4
100
AcDbLine
 10
217.0
 20
51.0
 30
0.0
 11
234.25
 21
51.0
 31
0.0
  0
LINE
  5
2BA
100
AcDbEntity
  8
0
  6
CONTINUOUS
 62
             200
100
AcDbLine
 10
217.0
 20
50.5
 30
0.0
 11
234.75
 21
50.5
 31
0.0
  0
LINE
  5
2BB
100
AcDbEntity
  8
0
  6
CONTINUOUS
 62
               4
100
AcDbLine
 10
217.0
 20
39.0
 30
0.0
 11
234.25
 21
39.0
 31
0.0
  0
LINE
  5
2BC
100
AcDbEntity
  8
0
  6
CONTINUOUS
 62
             200
100
AcDbLine
 10
217.0
 20
39.5
 30
0.0
 11
234.75
 21
39.5
 31
0.0
  0
LINE
  5
2BD
100
AcDbEntity
  8
0
  6
CENTER
 62
             200
100
AcDbLine
 10
246.5
 20
45.0
 30
0.0
 11
195.5
 21
45.0
 31
0.0
  0
LINE
  5
2BE
100
AcDbEntity
  8
0
  6
CONTINUOUS
 62
               4
100
AcDbLine
 10
228.0
 20
33.5
 30
0.0
 11
235.25
 21
33.5
 31
0.0
  0
LINE
  5
2BF
100
AcDbEntity
  8
0
  6
CONTINUOUS
 62
             200
100
AcDbLine
 10
228.0
 20
33.0
 30
0.0
 11
235.75
 21
33.0
 31
0.0
  0
LINE
  5
2C0
100
AcDbEntity
  8
0
  6
CONTINUOUS
 62
               4
100
AcDbLine
 10
228.0
 20
21.5
 30
0.0
 11
235.25
 21
21.5
 31
0.0
  0
LINE
  5
2C1
100
AcDbEntity
  8
0
  6
CONTINUOUS
 62
             200
100
AcDbLine
 10
228.0
 20
22.0
 30
0.0
 11
235.75
 21
22.0
 31
0.0
  0
LINE
  5
2C2
100
AcDbEntity
  8
0
  6
CONTINUOUS
 62
               4
100
AcDbLine
 10
245.0
 20
22.250000000000007
 30
0.0
 11
245.0
 21
24.099632372816139
 31
0.0
  0
LINE
  5
2C3
100
AcDbEntity
  8
0
  6
CONTINUOUS
 62
             200
100
AcDbLine
 10
245.18179104174908
 20
24.74947729532969
 30
0.0
 11
242.00000002708043
 21
30.900367627183861
 31
0.0
  0
LINE
  5
2C4
100
AcDbEntity
  8
0
  6
CONTINUOUS
 62
             200
100
AcDbLine
 10
245.18179104174908
 20
30.25052270467031
 30
0.0
 11
242.00000002708043
 21
24.099632372816139
 31
0.0
  0
ARC
  5
2C5
100
AcDbEntity
  8
0
  6
CONTINUOUS
 62
               4
100
AcDbCircle
 10
234.09716098626257
 20
27.49999995658505
 30
0.0
 40
11.42078801373742
100
AcDbArc
 50
342.67839121817332
 51
17.321609238127841
  0
LINE
  5
2C6
100
AcDbEntity
  8
0
  6
CONTINUOUS
 62
               4
100
AcDbLine
 10
242.00000002708043
 20
24.099632372816139
 30
0.0
 11
245.00000002708043
 21
24.099632372816139
 31
0.0
  0
LINE
  5
2C7
100
AcDbEntity
  8
0
  6
CONTINUOUS
 62
               4
100
AcDbLine
 10
242.00000002708043
 20
30.900367627183861
 30
0.0
 11
245.0
 21
30.900367627183861
 31
0.0
  0
LINE
  5
2C8
100
AcDbEntity
  8
0
  6
CONTINUOUS
 62
               4
100
AcDbLine
 10
236.0
 20
22.25
 30
0.0
 11
235.25
 21
21.5
 31
0.0
  0
LINE
  5
2C9
100
AcDbEntity
  8
0
  6
CONTINUOUS
 62
               4
100
AcDbLine
 10
236.0
 20
22.25
 30
0.0
 11
245.0
 21
22.25
 31
0.0
  0
LINE
  5
2CA
100
AcDbEntity
  8
0
  6
CONTINUOUS
 62
               4
100
AcDbLine
 10
245.0
 20
22.250000000000007
 30
0.0
 11
246.0
 21
23.982050807568868
 31
0.0
  0
LINE
  5
2CB
100
AcDbEntity
  8
0
  6
CONTINUOUS
 62
               4
100
AcDbLine
 10
236.0
 20
32.75
 30
0.0
 11
235.25
 21
33.5
 31
0.0
  0
LINE
  5
2CC
100
AcDbEntity
  8
0
  6
CONTINUOUS
 62
               4
100
AcDbLine
 10
242.0
 20
24.099632372816139
 30
0.0
 11
242.0
 21
30.900367627183861
 31
0.0
  0
LINE
  5
2CD
100
AcDbEntity
  8
0
  6
CONTINUOUS
 62
               4
100
AcDbLine
 10
236.0
 20
32.75
 30
0.0
 11
245.0
 21
32.75
 31
0.0
  0
LINE
  5
2CE
100
AcDbEntity
  8
0
  6
CONTINUOUS
 62
               4
100
AcDbLine
 10
246.0
 20
31.017949192431132
 30
0.0
 11
245.0
 21
32.749999999999993
 31
0.0
  0
LINE
  5
2CF
100
AcDbEntity
  8
0
  6
CONTINUOUS
 62
               4
100
AcDbLine
 10
246.0
 20
31.017949192431132
 30
0.0
 11
246.0
 21
23.982050807568868
 31
0.0
  0
LINE
  5
2D0
100
AcDbEntity
  8
0
  6
CONTINUOUS
 62
               4
100
AcDbLine
 10
245.0
 20
32.749999999999993
 30
0.0
 11
245.0
 21
30.900367627183861
 31
0.0
  0
LINE
  5
2D1
100
AcDbEntity
  8
0
  6
CONTINUOUS
 62
               4
100
AcDbLine
 10
235.25
 20
33.5
 30
0.0
 11
235.25
 21
21.5
 31
0.0
  0
LINE
  5
2D2
100
AcDbEntity
  8
0
  6
CONTINUOUS
 62
               4
100
AcDbLine
 10
236.0
 20
32.799999999999997
 30
0.0
 11
236.0
 21
22.25
 31
0.0
  0
LINE
  5
2D3
100
AcDbEntity
  8
0
  6
CONTINUOUS
 62
               4
100
AcDbLine
 10
235.0
 20
50.299999999999997
 30
0.0
 11
235.0
 21
39.75
 31
0.0
  0
LINE
  5
2D4
100
AcDbEntity
  8
0
  6
CONTINUOUS
 62
               4
100
AcDbLine
 10
234.25
 20
51.0
 30
0.0
 11
234.25
 21
39.0
 31
0.0
  0
LINE
  5
2D5
100
AcDbEntity
  8
0
  6
CONTINUOUS
 62
               4
100
AcDbLine
 10
244.0
 20
50.249999999999993
 30
0.0
 11
244.0
 21
48.400367627183861
 31
0.0
  0
LINE
  5
2D6
100
AcDbEntity
  8
0
  6
CONTINUOUS
 62
               4
100
AcDbLine
 10
245.0
 20
48.517949192431132
 30
0.0
 11
245.0
 21
41.482050807568868
 31
0.0
  0
LINE
  5
2D7
100
AcDbEntity
  8
0
  6
CONTINUOUS
 62
               4
100
AcDbLine
 10
245.0
 20
48.517949192431132
 30
0.0
 11
244.0
 21
50.249999999999993
 31
0.0
  0
LINE
  5
2D8
100
AcDbEntity
  8
0
  6
CONTINUOUS
 62
               4
100
AcDbLine
 10
235.0
 20
50.25
 30
0.0
 11
244.0
 21
50.25
 31
0.0
  0
LINE
  5
2D9
100
AcDbEntity
  8
0
  6
CONTINUOUS
 62
               4
100
AcDbLine
 10
241.0
 20
41.599632372816139
 30
0.0
 11
241.0
 21
48.400367627183861
 31
0.0
  0
LINE
  5
2DA
100
AcDbEntity
  8
0
  6
CONTINUOUS
 62
               4
100
AcDbLine
 10
235.0
 20
50.25
 30
0.0
 11
234.25
 21
51.0
 31
0.0
  0
LINE
  5
2DB
100
AcDbEntity
  8
0
  6
CONTINUOUS
 62
               4
100
AcDbLine
 10
244.0
 20
39.750000000000007
 30
0.0
 11
245.0
 21
41.482050807568868
 31
0.0
  0
LINE
  5
2DC
100
AcDbEntity
  8
0
  6
CONTINUOUS
 62
               4
100
AcDbLine
 10
235.0
 20
39.75
 30
0.0
 11
244.0
 21
39.75
 31
0.0
  0
LINE
  5
2DD
100
AcDbEntity
  8
0
  6
CONTINUOUS
 62
               4
100
AcDbLine
 10
235.0
 20
39.75
 30
0.0
 11
234.25
 21
39.0
 31
0.0
  0
LINE
  5
2DE
100
AcDbEntity
  8
0
  6
CONTINUOUS
 62
               4
100
AcDbLine
 10
241.00000002708043
 20
48.400367627183861
 30
0.0
 11
244.0
 21
48.400367627183861
 31
0.0
  0
LINE
  5
2DF
100
AcDbEntity
  8
0
  6
CONTINUOUS
 62
               4
100
AcDbLine
 10
241.00000002708043
 20
41.599632372816139
 30
0.0
 11
244.00000002708043
 21
41.599632372816139
 31
0.0
  0
ARC
  5
2E0
100
AcDbEntity
  8
0
  6
CONTINUOUS
 62
               4
100
AcDbCircle
 10
233.09716098626257
 20
44.99999995658505
 30
0.0
 40
11.42078801373742
100
AcDbArc
 50
342.67839121817332
 51
17.321609238127841
  0
LINE
  5
2E1
100
AcDbEntity
  8
0
  6
CONTINUOUS
 62
             200
100
AcDbLine
 10
244.18179104174908
 20
47.75052270467031
 30
0.0
 11
241.00000002708043
 21
41.599632372816139
 31
0.0
  0
LINE
  5
2E2
100
AcDbEntity
  8
0
  6
CONTINUOUS
 62
             200
100
AcDbLine
 10
244.18179104174908
 20
42.24947729532969
 30
0.0
 11
241.00000002708043
 21
48.400367627183861
 31
0.0
  0
LINE
  5
2E3
100
AcDbEntity
  8
0
  6
CONTINUOUS
 62
               4
100
AcDbLine
 10
244.0
 20
39.750000000000007
 30
0.0
 11
244.0
 21
41.599632372816139
 31
0.0
  0
LINE
  5
2E4
100
AcDbEntity
  8
0
  6
CONTINUOUS
 62
               4
100
AcDbLine
 10
206.0
 20
50.25
 30
0.0
 11
205.0
 21
50.25
 31
0.0
  0
LINE
  5
2E5
100
AcDbEntity
  8
0
  6
CONTINUOUS
 62
               4
100
AcDbLine
 10
206.0
 20
39.75
 30
0.0
 11
205.0
 21
39.75
 31
0.0
  0
LINE
  5
2E6
100
AcDbEntity
  8
0
  6
CONTINUOUS
 62
               4
100
AcDbLine
 10
205.0
 20
50.25
 30
0.0
 11
205.0
 21
39.75
 31
0.0
  0
LINE
  5
2E7
100
AcDbEntity
  8
0
  6
CONTINUOUS
 62
               4
100
AcDbLine
 10
197.0
 20
46.5
 30
0.0
 11
205.0
 21
46.5
 31
0.0
  0
LINE
  5
2E8
100
AcDbEntity
  8
0
  6
CONTINUOUS
 62
               4
100
AcDbLine
 10
197.0
 20
43.5
 30
0.0
 11
205.0
 21
43.5
 31
0.0
  0
LINE
  5
2E9
100
AcDbEntity
  8
0
  6
CONTINUOUS
 62
               4
100
AcDbLine
 10
197.0
 20
46.5
 30
0.0
 11
197.0
 21
43.5
 31
0.0
  0
LINE
  5
2EA
100
AcDbEntity
  8
0
  6
CONTINUOUS
 62
               4
100
AcDbLine
 10
207.70000000000005
 20
21.5
 30
0.0
 11
215.0
 21
21.5
 31
0.0
  0
LINE
  5
2EB
100
AcDbEntity
  8
0
  6
CONTINUOUS
 62
             200
100
AcDbLine
 10
207.20000000000005
 20
22.0
 30
0.0
 11
215.0
 21
22.0
 31
0.0
  0
LINE
  5
2EC
100
AcDbEntity
  8
0
  6
CONTINUOUS
 62
               4
100
AcDbLine
 10
207.0
 20
23.0
 30
0.0
 11
207.0
 21
22.200000000000003
 31
0.0
  0
LINE
  5
2ED
100
AcDbEntity
  8
0
  6
CONTINUOUS
 62
               4
100
AcDbLine
 10
207.70000000000005
 20
23.0
 30
0.0
 11
207.70000000000005
 21
21.5
 31
0.0
  0
LINE
  5
2EE
100
AcDbEntity
  8
0
  6
CONTINUOUS
 62
               4
100
AcDbLine
 10
207.70000000000005
 20
21.5
 30
0.0
 11
207.0
 21
22.200000000000003
 31
0.0
  0
LINE
  5
2EF
100
AcDbEntity
  8
0
  6
PHANTOM
 62
               3
100
AcDbLine
 10
178.0
 20
66.000000000000014
 30
0.0
 11
178.0
 21
-30.000000000000028
 31
0.0
  0
ENDBLK
  5
2F0
100
AcDbEntity
  8
0
100
AcDbBlockEnd
  0
BLOCK
  5
2F1
100
AcDbEntity
  8
0
100
AcDbBlockBegin
  2
ZS25SS-7
 70
               0
 10
0.0
 20
0.0
 30
0.0
  3
ZS25SS-7
  1

  0
LINE
  5
2F2
100
AcDbEntity
  8
0
  6
CONTINUOUS
 62
               7
100
AcDbLine
 10
14.0
 20
60.0
 30
0.0
 11
203.0
 21
60.0
 31
0.0
  0
LINE
  5
2F3
100
AcDbEntity
  8
0
  6
CONTINUOUS
 62
               7
100
AcDbLine
 10
203.0
 20
0.0
 30
0.0
 11
203.0
 21
60.0
 31
0.0
  0
LINE
  5
2F4
100
AcDbEntity
  8
0
  6
CONTINUOUS
 62
               7
100
AcDbLine
 10
12.0
 20
-50.000000000000597
 30
0.0
 11
12.0
 21
50.000000000000597
 31
0.0
  0
LINE
  5
2F5
100
AcDbEntity
  8
0
  6
CONTINUOUS
 62
               7
100
AcDbLine
 10
0.0
 20
-50.000000000000597
 30
0.0
 11
0.0
 21
50.000000000000597
 31
0.0
  0
LINE
  5
2F6
100
AcDbEntity
  8
0
  6
CENTER
 62
               2
100
AcDbLine
 10
249.0
 20
0.0
 30
0.0
 11
-3.0000000168065526
 21
0.0
 31
0.0
  0
LINE
  5
2F7
100
AcDbEntity
  8
0
  6
CONTINUOUS
 62
               7
100
AcDbLine
 10
-0.0000000168065526
 20
50.000000000000597
 30
0.0
 11
11.999999983193447
 21
50.000000000000597
 31
0.0
  0
LINE
  5
2F8
100
AcDbEntity
  8
0
  6
CENTER
 62
               2
100
AcDbLine
 10
-1.5000000168065526
 20
37.000000000000597
 30
0.0
 11
15.5
 21
37.000000000000597
 31
0.0
  0
LINE
  5
2F9
100
AcDbEntity
  8
0
  6
CONTINUOUS
 62
               7
100
AcDbLine
 10
14.0
 20
-60.0
 30
0.0
 11
14.0
 21
60.0
 31
0.0
  0
LINE
  5
2FA
100
AcDbEntity
  8
0
  6
CONTINUOUS
 62
               7
100
AcDbLine
 10
12.100000000000023
 20
30.000000000000597
 30
0.0
 11
14.0
 21
30.000000000000597
 31
0.0
  0
LINE
  5
2FB
100
AcDbEntity
  8
0
  6
CONTINUOUS
 62
               7
100
AcDbLine
 10
12.100000000000023
 20
30.000000000000597
 30
0.0
 11
12.100000000000023
 21
44.000000000000597
 31
0.0
  0
LINE
  5
2FC
100
AcDbEntity
  8
0
  6
CONTINUOUS
 62
               7
100
AcDbLine
 10
12.100000000000023
 20
44.000000000000597
 30
0.0
 11
14.0
 21
44.000000000000597
 31
0.0
  0
LINE
  5
2FD
100
AcDbEntity
  8
0
  6
CONTINUOUS
 62
               7
100
AcDbLine
 10
203.0
 20
57.999999999999972
 30
0.0
 11
14.0
 21
57.999999999999972
 31
0.0
  0
LINE
  5
2FE
100
AcDbEntity
  8
0
  6
CONTINUOUS
 62
               7
100
AcDbLine
 10
203.0
 20
46.999999999999972
 30
0.0
 11
14.0
 21
46.999999999999972
 31
0.0
  0
LINE
  5
2FF
100
AcDbEntity
  8
0
  6
CONTINUOUS
 62
               7
100
AcDbLine
 10
203.0
 20
24.999999999999972
 30
0.0
 11
14.0
 21
24.999999999999972
 31
0.0
  0
LINE
  5
300
100
AcDbEntity
  8
0
  6
CONTINUOUS
 62
               7
100
AcDbLine
 10
203.0
 20
6.9999999999999716
 30
0.0
 11
14.0
 21
6.9999999999999716
 31
0.0
  0
LINE
  5
301
100
AcDbEntity
  8
0
  6
CONTINUOUS
 62
               7
100
AcDbLine
 10
203.0
 20
58.799999999999983
 30
0.0
 11
14.0
 21
58.799999999999983
 31
0.0
  0
LINE
  5
302
100
AcDbEntity
  8
0
  6
CONTINUOUS
 62
               7
100
AcDbLine
 10
203.0
 20
46.19999999999996
 30
0.0
 11
14.0
 21
46.19999999999996
 31
0.0
  0
LINE
  5
303
100
AcDbEntity
  8
0
  6
CONTINUOUS
 62
               7
100
AcDbLine
 10
203.0
 20
25.799999999999983
 30
0.0
 11
14.0
 21
25.799999999999983
 31
0.0
  0
LINE
  5
304
100
AcDbEntity
  8
0
  6
CONTINUOUS
 62
               7
100
AcDbLine
 10
203.0
 20
6.1999999999999602
 30
0.0
 11
14.0
 21
6.1999999999999602
 31
0.0
  0
CIRCLE
  5
305
100
AcDbEntity
  8
0
  6
CONTINUOUS
 62
             200
100
AcDbCircle
 10
167.0
 20
14.999999999999972
 30
0.0
 40
4.0
  0
LINE
  5
306
100
AcDbEntity
  8
0
  6
CENTER
 62
             200
100
AcDbLine
 10
167.0
 20
20.499999999999972
 30
0.0
 11
167.0
 21
9.4999999999999716
 31
0.0
  0
LINE
  5
307
100
AcDbEntity
  8
0
  6
CENTER
 62
             200
100
AcDbLine
 10
161.5
 20
14.999999999999972
 30
0.0
 11
172.5
 21
14.999999999999972
 31
0.0
  0
LINE
  5
308
100
AcDbEntity
  8
0
  6
CENTER
 62
               2
100
AcDbLine
 10
78.25
 20
12.499999999999972
 30
0.0
 11
68.75
 21
12.499999999999972
 31
0.0
  0
LINE
  5
309
100
AcDbEntity
  8
0
  6
CENTER
 62
               2
100
AcDbLine
 10
73.5
 20
17.249999999999972
 30
0.0
 11
73.5
 21
7.7499999999999716
 31
0.0
  0
CIRCLE
  5
30A
100
AcDbEntity
  8
0
  6
CONTINUOUS
 62
               7
100
AcDbCircle
 10
73.5
 20
12.499999999999972
 30
0.0
 40
3.25
  0
LINE
  5
30B
100
AcDbEntity
  8
0
  6
CENTER
 62
               2
100
AcDbLine
 10
27.0
 20
-3.5000000000000284
 30
0.0
 11
27.0
 21
3.4999999999999716
 31
0.0
  0
CIRCLE
  5
30C
100
AcDbEntity
  8
0
  6
CONTINUOUS
 62
               7
100
AcDbCircle
 10
27.0
 20
-0.0000000000000284
 30
0.0
 40
2.0
  0
LINE
  5
30D
100
AcDbEntity
  8
0
  6
CONTINUOUS
 62
               7
100
AcDbLine
 10
96.0
 20
1.9999999999999716
 30
0.0
 11
98.0
 21
1.9999999999999716
 31
0.0
  0
LINE
  5
30E
100
AcDbEntity
  8
0
  6
CONTINUOUS
 62
               7
100
AcDbLine
 10
96.0
 20
-2.0000000000000284
 30
0.0
 11
98.0
 21
-2.0000000000000284
 31
0.0
  0
LINE
  5
30F
100
AcDbEntity
  8
0
  6
CENTER
 62
               2
100
AcDbLine
 10
97.0
 20
3.4999999999999716
 30
0.0
 11
97.0
 21
-3.5000000000000284
 31
0.0
  0
LINE
  5
310
100
AcDbEntity
  8
0
  6
CENTER
 62
               2
100
AcDbLine
 10
98.0
 20
-3.5000000000000284
 30
0.0
 11
98.0
 21
3.4999999999999716
 31
0.0
  0
ARC
  5
311
100
AcDbEntity
  8
0
  6
CONTINUOUS
 62
               7
100
AcDbCircle
 10
96.0
 20
-0.0000000000000284
 30
0.0
 40
2.0
100
AcDbArc
 50
89.999999999999815
 51
269.99999999999937
  0
LINE
  5
312
100
AcDbEntity
  8
0
  6
CENTER
 62
               2
100
AcDbLine
 10
96.0
 20
-3.5000000000000284
 30
0.0
 11
96.0
 21
3.4999999999999716
 31
0.0
  0
ARC
  5
313
100
AcDbEntity
  8
0
  6
CONTINUOUS
 62
               7
100
AcDbCircle
 10
98.0
 20
-0.0000000000000284
 30
0.0
 40
2.0
100
AcDbArc
 50
269.99999999999937
 51
89.999999999999801
  0
CIRCLE
  5
314
100
AcDbEntity
  8
0
  6
CONTINUOUS
 62
               4
100
AcDbCircle
 10
167.0
 20
14.999999999999972
 30
0.0
 40
3.2999999999999998
  0
CIRCLE
  5
315
100
AcDbEntity
  8
0
  6
CONTINUOUS
 62
               2
100
AcDbCircle
 10
97.0
 20
14.999999999999972
 30
0.0
 40
4.0
  0
LINE
  5
316
100
AcDbEntity
  8
0
  6
CENTER
 62
               2
100
AcDbLine
 10
97.0
 20
20.499999999999972
 30
0.0
 11
97.0
 21
9.4999999999999716
 31
0.0
  0
LINE
  5
317
100
AcDbEntity
  8
0
  6
CENTER
 62
               2
100
AcDbLine
 10
91.5
 20
14.999999999999972
 30
0.0
 11
102.5
 21
14.999999999999972
 31
0.0
  0
CIRCLE
  5
318
100
AcDbEntity
  8
0
  6
CONTINUOUS
 62
               7
100
AcDbCircle
 10
97.0
 20
14.999999999999972
 30
0.0
 40
3.2999999999999998
  0
CIRCLE
  5
319
100
AcDbEntity
  8
0
  6
CONTINUOUS
 62
               2
100
AcDbCircle
 10
27.0
 20
14.999999999999972
 30
0.0
 40
4.0
  0
LINE
  5
31A
100
AcDbEntity
  8
0
  6
CENTER
 62
               2
100
AcDbLine
 10
27.0
 20
20.499999999999972
 30
0.0
 11
27.0
 21
9.4999999999999716
 31
0.0
  0
LINE
  5
31B
100
AcDbEntity
  8
0
  6
CENTER
 62
               2
100
AcDbLine
 10
21.5
 20
14.999999999999972
 30
0.0
 11
32.5
 21
14.999999999999972
 31
0.0
  0
CIRCLE
  5
31C
100
AcDbEntity
  8
0
  6
CONTINUOUS
 62
               7
100
AcDbCircle
 10
27.0
 20
14.999999999999972
 30
0.0
 40
3.2999999999999998
  0
CIRCLE
  5
31D
100
AcDbEntity
  8
0
  6
CONTINUOUS
 62
               7
100
AcDbCircle
 10
73.5
 20
12.499999999999972
 30
0.0
 40
2.75
  0
LINE
  5
31E
100
AcDbEntity
  8
0
  6
CONTINUOUS
 62
               7
100
AcDbLine
 10
72.778312163512965
 20
13.749999999999972
 30
0.0
 11
74.221687836487035
 21
13.749999999999972
 31
0.0
  0
LINE
  5
31F
100
AcDbEntity
  8
0
  6
CONTINUOUS
 62
               7
100
AcDbLine
 10
72.056624327025929
 20
12.499999999999972
 30
0.0
 11
72.778312163512965
 21
13.749999999999972
 31
0.0
  0
LINE
  5
320
100
AcDbEntity
  8
0
  6
CONTINUOUS
 62
               7
100
AcDbLine
 10
74.943375672974071
 20
12.499999999999972
 30
0.0
 11
74.221687836487035
 21
13.749999999999972
 31
0.0
  0
LINE
  5
321
100
AcDbEntity
  8
0
  6
CONTINUOUS
 62
               7
100
AcDbLine
 10
74.943375672974071
 20
12.499999999999972
 30
0.0
 11
74.221687836487035
 21
11.249999999999972
 31
0.0
  0
LINE
  5
322
100
AcDbEntity
  8
0
  6
CONTINUOUS
 62
               7
100
AcDbLine
 10
72.778312163512965
 20
11.249999999999972
 30
0.0
 11
74.221687836487035
 21
11.249999999999972
 31
0.0
  0
LINE
  5
323
100
AcDbEntity
  8
0
  6
CONTINUOUS
 62
               7
100
AcDbLine
 10
72.056624327025929
 20
12.499999999999972
 30
0.0
 11
72.778312163512965
 21
11.249999999999972
 31
0.0
  0
LINE
  5
324
100
AcDbEntity
  8
0
  6
CENTER
 62
               2
100
AcDbLine
 10
48.5
 20
17.249999999999972
 30
0.0
 11
48.5
 21
7.7499999999999716
 31
0.0
  0
CIRCLE
  5
325
100
AcDbEntity
  8
0
  6
CONTINUOUS
 62
               7
100
AcDbCircle
 10
48.5
 20
12.499999999999972
 30
0.0
 40
3.25
  0
CIRCLE
  5
326
100
AcDbEntity
  8
0
  6
CONTINUOUS
 62
               7
100
AcDbCircle
 10
48.5
 20
12.499999999999972
 30
0.0
 40
2.75
  0
LINE
  5
327
100
AcDbEntity
  8
0
  6
CONTINUOUS
 62
               7
100
AcDbLine
 10
47.056624327025929
 20
12.499999999999972
 30
0.0
 11
47.778312163512965
 21
11.249999999999972
 31
0.0
  0
LINE
  5
328
100
AcDbEntity
  8
0
  6
CONTINUOUS
 62
               7
100
AcDbLine
 10
47.778312163512965
 20
11.249999999999972
 30
0.0
 11
49.221687836487035
 21
11.249999999999972
 31
0.0
  0
LINE
  5
329
100
AcDbEntity
  8
0
  6
CONTINUOUS
 62
               7
100
AcDbLine
 10
49.943375672974071
 20
12.499999999999972
 30
0.0
 11
49.221687836487035
 21
11.249999999999972
 31
0.0
  0
LINE
  5
32A
100
AcDbEntity
  8
0
  6
CONTINUOUS
 62
               7
100
AcDbLine
 10
49.943375672974071
 20
12.499999999999972
 30
0.0
 11
49.221687836487035
 21
13.749999999999972
 31
0.0
  0
LINE
  5
32B
100
AcDbEntity
  8
0
  6
CONTINUOUS
 62
               7
100
AcDbLine
 10
47.056624327025929
 20
12.499999999999972
 30
0.0
 11
47.778312163512965
 21
13.749999999999972
 31
0.0
  0
LINE
  5
32C
100
AcDbEntity
  8
0
  6
CONTINUOUS
 62
               7
100
AcDbLine
 10
47.778312163512965
 20
13.749999999999972
 30
0.0
 11
49.221687836487035
 21
13.749999999999972
 31
0.0
  0
LINE
  5
32D
100
AcDbEntity
  8
0
  6
CENTER
 62
               2
100
AcDbLine
 10
53.25
 20
12.499999999999972
 30
0.0
 11
43.75
 21
12.499999999999972
 31
0.0
  0
LINE
  5
32E
100
AcDbEntity
  8
0
  6
CONTINUOUS
 62
               7
100
AcDbLine
 10
14.0
 20
22.0
 30
0.0
 11
12.0
 21
22.0
 31
0.0
  0
LINE
  5
32F
100
AcDbEntity
  8
0
  6
CONTINUOUS
 62
               7
100
AcDbLine
 10
14.0
 20
14.5
 30
0.0
 11
12.0
 21
14.5
 31
0.0
  0
LINE
  5
330
100
AcDbEntity
  8
0
  6
CONTINUOUS
 62
               7
100
AcDbLine
 10
14.0
 20
5.0
 30
0.0
 11
12.0
 21
5.0
 31
0.0
  0
LINE
  5
331
100
AcDbEntity
  8
0
  6
CONTINUOUS
 62
               4
100
AcDbLine
 10
203.0
 20
22.0
 30
0.0
 11
225.0
 21
22.0
 31
0.0
  0
LINE
  5
332
100
AcDbEntity
  8
0
  6
CONTINUOUS
 62
               4
100
AcDbLine
 10
206.0
 20
22.0
 30
0.0
 11
206.0
 21
38.0
 31
0.0
  0
LINE
  5
333
100
AcDbEntity
  8
0
  6
CONTINUOUS
 62
               4
100
AcDbLine
 10
214.0
 20
22.0
 30
0.0
 11
214.0
 21
38.0
 31
0.0
  0
LINE
  5
334
100
AcDbEntity
  8
0
  6
CONTINUOUS
 62
               4
100
AcDbLine
 10
225.0
 20
-22.0
 30
0.0
 11
225.0
 21
22.0
 31
0.0
  0
LINE
  5
335
100
AcDbEntity
  8
0
  6
CONTINUOUS
 62
               4
100
AcDbLine
 10
228.0
 20
-7.0
 30
0.0
 11
228.0
 21
7.0
 31
0.0
  0
ARC
  5
336
100
AcDbEntity
  8
0
  6
CONTINUOUS
 62
               4
100
AcDbCircle
 10
206.89075923896212
 20
33.0
 30
0.0
 40
10.10924076103786
100
AcDbArc
 50
339.74384199958268
 51
20.256158000416512
  0
LINE
  5
337
100
AcDbEntity
  8
0
  6
CONTINUOUS
 62
               4
100
AcDbLine
 10
214.6252147823393
 20
29.5
 30
0.0
 11
216.3747852176607
 21
29.5
 31
0.0
  0
ARC
  5
338
100
AcDbEntity
  8
0
  6
CONTINUOUS
 62
               4
100
AcDbCircle
 10
206.89075923896212
 20
26.0
 30
0.0
 40
10.10924076103786
100
AcDbArc
 50
339.74384199958348
 51
20.256158000416512
  0
LINE
  5
339
100
AcDbEntity
  8
0
  6
CONTINUOUS
 62
               4
100
AcDbLine
 10
217.0
 20
22.5
 30
0.0
 11
217.0
 21
36.5
 31
0.0
  0
ARC
  5
33A
100
AcDbEntity
  8
0
  6
CONTINUOUS
 62
               4
100
AcDbCircle
 10
224.10924076103788
 20
33.0
 30
0.0
 40
10.10924076103786
100
AcDbArc
 50
159.74384199958308
 51
200.25615800041612
  0
LINE
  5
33B
100
AcDbEntity
  8
0
  6
CONTINUOUS
 62
               4
100
AcDbLine
 10
214.0
 20
36.5
 30
0.0
 11
217.0
 21
36.5
 31
0.0
  0
ARC
  5
33C
100
AcDbEntity
  8
0
  6
CONTINUOUS
 62
               4
100
AcDbCircle
 10
224.10924076103788
 20
26.0
 30
0.0
 40
10.10924076103786
100
AcDbArc
 50
159.74384199958308
 51
200.25615800041612
  0
LINE
  5
33D
100
AcDbEntity
  8
0
  6
CONTINUOUS
 62
               4
100
AcDbLine
 10
214.0
 20
22.5
 30
0.0
 11
217.0
 21
22.5
 31
0.0
  0
LINE
  5
33E
100
AcDbEntity
  8
0
  6
CONTINUOUS
 62
               4
100
AcDbLine
 10
225.6252147823393
 20
0.0
 30
0.0
 11
227.3747852176607
 21
0.0
 31
0.0
  0
ARC
  5
33F
100
AcDbEntity
  8
0
  6
CONTINUOUS
 62
               4
100
AcDbCircle
 10
217.89075923896212
 20
3.5
 30
0.0
 40
10.10924076103786
100
AcDbArc
 50
339.74384199958268
 51
20.256158000416512
  0
ARC
  5
340
100
AcDbEntity
  8
0
  6
CONTINUOUS
 62
               4
100
AcDbCircle
 10
235.10924076103788
 20
3.5
 30
0.0
 40
10.10924076103786
100
AcDbArc
 50
159.74384199958308
 51
200.25615800041612
  0
LINE
  5
341
100
AcDbEntity
  8
0
  6
CONTINUOUS
 62
               4
100
AcDbLine
 10
225.0
 20
7.0
 30
0.0
 11
228.0
 21
7.0
 31
0.0
  0
LINE
  5
342
100
AcDbEntity
  8
0
  6
CONTINUOUS
 62
               4
100
AcDbLine
 10
214.0
 20
38.0
 30
0.0
 11
206.0
 21
38.0
 31
0.0
  0
LINE
  5
343
100
AcDbEntity
  8
0
  6
CENTER
 62
             200
100
AcDbLine
 10
226.5
 20
15.0
 30
0.0
 11
201.5
 21
15.0
 31
0.0
  0
LINE
  5
344
100
AcDbEntity
  8
0
  6
CENTER
 62
             200
100
AcDbLine
 10
246.5
 20
29.5
 30
0.0
 11
201.5
 21
29.5
 31
0.0
  0
LINE
  5
345
100
AcDbEntity
  8
0
  6
CONTINUOUS
 62
               4
100
AcDbLine
 10
217.0
 20
35.5
 30
0.0
 11
234.25
 21
35.5
 31
0.0
  0
LINE
  5
346
100
AcDbEntity
  8
0
  6
CONTINUOUS
 62
             200
100
AcDbLine
 10
217.0
 20
35.0
 30
0.0
 11
234.75
 21
35.0
 31
0.0
  0
LINE
  5
347
100
AcDbEntity
  8
0
  6
CONTINUOUS
 62
             200
100
AcDbLine
 10
217.0
 20
24.0
 30
0.0
 11
234.75
 21
24.0
 31
0.0
  0
LINE
  5
348
100
AcDbEntity
  8
0
  6
CONTINUOUS
 62
               4
100
AcDbLine
 10
217.0
 20
23.5
 30
0.0
 11
234.25
 21
23.5
 31
0.0
  0
LINE
  5
349
100
AcDbEntity
  8
0
  6
CONTINUOUS
 62
               4
100
AcDbLine
 10
235.0
 20
34.800000000000011
 30
0.0
 11
235.0
 21
24.25
 31
0.0
  0
LINE
  5
34A
100
AcDbEntity
  8
0
  6
CONTINUOUS
 62
               4
100
AcDbLine
 10
244.0
 20
33.5
 30
0.0
 11
244.0
 21
25.5
 31
0.0
  0
LINE
  5
34B
100
AcDbEntity
  8
0
  6
CONTINUOUS
 62
               4
100
AcDbLine
 10
235.0
 20
34.75
 30
0.0
 11
234.25
 21
35.5
 31
0.0
  0
LINE
  5
34C
100
AcDbEntity
  8
0
  6
CONTINUOUS
 62
               4
100
AcDbLine
 10
241.0
 20
34.75
 30
0.0
 11
241.0
 21
33.5
 31
0.0
  0
LINE
  5
34D
100
AcDbEntity
  8
0
  6
CONTINUOUS
 62
               4
100
AcDbLine
 10
235.0
 20
34.75
 30
0.0
 11
241.0
 21
34.75
 31
0.0
  0
LINE
  5
34E
100
AcDbEntity
  8
0
  6
CONTINUOUS
 62
               4
100
AcDbLine
 10
241.0
 20
24.25
 30
0.0
 11
241.0
 21
25.5
 31
0.0
  0
LINE
  5
34F
100
AcDbEntity
  8
0
  6
CONTINUOUS
 62
               4
100
AcDbLine
 10
235.0
 20
24.25
 30
0.0
 11
241.0
 21
24.25
 31
0.0
  0
LINE
  5
350
100
AcDbEntity
  8
0
  6
CONTINUOUS
 62
               4
100
AcDbLine
 10
245.0
 20
33.017949192431161
 30
0.0
 11
245.0
 21
25.982050807568896
 31
0.0
  0
LINE
  5
351
100
AcDbEntity
  8
0
  6
CONTINUOUS
 62
               4
100
AcDbLine
 10
241.0
 20
33.5
 30
0.0
 11
244.72168783648704
 21
33.5
 31
0.0
  0
LINE
  5
352
100
AcDbEntity
  8
0
  6
CONTINUOUS
 62
               4
100
AcDbLine
 10
244.72168783648704
 20
33.5
 30
0.0
 11
245.0
 21
33.017949192431161
 31
0.0
  0
LINE
  5
353
100
AcDbEntity
  8
0
  6
CONTINUOUS
 62
               4
100
AcDbLine
 10
241.0
 20
25.5
 30
0.0
 11
244.72168783648704
 21
25.5
 31
0.0
  0
LINE
  5
354
100
AcDbEntity
  8
0
  6
CONTINUOUS
 62
               4
100
AcDbLine
 10
244.72168783648704
 20
25.5
 30
0.0
 11
245.0
 21
25.982050807568896
 31
0.0
  0
LINE
  5
355
100
AcDbEntity
  8
0
  6
CONTINUOUS
 62
               4
100
AcDbLine
 10
235.0
 20
24.25
 30
0.0
 11
234.25
 21
23.5
 31
0.0
  0
LINE
  5
356
100
AcDbEntity
  8
0
  6
CONTINUOUS
 62
               4
100
AcDbLine
 10
234.25
 20
35.5
 30
0.0
 11
234.25
 21
23.5
 31
0.0
  0
LINE
  5
357
100
AcDbEntity
  8
0
  6
CONTINUOUS
 62
               4
100
AcDbLine
 10
203.0
 20
31.0
 30
0.0
 11
205.0
 21
31.0
 31
0.0
  0
LINE
  5
358
100
AcDbEntity
  8
0
  6
CONTINUOUS
 62
               4
100
AcDbLine
 10
206.0
 20
34.75
 30
0.0
 11
205.0
 21
34.75
 31
0.0
  0
LINE
  5
359
100
AcDbEntity
  8
0
  6
CONTINUOUS
 62
               4
100
AcDbLine
 10
206.0
 20
24.25
 30
0.0
 11
205.0
 21
24.25
 31
0.0
  0
LINE
  5
35A
100
AcDbEntity
  8
0
  6
CONTINUOUS
 62
               4
100
AcDbLine
 10
203.0
 20
28.0
 30
0.0
 11
205.0
 21
28.0
 31
0.0
  0
LINE
  5
35B
100
AcDbEntity
  8
0
  6
CONTINUOUS
 62
               4
100
AcDbLine
 10
205.0
 20
34.75
 30
0.0
 11
205.0
 21
24.25
 31
0.0
  0
LINE
  5
35C
100
AcDbEntity
  8
0
  6
CONTINUOUS
 62
               4
100
AcDbLine
 10
228.0
 20
6.0
 30
0.0
 11
235.25
 21
6.0
 31
0.0
  0
LINE
  5
35D
100
AcDbEntity
  8
0
  6
CONTINUOUS
 62
             200
100
AcDbLine
 10
228.0
 20
5.5
 30
0.0
 11
235.75
 21
5.5
 31
0.0
  0
LINE
  5
35E
100
AcDbEntity
  8
0
  6
CONTINUOUS
 62
               4
100
AcDbLine
 10
235.25
 20
-6.0
 30
0.0
 11
235.25
 21
6.0
 31
0.0
  0
LINE
  5
35F
100
AcDbEntity
  8
0
  6
CONTINUOUS
 62
               4
100
AcDbLine
 10
246.0
 20
-3.5179491924311321
 30
0.0
 11
246.0
 21
3.5179491924311321
 31
0.0
  0
LINE
  5
360
100
AcDbEntity
  8
0
  6
CONTINUOUS
 62
               4
100
AcDbLine
 10
245.0
 20
-4.0
 30
0.0
 11
245.0
 21
4.0
 31
0.0
  0
LINE
  5
361
100
AcDbEntity
  8
0
  6
CONTINUOUS
 62
               4
100
AcDbLine
 10
236.0
 20
-5.2999999999999829
 30
0.0
 11
236.0
 21
5.2999999999999829
 31
0.0
  0
LINE
  5
362
100
AcDbEntity
  8
0
  6
CONTINUOUS
 62
               4
100
AcDbLine
 10
245.72168783648704
 20
4.0
 30
0.0
 11
246.0
 21
3.5179491924311321
 31
0.0
  0
LINE
  5
363
100
AcDbEntity
  8
0
  6
CONTINUOUS
 62
               4
100
AcDbLine
 10
242.0
 20
4.0
 30
0.0
 11
245.72168783648704
 21
4.0
 31
0.0
  0
LINE
  5
364
100
AcDbEntity
  8
0
  6
CONTINUOUS
 62
               4
100
AcDbLine
 10
236.0
 20
5.25
 30
0.0
 11
242.0
 21
5.25
 31
0.0
  0
LINE
  5
365
100
AcDbEntity
  8
0
  6
CONTINUOUS
 62
               4
100
AcDbLine
 10
242.0
 20
5.25
 30
0.0
 11
242.0
 21
4.0
 31
0.0
  0
LINE
  5
366
100
AcDbEntity
  8
0
  6
CONTINUOUS
 62
               4
100
AcDbLine
 10
236.0
 20
5.25
 30
0.0
 11
235.25
 21
6.0
 31
0.0
  0
LINE
  5
367
100
AcDbEntity
  8
0
  6
PHANTOM
 62
               3
100
AcDbLine
 10
178.0
 20
-80.0
 30
0.0
 11
178.0
 21
83.999999999999972
 31
0.0
  0
LINE
  5
368
100
AcDbEntity
  8
0
  6
CONTINUOUS
 62
               7
100
AcDbLine
 10
14.0
 20
-60.0
 30
0.0
 11
203.0
 21
-60.0
 31
0.0
  0
LINE
  5
369
100
AcDbEntity
  8
0
  6
CONTINUOUS
 62
               7
100
AcDbLine
 10
203.0
 20
-57.999999999999972
 30
0.0
 11
14.0
 21
-57.999999999999972
 31
0.0
  0
LINE
  5
36A
100
AcDbEntity
  8
0
  6
CONTINUOUS
 62
               7
100
AcDbLine
 10
203.0
 20
-46.999999999999972
 30
0.0
 11
14.0
 21
-46.999999999999972
 31
0.0
  0
LINE
  5
36B
100
AcDbEntity
  8
0
  6
CONTINUOUS
 62
               7
100
AcDbLine
 10
203.0
 20
-24.999999999999972
 30
0.0
 11
14.0
 21
-24.999999999999972
 31
0.0
  0
LINE
  5
36C
100
AcDbEntity
  8
0
  6
CONTINUOUS
 62
               7
100
AcDbLine
 10
203.0
 20
-6.9999999999999716
 30
0.0
 11
14.0
 21
-6.9999999999999716
 31
0.0
  0
LINE
  5
36D
100
AcDbEntity
  8
0
  6
CONTINUOUS
 62
               7
100
AcDbLine
 10
203.0
 20
-58.799999999999983
 30
0.0
 11
14.0
 21
-58.799999999999983
 31
0.0
  0
LINE
  5
36E
100
AcDbEntity
  8
0
  6
CONTINUOUS
 62
               7
100
AcDbLine
 10
203.0
 20
-46.19999999999996
 30
0.0
 11
14.0
 21
-46.19999999999996
 31
0.0
  0
LINE
  5
36F
100
AcDbEntity
  8
0
  6
CONTINUOUS
 62
               7
100
AcDbLine
 10
203.0
 20
-25.799999999999983
 30
0.0
 11
14.0
 21
-25.799999999999983
 31
0.0
  0
LINE
  5
370
100
AcDbEntity
  8
0
  6
CONTINUOUS
 62
               7
100
AcDbLine
 10
203.0
 20
-6.1999999999999602
 30
0.0
 11
14.0
 21
-6.1999999999999602
 31
0.0
  0
LINE
  5
371
100
AcDbEntity
  8
0
  6
CONTINUOUS
 62
               7
100
AcDbLine
 10
14.0
 20
-5.0
 30
0.0
 11
12.0
 21
-5.0
 31
0.0
  0
LINE
  5
372
100
AcDbEntity
  8
0
  6
CONTINUOUS
 62
               7
100
AcDbLine
 10
14.0
 20
-14.5
 30
0.0
 11
12.0
 21
-14.5
 31
0.0
  0
LINE
  5
373
100
AcDbEntity
  8
0
  6
CONTINUOUS
 62
               7
100
AcDbLine
 10
14.0
 20
-22.0
 30
0.0
 11
12.0
 21
-22.0
 31
0.0
  0
LINE
  5
374
100
AcDbEntity
  8
0
  6
CONTINUOUS
 62
               7
100
AcDbLine
 10
12.100000000000023
 20
-44.000000000000597
 30
0.0
 11
14.0
 21
-44.000000000000597
 31
0.0
  0
LINE
  5
375
100
AcDbEntity
  8
0
  6
CONTINUOUS
 62
               7
100
AcDbLine
 10
12.100000000000023
 20
-30.000000000000597
 30
0.0
 11
12.100000000000023
 21
-44.000000000000597
 31
0.0
  0
LINE
  5
376
100
AcDbEntity
  8
0
  6
CONTINUOUS
 62
               7
100
AcDbLine
 10
12.100000000000023
 20
-30.000000000000597
 30
0.0
 11
14.0
 21
-30.000000000000597
 31
0.0
  0
LINE
  5
377
100
AcDbEntity
  8
0
  6
CENTER
 62
               2
100
AcDbLine
 10
-1.5000000168065526
 20
-37.000000000000597
 30
0.0
 11
15.5
 21
-37.000000000000597
 31
0.0
  0
LINE
  5
378
100
AcDbEntity
  8
0
  6
CONTINUOUS
 62
               7
100
AcDbLine
 10
-0.0000000168065526
 20
-50.000000000000597
 30
0.0
 11
11.999999983193447
 21
-50.000000000000597
 31
0.0
  0
LINE
  5
379
100
AcDbEntity
  8
0
  6
CENTER
 62
               2
100
AcDbLine
 10
53.25
 20
-12.499999999999972
 30
0.0
 11
43.75
 21
-12.499999999999972
 31
0.0
  0
LINE
  5
37A
100
AcDbEntity
  8
0
  6
CONTINUOUS
 62
               7
100
AcDbLine
 10
47.778312163512965
 20
-13.749999999999972
 30
0.0
 11
49.221687836487035
 21
-13.749999999999972
 31
0.0
  0
LINE
  5
37B
100
AcDbEntity
  8
0
  6
CONTINUOUS
 62
               7
100
AcDbLine
 10
47.056624327025929
 20
-12.499999999999972
 30
0.0
 11
47.778312163512965
 21
-13.749999999999972
 31
0.0
  0
LINE
  5
37C
100
AcDbEntity
  8
0
  6
CONTINUOUS
 62
               7
100
AcDbLine
 10
49.943375672974071
 20
-12.499999999999972
 30
0.0
 11
49.221687836487035
 21
-13.749999999999972
 31
0.0
  0
LINE
  5
37D
100
AcDbEntity
  8
0
  6
CONTINUOUS
 62
               7
100
AcDbLine
 10
49.943375672974071
 20
-12.499999999999972
 30
0.0
 11
49.221687836487035
 21
-11.249999999999972
 31
0.0
  0
LINE
  5
37E
100
AcDbEntity
  8
0
  6
CONTINUOUS
 62
               7
100
AcDbLine
 10
47.778312163512965
 20
-11.249999999999972
 30
0.0
 11
49.221687836487035
 21
-11.249999999999972
 31
0.0
  0
LINE
  5
37F
100
AcDbEntity
  8
0
  6
CONTINUOUS
 62
               7
100
AcDbLine
 10
47.056624327025929
 20
-12.499999999999972
 30
0.0
 11
47.778312163512965
 21
-11.249999999999972
 31
0.0
  0
CIRCLE
  5
380
100
AcDbEntity
  8
0
  6
CONTINUOUS
 62
               7
100
AcDbCircle
 10
48.5
 20
-12.499999999999972
 30
0.0
 40
2.75
  0
CIRCLE
  5
381
100
AcDbEntity
  8
0
  6
CONTINUOUS
 62
               7
100
AcDbCircle
 10
48.5
 20
-12.499999999999972
 30
0.0
 40
3.25
  0
LINE
  5
382
100
AcDbEntity
  8
0
  6
CENTER
 62
               2
100
AcDbLine
 10
48.5
 20
-17.249999999999972
 30
0.0
 11
48.5
 21
-7.7499999999999716
 31
0.0
  0
LINE
  5
383
100
AcDbEntity
  8
0
  6
CONTINUOUS
 62
               7
100
AcDbLine
 10
72.056624327025929
 20
-12.499999999999972
 30
0.0
 11
72.778312163512965
 21
-11.249999999999972
 31
0.0
  0
LINE
  5
384
100
AcDbEntity
  8
0
  6
CONTINUOUS
 62
               7
100
AcDbLine
 10
72.778312163512965
 20
-11.249999999999972
 30
0.0
 11
74.221687836487035
 21
-11.249999999999972
 31
0.0
  0
LINE
  5
385
100
AcDbEntity
  8
0
  6
CONTINUOUS
 62
               7
100
AcDbLine
 10
74.943375672974071
 20
-12.499999999999972
 30
0.0
 11
74.221687836487035
 21
-11.249999999999972
 31
0.0
  0
LINE
  5
386
100
AcDbEntity
  8
0
  6
CONTINUOUS
 62
               7
100
AcDbLine
 10
74.943375672974071
 20
-12.499999999999972
 30
0.0
 11
74.221687836487035
 21
-13.749999999999972
 31
0.0
  0
LINE
  5
387
100
AcDbEntity
  8
0
  6
CONTINUOUS
 62
               7
100
AcDbLine
 10
72.056624327025929
 20
-12.499999999999972
 30
0.0
 11
72.778312163512965
 21
-13.749999999999972
 31
0.0
  0
LINE
  5
388
100
AcDbEntity
  8
0
  6
CONTINUOUS
 62
               7
100
AcDbLine
 10
72.778312163512965
 20
-13.749999999999972
 30
0.0
 11
74.221687836487035
 21
-13.749999999999972
 31
0.0
  0
CIRCLE
  5
389
100
AcDbEntity
  8
0
  6
CONTINUOUS
 62
               7
100
AcDbCircle
 10
73.5
 20
-12.499999999999972
 30
0.0
 40
2.75
  0
CIRCLE
  5
38A
100
AcDbEntity
  8
0
  6
CONTINUOUS
 62
               7
100
AcDbCircle
 10
27.0
 20
-14.999999999999972
 30
0.0
 40
3.2999999999999998
  0
LINE
  5
38B
100
AcDbEntity
  8
0
  6
CENTER
 62
               2
100
AcDbLine
 10
21.5
 20
-14.999999999999972
 30
0.0
 11
32.5
 21
-14.999999999999972
 31
0.0
  0
LINE
  5
38C
100
AcDbEntity
  8
0
  6
CENTER
 62
               2
100
AcDbLine
 10
27.0
 20
-20.499999999999972
 30
0.0
 11
27.0
 21
-9.4999999999999716
 31
0.0
  0
CIRCLE
  5
38D
100
AcDbEntity
  8
0
  6
CONTINUOUS
 62
               2
100
AcDbCircle
 10
27.0
 20
-14.999999999999972
 30
0.0
 40
4.0
  0
CIRCLE
  5
38E
100
AcDbEntity
  8
0
  6
CONTINUOUS
 62
               7
100
AcDbCircle
 10
97.0
 20
-14.999999999999972
 30
0.0
 40
3.2999999999999998
  0
LINE
  5
38F
100
AcDbEntity
  8
0
  6
CENTER
 62
               2
100
AcDbLine
 10
91.5
 20
-14.999999999999972
 30
0.0
 11
102.5
 21
-14.999999999999972
 31
0.0
  0
LINE
  5
390
100
AcDbEntity
  8
0
  6
CENTER
 62
               2
100
AcDbLine
 10
97.0
 20
-20.499999999999972
 30
0.0
 11
97.0
 21
-9.4999999999999716
 31
0.0
  0
CIRCLE
  5
391
100
AcDbEntity
  8
0
  6
CONTINUOUS
 62
               2
100
AcDbCircle
 10
97.0
 20
-14.999999999999972
 30
0.0
 40
4.0
  0
CIRCLE
  5
392
100
AcDbEntity
  8
0
  6
CONTINUOUS
 62
               4
100
AcDbCircle
 10
167.0
 20
-14.999999999999972
 30
0.0
 40
3.2999999999999998
  0
CIRCLE
  5
393
100
AcDbEntity
  8
0
  6
CONTINUOUS
 62
               7
100
AcDbCircle
 10
73.5
 20
-12.499999999999972
 30
0.0
 40
3.25
  0
LINE
  5
394
100
AcDbEntity
  8
0
  6
CENTER
 62
               2
100
AcDbLine
 10
73.5
 20
-17.249999999999972
 30
0.0
 11
73.5
 21
-7.7499999999999716
 31
0.0
  0
LINE
  5
395
100
AcDbEntity
  8
0
  6
CENTER
 62
               2
100
AcDbLine
 10
78.25
 20
-12.499999999999972
 30
0.0
 11
68.75
 21
-12.499999999999972
 31
0.0
  0
LINE
  5
396
100
AcDbEntity
  8
0
  6
CENTER
 62
             200
100
AcDbLine
 10
161.5
 20
-14.999999999999972
 30
0.0
 11
172.5
 21
-14.999999999999972
 31
0.0
  0
LINE
  5
397
100
AcDbEntity
  8
0
  6
CENTER
 62
             200
100
AcDbLine
 10
167.0
 20
-20.499999999999972
 30
0.0
 11
167.0
 21
-9.4999999999999716
 31
0.0
  0
CIRCLE
  5
398
100
AcDbEntity
  8
0
  6
CONTINUOUS
 62
             200
100
AcDbCircle
 10
167.0
 20
-14.999999999999972
 30
0.0
 40
4.0
  0
LINE
  5
399
100
AcDbEntity
  8
0
  6
CONTINUOUS
 62
               7
100
AcDbLine
 10
203.0
 20
0.0
 30
0.0
 11
203.0
 21
-60.0
 31
0.0
  0
LINE
  5
39A
100
AcDbEntity
  8
0
  6
CONTINUOUS
 62
               4
100
AcDbLine
 10
236.0
 20
-5.25
 30
0.0
 11
235.25
 21
-6.0
 31
0.0
  0
LINE
  5
39B
100
AcDbEntity
  8
0
  6
CONTINUOUS
 62
               4
100
AcDbLine
 10
242.0
 20
-5.25
 30
0.0
 11
242.0
 21
-4.0
 31
0.0
  0
LINE
  5
39C
100
AcDbEntity
  8
0
  6
CONTINUOUS
 62
               4
100
AcDbLine
 10
236.0
 20
-5.25
 30
0.0
 11
242.0
 21
-5.25
 31
0.0
  0
LINE
  5
39D
100
AcDbEntity
  8
0
  6
CONTINUOUS
 62
               4
100
AcDbLine
 10
242.0
 20
-4.0
 30
0.0
 11
245.72168783648704
 21
-4.0
 31
0.0
  0
LINE
  5
39E
100
AcDbEntity
  8
0
  6
CONTINUOUS
 62
               4
100
AcDbLine
 10
245.72168783648704
 20
-4.0
 30
0.0
 11
246.0
 21
-3.5179491924311321
 31
0.0
  0
LINE
  5
39F
100
AcDbEntity
  8
0
  6
CONTINUOUS
 62
             200
100
AcDbLine
 10
228.0
 20
-5.5
 30
0.0
 11
235.75
 21
-5.5
 31
0.0
  0
LINE
  5
3A0
100
AcDbEntity
  8
0
  6
CONTINUOUS
 62
               4
100
AcDbLine
 10
228.0
 20
-6.0
 30
0.0
 11
235.25
 21
-6.0
 31
0.0
  0
LINE
  5
3A1
100
AcDbEntity
  8
0
  6
CENTER
 62
             200
100
AcDbLine
 10
226.5
 20
-15.0
 30
0.0
 11
201.5
 21
-15.0
 31
0.0
  0
LINE
  5
3A2
100
AcDbEntity
  8
0
  6
CONTINUOUS
 62
               4
100
AcDbLine
 10
225.0
 20
-7.0
 30
0.0
 11
228.0
 21
-7.0
 31
0.0
  0
ARC
  5
3A3
100
AcDbEntity
  8
0
  6
CONTINUOUS
 62
               4
100
AcDbCircle
 10
235.10924076103788
 20
-3.5
 30
0.0
 40
10.10924076103786
100
AcDbArc
 50
159.74384199958308
 51
200.25615800041612
  0
ARC
  5
3A4
100
AcDbEntity
  8
0
  6
CONTINUOUS
 62
               4
100
AcDbCircle
 10
217.89075923896212
 20
-3.5
 30
0.0
 40
10.10924076103786
100
AcDbArc
 50
339.74384199958348
 51
20.256158000416512
  0
LINE
  5
3A5
100
AcDbEntity
  8
0
  6
CONTINUOUS
 62
               4
100
AcDbLine
 10
203.0
 20
-22.0
 30
0.0
 11
225.0
 21
-22.0
 31
0.0
  0
ENDBLK
  5
3A6
100
AcDbEntity
  8
0
100
AcDbBlockEnd
  0
BLOCK
  5
3A7
100
AcDbEntity
  8
0
100
AcDbBlockBegin
  2
ZS25SS-8
 70
               0
 10
0.0
 20
0.0
 30
0.0
  3
ZS25SS-8
  1

  0
LINE
  5
3A8
100
AcDbEntity
  8
0
  6
CONTINUOUS
 62
               4
100
AcDbLine
 10
37.5
 20
-3.0
 30
0.0
 11
40.5
 21
-3.0
 31
0.0
  0
LINE
  5
3A9
100
AcDbEntity
  8
0
  6
CONTINUOUS
 62
               4
100
AcDbLine
 10
37.5
 20
-2.5
 30
0.0
 11
40.5
 21
-2.5
 31
0.0
  0
LINE
  5
3AA
100
AcDbEntity
  8
0
  6
CONTINUOUS
 62
               4
100
AcDbLine
 10
37.5
 20
-2.0999999999999943
 30
0.0
 11
40.5
 21
-2.0999999999999943
 31
0.0
  0
LINE
  5
3AB
100
AcDbEntity
  8
0
  6
CONTINUOUS
 62
               4
100
AcDbLine
 10
37.5
 20
-1.5999999999999943
 30
0.0
 11
40.5
 21
-1.5999999999999943
 31
0.0
  0
LINE
  5
3AC
100
AcDbEntity
  8
0
  6
CENTER
 62
             200
100
AcDbLine
 10
28.82000000000005
 20
-2.75
 30
0.0
 11
40.75
 21
-2.75
 31
0.0
  0
LINE
  5
3AD
100
AcDbEntity
  8
0
  6
CENTER
 62
             200
100
AcDbLine
 10
28.769999999999982
 20
-1.8499999999999943
 30
0.0
 11
40.700000000000045
 21
-1.8499999999999943
 31
0.0
  0
LINE
  5
3AE
100
AcDbEntity
  8
0
  6
CONTINUOUS
 62
               4
100
AcDbLine
 10
0.0
 20
0.0
 30
0.0
 11
22.0
 21
0.0
 31
0.0
  0
LINE
  5
3AF
100
AcDbEntity
  8
0
  6
CONTINUOUS
 62
               4
100
AcDbLine
 10
4.7000000000000455
 20
-4.5999999999999943
 30
0.0
 11
22.0
 21
-4.5999999999999943
 31
0.0
  0
LINE
  5
3B0
100
AcDbEntity
  8
0
  6
CONTINUOUS
 62
               4
100
AcDbLine
 10
22.0
 20
0.0
 30
0.0
 11
22.0
 21
-4.5999999999999943
 31
0.0
  0
LINE
  5
3B1
100
AcDbEntity
  8
0
  6
CONTINUOUS
 62
               4
100
AcDbLine
 10
0.0
 20
-1.7999999999999972
 30
0.0
 11
0.0
 21
0.0
 31
0.0
  0
LINE
  5
3B2
100
AcDbEntity
  8
0
  6
CONTINUOUS
 62
               4
100
AcDbLine
 10
4.7000000000000455
 20
-3.0400000000000063
 30
0.0
 11
4.7000000000000455
 21
-4.5999999999999943
 31
0.0
  0
LINE
  5
3B3
100
AcDbEntity
  8
0
  6
CONTINUOUS
 62
               4
100
AcDbLine
 10
0.0
 20
-1.7999999999999972
 30
0.0
 11
4.25
 21
-1.7999999999999972
 31
0.0
  0
LINE
  5
3B4
100
AcDbEntity
  8
0
  6
CENTER
 62
             200
100
AcDbLine
 10
2.0
 20
0.7999999999999972
 30
0.0
 11
2.0
 21
-5.4300000000000068
 31
0.0
  0
LINE
  5
3B5
100
AcDbEntity
  8
0
  6
CONTINUOUS
 62
               4
100
AcDbLine
 10
4.25
 20
-1.7999999999999972
 30
0.0
 11
4.25
 21
-3.0400000000000063
 31
0.0
  0
LINE
  5
3B6
100
AcDbEntity
  8
0
  6
CONTINUOUS
 62
               4
100
AcDbLine
 10
4.0
 20
-1.7999999999999972
 30
0.0
 11
4.0
 21
-2.5999999999999943
 31
0.0
  0
LINE
  5
3B7
100
AcDbEntity
  8
0
  6
CONTINUOUS
 62
               4
100
AcDbLine
 10
0.0
 20
-1.7999999999999972
 30
0.0
 11
0.0
 21
-2.5999999999999943
 31
0.0
  0
LINE
  5
3B8
100
AcDbEntity
  8
0
  6
CONTINUOUS
 62
               4
100
AcDbLine
 10
0.0
 20
-2.5999999999999943
 30
0.0
 11
4.0
 21
-2.5999999999999943
 31
0.0
  0
LINE
  5
3B9
100
AcDbEntity
  8
0
  6
CONTINUOUS
 62
               4
100
AcDbLine
 10
4.2000000000000455
 20
-1.7999999999999972
 30
0.0
 11
4.2000000000000455
 21
-3.7999999999999972
 31
0.0
  0
LINE
  5
3BA
100
AcDbEntity
  8
0
  6
CONTINUOUS
 62
               4
100
AcDbLine
 10
4.2000000000000455
 20
-3.7999999999999972
 30
0.0
 11
4.7000000000000455
 21
-3.7999999999999972
 31
0.0
  0
LINE
  5
3BB
100
AcDbEntity
  8
0
  6
CONTINUOUS
 62
               4
100
AcDbLine
 10
4.25
 20
-3.0400000000000063
 30
0.0
 11
4.7000000000000455
 21
-3.0400000000000063
 31
0.0
  0
LINE
  5
3BC
100
AcDbEntity
  8
0
  6
CONTINUOUS
 62
               4
100
AcDbLine
 10
30.5
 20
-1.0
 30
0.0
 11
30.5
 21
-3.5999999999999943
 31
0.0
  0
LINE
  5
3BD
100
AcDbEntity
  8
0
  6
CONTINUOUS
 62
               4
100
AcDbLine
 10
37.5
 20
-1.4000000000000057
 30
0.0
 11
37.5
 21
-3.2000000000000028
 31
0.0
  0
LINE
  5
3BE
100
AcDbEntity
  8
0
  6
CONTINUOUS
 62
               4
100
AcDbLine
 10
30.5
 20
-3.2000000000000028
 30
0.0
 11
34.5
 21
-3.2000000000000028
 31
0.0
  0
LINE
  5
3BF
100
AcDbEntity
  8
0
  6
CONTINUOUS
 62
               4
100
AcDbLine
 10
30.5
 20
-2.2999999999999972
 30
0.0
 11
33.980000000000018
 21
-2.2999999999999972
 31
0.0
  0
LINE
  5
3C0
100
AcDbEntity
  8
0
  6
CONTINUOUS
 62
               4
100
AcDbLine
 10
35.480000000000018
 20
-2.2999999999999972
 30
0.0
 11
37.5
 21
-2.2999999999999972
 31
0.0
  0
LINE
  5
3C1
100
AcDbEntity
  8
0
  6
CONTINUOUS
 62
               4
100
AcDbLine
 10
36.0
 20
-3.2000000000000028
 30
0.0
 11
37.5
 21
-3.2000000000000028
 31
0.0
  0
LINE
  5
3C2
100
AcDbEntity
  8
0
  6
CONTINUOUS
 62
               4
100
AcDbLine
 10
30.5
 20
-1.4000000000000057
 30
0.0
 11
33.460000000000036
 21
-1.4000000000000057
 31
0.0
  0
LINE
  5
3C3
100
AcDbEntity
  8
0
  6
CONTINUOUS
 62
               4
100
AcDbLine
 10
34.960000000000036
 20
-1.4000000000000057
 30
0.0
 11
37.5
 21
-1.4000000000000057
 31
0.0
  0
LINE
  5
3C4
100
AcDbEntity
  8
0
  6
CONTINUOUS
 62
             200
100
AcDbLine
 10
34.230000000000018
 20
-0.1299999999999955
 30
0.0
 11
36.730000000000018
 21
-4.4599999999999937
 31
0.0
  0
LINE
  5
3C5
100
AcDbEntity
  8
0
  6
CENTER
 62
             200
100
AcDbLine
 10
20.680000000000064
 20
-2.2999999999999972
 30
0.0
 11
30.5
 21
-2.2999999999999972
 31
0.0
  0
LINE
  5
3C6
100
AcDbEntity
  8
0
  6
CONTINUOUS
 62
             200
100
AcDbLine
 10
32.730000000000018
 20
-0.1299999999999955
 30
0.0
 11
35.230000000000018
 21
-4.4599999999999937
 31
0.0
  0
LINE
  5
3C7
100
AcDbEntity
  8
0
  6
CONTINUOUS
 62
             200
100
AcDbLine
 10
25.25
 20
-0.1299999999999955
 30
0.0
 11
27.75
 21
-4.4599999999999937
 31
0.0
  0
LINE
  5
3C8
100
AcDbEntity
  8
0
  6
CONTINUOUS
 62
             200
100
AcDbLine
 10
23.75
 20
-0.1299999999999955
 30
0.0
 11
26.25
 21
-4.4599999999999937
 31
0.0
  0
LINE
  5
3C9
100
AcDbEntity
  8
0
  6
CONTINUOUS
 62
               4
100
AcDbLine
 10
0.9700000000000273
 20
-4.0
 30
0.0
 11
3.0200000000000387
 21
-4.0
 31
0.0
  0
LINE
  5
3CA
100
AcDbEntity
  8
0
  6
CONTINUOUS
 62
               4
100
AcDbLine
 10
3.0200000000000387
 20
-4.0
 30
0.0
 11
3.25
 21
-3.769999999999996
 31
0.0
  0
LINE
  5
3CB
100
AcDbEntity
  8
0
  6
CONTINUOUS
 62
               4
100
AcDbLine
 10
0.9700000000000273
 20
-4.0
 30
0.0
 11
0.75
 21
-3.769999999999996
 31
0.0
  0
LINE
  5
3CC
100
AcDbEntity
  8
0
  6
CONTINUOUS
 62
               4
100
AcDbLine
 10
0.75
 20
-2.5900000000000034
 30
0.0
 11
0.75
 21
-3.769999999999996
 31
0.0
  0
LINE
  5
3CD
100
AcDbEntity
  8
0
  6
CONTINUOUS
 62
             200
100
AcDbLine
 10
0.9700000000000273
 20
-2.5900000000000034
 30
0.0
 11
0.9700000000000273
 21
-4.0
 31
0.0
  0
LINE
  5
3CE
100
AcDbEntity
  8
0
  6
CONTINUOUS
 62
             200
100
AcDbLine
 10
3.0200000000000387
 20
-2.5900000000000034
 30
0.0
 11
3.0200000000000387
 21
-4.0
 31
0.0
  0
LINE
  5
3CF
100
AcDbEntity
  8
0
  6
CONTINUOUS
 62
               4
100
AcDbLine
 10
3.25
 20
-2.5900000000000034
 30
0.0
 11
3.25
 21
-3.769999999999996
 31
0.0
  0
LINE
  5
3D0
100
AcDbEntity
  8
0
  6
CONTINUOUS
 62
               4
100
AcDbLine
 10
0.75
 20
-3.769999999999996
 30
0.0
 11
3.25
 21
-3.769999999999996
 31
0.0
  0
LINE
  5
3D1
100
AcDbEntity
  8
0
  6
CONTINUOUS
 62
               4
100
AcDbLine
 10
0.75
 20
0.5
 30
0.0
 11
0.75
 21
0.0
 31
0.0
  0
LINE
  5
3D2
100
AcDbEntity
  8
0
  6
CONTINUOUS
 62
             200
100
AcDbLine
 10
0.9700000000000273
 20
0.5
 30
0.0
 11
0.9700000000000273
 21
0.0
 31
0.0
  0
LINE
  5
3D3
100
AcDbEntity
  8
0
  6
CONTINUOUS
 62
             200
100
AcDbLine
 10
3.0200000000000387
 20
0.5
 30
0.0
 11
3.0200000000000387
 21
0.0
 31
0.0
  0
LINE
  5
3D4
100
AcDbEntity
  8
0
  6
CONTINUOUS
 62
               4
100
AcDbLine
 10
3.25
 20
0.5
 30
0.0
 11
3.25
 21
0.0
 31
0.0
  0
LINE
  5
3D5
100
AcDbEntity
  8
0
  6
CONTINUOUS
 62
               4
100
AcDbLine
 10
0.75
 20
0.5
 30
0.0
 11
3.25
 21
0.5
 31
0.0
  0
LINE
  5
3D6
100
AcDbEntity
  8
0
  6
CONTINUOUS
 62
               4
100
AcDbLine
 10
0.0
 20
-1.0
 30
0.0
 11
22.0
 21
-1.0
 31
0.0
  0
LINE
  5
3D7
100
AcDbEntity
  8
0
  6
CONTINUOUS
 62
               4
100
AcDbLine
 10
0.0
 20
-0.4500000000000028
 30
0.0
 11
22.0
 21
-0.4500000000000028
 31
0.0
  0
LINE
  5
3D8
100
AcDbEntity
  8
0
  6
CONTINUOUS
 62
               4
100
AcDbLine
 10
22.0
 20
-1.0
 30
0.0
 11
24.25
 21
-1.0
 31
0.0
  0
LINE
  5
3D9
100
AcDbEntity
  8
0
  6
CONTINUOUS
 62
               4
100
AcDbLine
 10
22.0
 20
-3.5999999999999943
 30
0.0
 11
25.75
 21
-3.5999999999999943
 31
0.0
  0
LINE
  5
3DA
100
AcDbEntity
  8
0
  6
CONTINUOUS
 62
               4
100
AcDbLine
 10
25.75
 20
-1.0
 30
0.0
 11
30.5
 21
-1.0
 31
0.0
  0
LINE
  5
3DB
100
AcDbEntity
  8
0
  6
CONTINUOUS
 62
               4
100
AcDbLine
 10
27.25
 20
-3.5999999999999943
 30
0.0
 11
30.5
 21
-3.5999999999999943
 31
0.0
  0
ENDBLK
  5
3DC
100
AcDbEntity
  8
0
100
AcDbBlockEnd
  0
BLOCK
  5
3DD
100
AcDbEntity
  8
0
100
AcDbBlockBegin
  2
ZS25SS-9
 70
               0
 10
0.0
 20
0.0
 30
0.0
  3
ZS25SS-9
  1

  0
LINE
  5
3DE
100
AcDbEntity
  8
0
  6
CENTER
 62
             200
100
AcDbLine
 10
0.0
 20
2.0499999999999972
 30
0.0
 11
0.0
 21
-6.6599999999999966
 31
0.0
  0
LINE
  5
3DF
100
AcDbEntity
  8
0
  6
CONTINUOUS
 62
               4
100
AcDbLine
 10
-2.0499999999999545
 20
-1.0
 30
0.0
 11
-2.0499999999999545
 21
-2.5499999999999972
 31
0.0
  0
LINE
  5
3E0
100
AcDbEntity
  8
0
  6
CONTINUOUS
 62
               4
100
AcDbLine
 10
-2.0499999999999545
 20
-1.0
 30
0.0
 11
-1.5
 21
-0.4500000000000028
 31
0.0
  0
LINE
  5
3E1
100
AcDbEntity
  8
0
  6
CONTINUOUS
 62
               4
100
AcDbLine
 10
-1.5
 20
0.0
 30
0.0
 11
-1.5
 21
-0.4500000000000028
 31
0.0
  0
LINE
  5
3E2
100
AcDbEntity
  8
0
  6
CONTINUOUS
 62
               4
100
AcDbLine
 10
-1.5
 20
0.0
 30
0.0
 11
1.5
 21
0.0
 31
0.0
  0
LINE
  5
3E3
100
AcDbEntity
  8
0
  6
CONTINUOUS
 62
               4
100
AcDbLine
 10
1.5
 20
0.0
 30
0.0
 11
1.5
 21
-0.4500000000000028
 31
0.0
  0
LINE
  5
3E4
100
AcDbEntity
  8
0
  6
CONTINUOUS
 62
               4
100
AcDbLine
 10
2.0500000000000682
 20
-1.0
 30
0.0
 11
1.5
 21
-0.4500000000000028
 31
0.0
  0
LINE
  5
3E5
100
AcDbEntity
  8
0
  6
CONTINUOUS
 62
               4
100
AcDbLine
 10
2.0500000000000682
 20
-1.0
 30
0.0
 11
2.0500000000000682
 21
-2.5499999999999972
 31
0.0
  0
LINE
  5
3E6
100
AcDbEntity
  8
0
  6
CONTINUOUS
 62
               4
100
AcDbLine
 10
-2.0499999999999545
 20
-1.7999999999999972
 30
0.0
 11
2.0500000000000682
 21
-1.7999999999999972
 31
0.0
  0
LINE
  5
3E7
100
AcDbEntity
  8
0
  6
CONTINUOUS
 62
               4
100
AcDbLine
 10
-2.0496097189465119
 20
-2.5900000000000034
 30
0.0
 11
2.0496097189465114
 21
-2.5900000000000034
 31
0.0
  0
LINE
  5
3E8
100
AcDbEntity
  8
0
  6
CONTINUOUS
 62
               4
100
AcDbLine
 10
-1.0199999999999818
 20
-4.0
 30
0.0
 11
1.0199999999999818
 21
-4.0
 31
0.0
  0
LINE
  5
3E9
100
AcDbEntity
  8
0
  6
CONTINUOUS
 62
               4
100
AcDbLine
 10
1.0199999999999818
 20
-4.0
 30
0.0
 11
1.25
 21
-3.769999999999996
 31
0.0
  0
LINE
  5
3EA
100
AcDbEntity
  8
0
  6
CONTINUOUS
 62
               4
100
AcDbLine
 10
-1.0199999999999818
 20
-4.0
 30
0.0
 11
-1.25
 21
-3.769999999999996
 31
0.0
  0
LINE
  5
3EB
100
AcDbEntity
  8
0
  6
CONTINUOUS
 62
               4
100
AcDbLine
 10
-1.25
 20
-2.5900000000000034
 30
0.0
 11
-1.25
 21
-3.769999999999996
 31
0.0
  0
LINE
  5
3EC
100
AcDbEntity
  8
0
  6
CONTINUOUS
 62
             200
100
AcDbLine
 10
-1.0199999999999818
 20
-2.5900000000000034
 30
0.0
 11
-1.0199999999999818
 21
-4.0
 31
0.0
  0
LINE
  5
3ED
100
AcDbEntity
  8
0
  6
CONTINUOUS
 62
             200
100
AcDbLine
 10
1.0199999999999818
 20
-2.5900000000000034
 30
0.0
 11
1.0199999999999818
 21
-4.0
 31
0.0
  0
LINE
  5
3EE
100
AcDbEntity
  8
0
  6
CONTINUOUS
 62
               4
100
AcDbLine
 10
1.25
 20
-2.5900000000000034
 30
0.0
 11
1.25
 21
-3.769999999999996
 31
0.0
  0
LINE
  5
3EF
100
AcDbEntity
  8
0
  6
CONTINUOUS
 62
               4
100
AcDbLine
 10
-1.25
 20
-3.769999999999996
 30
0.0
 11
1.25
 21
-3.769999999999996
 31
0.0
  0
LINE
  5
3F0
100
AcDbEntity
  8
0
  6
CONTINUOUS
 62
               4
100
AcDbLine
 10
-1.25
 20
0.5
 30
0.0
 11
-1.25
 21
0.0
 31
0.0
  0
LINE
  5
3F1
100
AcDbEntity
  8
0
  6
CONTINUOUS
 62
             200
100
AcDbLine
 10
-1.0199999999999818
 20
0.5
 30
0.0
 11
-1.0199999999999818
 21
0.0
 31
0.0
  0
LINE
  5
3F2
100
AcDbEntity
  8
0
  6
CONTINUOUS
 62
             200
100
AcDbLine
 10
1.0199999999999818
 20
0.5
 30
0.0
 11
1.0199999999999818
 21
0.0
 31
0.0
  0
LINE
  5
3F3
100
AcDbEntity
  8
0
  6
CONTINUOUS
 62
               4
100
AcDbLine
 10
1.25
 20
0.5
 30
0.0
 11
1.25
 21
0.0
 31
0.0
  0
LINE
  5
3F4
100
AcDbEntity
  8
0
  6
CONTINUOUS
 62
               4
100
AcDbLine
 10
-1.25
 20
0.5
 30
0.0
 11
1.25
 21
0.5
 31
0.0
  0
ARC
  5
3F5
100
AcDbEntity
  8
0
  6
CONTINUOUS
 62
               4
100
AcDbCircle
 10
0.0
 20
-2.5499999999999998
 30
0.0
 40
2.0499999999999998
100
AcDbArc
 50
179.99999999999952
 51
0.0000000000001018
  0
ENDBLK
  5
3F6
100
AcDbEntity
  8
0
100
AcDbBlockEnd
  0
BLOCK
  5
3F7
100
AcDbEntity
  8
0
100
AcDbBlockBegin
  2
ZS25SS-10
 70
               0
 10
0.0
 20
0.0
 30
0.0
  3
ZS25SS-10
  1

  0
LINE
  5
3F8
100
AcDbEntity
  8
0
  6
CENTER
 62
             200
100
AcDbLine
 10
-2.7999999999999545
 20
0.0
 30
0.0
 11
27.400000000000034
 21
0.0
 31
0.0
  0
LINE
  5
3F9
100
AcDbEntity
  8
0
  6
CONTINUOUS
 62
               4
100
AcDbLine
 10
0.0
 20
-1.5
 30
0.0
 11
22.0
 21
-1.5
 31
0.0
  0
LINE
  5
3FA
100
AcDbEntity
  8
0
  6
CONTINUOUS
 62
               4
100
AcDbLine
 10
0.0
 20
1.5
 30
0.0
 11
22.0
 21
1.5
 31
0.0
  0
LINE
  5
3FB
100
AcDbEntity
  8
0
  6
CONTINUOUS
 62
               4
100
AcDbLine
 10
0.0
 20
-2.0499999999999972
 30
0.0
 11
22.0
 21
-2.0499999999999972
 31
0.0
  0
LINE
  5
3FC
100
AcDbEntity
  8
0
  6
CONTINUOUS
 62
               4
100
AcDbLine
 10
0.0
 20
2.0499999999999972
 30
0.0
 11
22.0
 21
2.0499999999999972
 31
0.0
  0
LINE
  5
3FD
100
AcDbEntity
  8
0
  6
CONTINUOUS
 62
               4
100
AcDbLine
 10
0.0
 20
2.0499999999999972
 30
0.0
 11
0.0
 21
-2.0499999999999972
 31
0.0
  0
LINE
  5
3FE
100
AcDbEntity
  8
0
  6
CONTINUOUS
 62
               4
100
AcDbLine
 10
22.0
 20
2.0499999999999972
 30
0.0
 11
22.0
 21
-2.0499999999999972
 31
0.0
  0
LINE
  5
3FF
100
AcDbEntity
  8
0
  6
CENTER
 62
             200
100
AcDbLine
 10
2.0
 20
2.8299999999999983
 30
0.0
 11
2.0
 21
-2.75
 31
0.0
  0
LINE
  5
400
100
AcDbEntity
  8
0
  6
CONTINUOUS
 62
               4
100
AcDbLine
 10
0.9500000000000455
 20
-0.710000000000008
 30
0.0
 11
2.6800000000000637
 21
1.0200000000000102
 31
0.0
  0
LINE
  5
401
100
AcDbEntity
  8
0
  6
CONTINUOUS
 62
               4
100
AcDbLine
 10
1.3000000000000682
 20
-1.0600000000000023
 30
0.0
 11
2.9400000000000546
 21
0.5600000000000023
 31
0.0
  0
LINE
  5
402
100
AcDbEntity
  8
0
  6
CONTINUOUS
 62
             200
100
AcDbLine
 10
23.080000000000041
 20
2.1599999999999966
 30
0.0
 11
25.580000000000041
 21
-2.1599999999999966
 31
0.0
  0
LINE
  5
403
100
AcDbEntity
  8
0
  6
CONTINUOUS
 62
               4
100
AcDbLine
 10
22.0
 20
1.2999999999999972
 30
0.0
 11
23.580000000000041
 21
1.2999999999999972
 31
0.0
  0
LINE
  5
404
100
AcDbEntity
  8
0
  6
CONTINUOUS
 62
               4
100
AcDbLine
 10
22.0
 20
-1.2999999999999972
 30
0.0
 11
25.090000000000032
 21
-1.2999999999999972
 31
0.0
  0
CIRCLE
  5
405
100
AcDbEntity
  8
0
  6
CONTINUOUS
 62
               4
100
AcDbCircle
 10
2.0000152587890625
 20
0.0
 30
0.0
 40
1.25
  0
CIRCLE
  5
406
100
AcDbEntity
  8
0
  6
CONTINUOUS
 62
               4
100
AcDbCircle
 10
2.0000152587890625
 20
0.0
 30
0.0
 40
1.3999996185302734
  0
ENDBLK
  5
407
100
AcDbEntity
  8
0
100
AcDbBlockEnd
  0
BLOCK
  5
408
100
AcDbEntity
  8
0
100
AcDbBlockBegin
  2
ZS25SS-11
 70
               0
 10
0.0
 20
0.0
 30
0.0
  3
ZS25SS-11
  1

  0
LINE
  5
409
100
AcDbEntity
  8
0
  6
CONTINUOUS
 62
               4
100
AcDbLine
 10
0.0
 20
0.0
 30
0.0
 11
16.100000000000023
 21
0.0
 31
0.0
  0
LINE
  5
40A
100
AcDbEntity
  8
0
  6
CONTINUOUS
 62
               4
100
AcDbLine
 10
4.6999999999999886
 20
-4.6000000000000227
 30
0.0
 11
22.0
 21
-4.6000000000000227
 31
0.0
  0
LINE
  5
40B
100
AcDbEntity
  8
0
  6
CONTINUOUS
 62
               4
100
AcDbLine
 10
22.000000000000057
 20
6.8999999999999773
 30
0.0
 11
22.0
 21
-4.6000000000000227
 31
0.0
  0
LINE
  5
40C
100
AcDbEntity
  8
0
  6
CONTINUOUS
 62
               4
100
AcDbLine
 10
0.0
 20
-2.5999999999999943
 30
0.0
 11
0.0
 21
0.0
 31
0.0
  0
LINE
  5
40D
100
AcDbEntity
  8
0
  6
CONTINUOUS
 62
               4
100
AcDbLine
 10
4.7000000000000455
 20
-2.9800000000000182
 30
0.0
 11
4.6999999999999886
 21
-4.6000000000000227
 31
0.0
  0
LINE
  5
40E
100
AcDbEntity
  8
0
  6
CENTER
 62
             200
100
AcDbLine
 10
2.0000000000000568
 20
0.7300000000000182
 30
0.0
 11
2.0
 21
-5.1700000000000159
 31
0.0
  0
LINE
  5
40F
100
AcDbEntity
  8
0
  6
CONTINUOUS
 62
               4
100
AcDbLine
 10
16.100000000000023
 20
6.8999999999999773
 30
0.0
 11
16.100000000000023
 21
0.0
 31
0.0
  0
LINE
  5
410
100
AcDbEntity
  8
0
  6
CONTINUOUS
 62
               4
100
AcDbLine
 10
0.0000000000000568
 20
-1.8000000000000114
 30
0.0
 11
4.2699999999999818
 21
-1.8000000000000114
 31
0.0
  0
LINE
  5
411
100
AcDbEntity
  8
0
  6
CONTINUOUS
 62
               4
100
AcDbLine
 10
0.0
 20
-2.5999999999999943
 30
0.0
 11
4.0000000000000568
 21
-2.6000000000000227
 31
0.0
  0
LINE
  5
412
100
AcDbEntity
  8
0
  6
CONTINUOUS
 62
               4
100
AcDbLine
 10
4.0
 20
-1.8000000000000114
 30
0.0
 11
4.0000000000000568
 21
-2.6000000000000227
 31
0.0
  0
LINE
  5
413
100
AcDbEntity
  8
0
  6
CONTINUOUS
 62
               4
100
AcDbLine
 10
16.100000000000023
 20
6.8999999999999773
 30
0.0
 11
22.000000000000057
 21
6.8999999999999773
 31
0.0
  0
LINE
  5
414
100
AcDbEntity
  8
0
  6
CONTINUOUS
 62
               4
100
AcDbLine
 10
4.1999999999999886
 20
-3.7999999999999829
 30
0.0
 11
4.6999999999999886
 21
-3.8000000000000114
 31
0.0
  0
LINE
  5
415
100
AcDbEntity
  8
0
  6
CONTINUOUS
 62
               4
100
AcDbLine
 10
4.2000000000000455
 20
-1.8000000000000114
 30
0.0
 11
4.1999999999999886
 21
-3.7999999999999829
 31
0.0
  0
LINE
  5
416
100
AcDbEntity
  8
0
  6
CONTINUOUS
 62
               4
100
AcDbLine
 10
4.2699999999999818
 20
-2.9800000000000182
 30
0.0
 11
4.7000000000000455
 21
-2.9800000000000182
 31
0.0
  0
LINE
  5
417
100
AcDbEntity
  8
0
  6
CONTINUOUS
 62
               4
100
AcDbLine
 10
4.2699999999999818
 20
-1.8000000000000114
 30
0.0
 11
4.2699999999999818
 21
-2.9800000000000182
 31
0.0
  0
LINE
  5
418
100
AcDbEntity
  8
0
  6
CONTINUOUS
 62
               4
100
AcDbLine
 10
0.0000000000000568
 20
-1.0000000000000284
 30
0.0
 11
22.000000000000057
 21
-1.0000000000000284
 31
0.0
  0
LINE
  5
419
100
AcDbEntity
  8
0
  6
CONTINUOUS
 62
               4
100
AcDbLine
 10
0.0
 20
-0.4500000000000171
 30
0.0
 11
22.000000000000057
 21
-0.4500000000000171
 31
0.0
  0
LINE
  5
41A
100
AcDbEntity
  8
0
  6
CONTINUOUS
 62
               4
100
AcDbLine
 10
16.10000000000008
 20
1.1500000000000057
 30
0.0
 11
22.0
 21
1.1500000000000057
 31
0.0
  0
LINE
  5
41B
100
AcDbEntity
  8
0
  6
CONTINUOUS
 62
               4
100
AcDbLine
 10
16.100000000000023
 20
0.4000000000000057
 30
0.0
 11
22.000000000000057
 21
0.4000000000000057
 31
0.0
  0
LINE
  5
41C
100
AcDbEntity
  8
0
  6
CONTINUOUS
 62
               4
100
AcDbLine
 10
16.10000000000008
 20
5.3999999999999773
 30
0.0
 11
22.0
 21
5.3999999999999773
 31
0.0
  0
LINE
  5
41D
100
AcDbEntity
  8
0
  6
CONTINUOUS
 62
               4
100
AcDbLine
 10
18.10000000000008
 20
15.399999999999977
 30
0.0
 11
20.700000000000045
 21
15.399999999999977
 31
0.0
  0
LINE
  5
41E
100
AcDbEntity
  8
0
  6
CENTER
 62
             200
100
AcDbLine
 10
18.949999999999989
 20
13.669999999999987
 30
0.0
 11
18.950000000000045
 21
25.599999999999994
 31
0.0
  0
LINE
  5
41F
100
AcDbEntity
  8
0
  6
CENTER
 62
             200
100
AcDbLine
 10
19.850000000000023
 20
13.71999999999997
 30
0.0
 11
19.85000000000008
 21
25.650000000000006
 31
0.0
  0
LINE
  5
420
100
AcDbEntity
  8
0
  6
CONTINUOUS
 62
               4
100
AcDbLine
 10
18.700000000000045
 20
25.399999999999977
 30
0.0
 11
19.200000000000045
 21
25.399999999999977
 31
0.0
  0
LINE
  5
421
100
AcDbEntity
  8
0
  6
CONTINUOUS
 62
               4
100
AcDbLine
 10
19.60000000000008
 20
25.399999999999977
 30
0.0
 11
20.100000000000023
 21
25.400000000000006
 31
0.0
  0
LINE
  5
422
100
AcDbEntity
  8
0
  6
CONTINUOUS
 62
               4
100
AcDbLine
 10
18.500000000000057
 20
22.400000000000006
 30
0.0
 11
20.300000000000068
 21
22.400000000000006
 31
0.0
  0
LINE
  5
423
100
AcDbEntity
  8
0
  6
CONTINUOUS
 62
               4
100
AcDbLine
 10
20.300000000000068
 20
15.400000000000006
 30
0.0
 11
20.300000000000068
 21
19.400000000000006
 31
0.0
  0
LINE
  5
424
100
AcDbEntity
  8
0
  6
CONTINUOUS
 62
               4
100
AcDbLine
 10
19.400000000000091
 20
15.399999999999977
 30
0.0
 11
19.400000000000091
 21
18.879999999999967
 31
0.0
  0
LINE
  5
425
100
AcDbEntity
  8
0
  6
CONTINUOUS
 62
               4
100
AcDbLine
 10
19.400000000000091
 20
20.379999999999967
 30
0.0
 11
19.400000000000091
 21
22.400000000000006
 31
0.0
  0
LINE
  5
426
100
AcDbEntity
  8
0
  6
CONTINUOUS
 62
               4
100
AcDbLine
 10
20.300000000000011
 20
20.900000000000006
 30
0.0
 11
20.300000000000068
 21
22.400000000000006
 31
0.0
  0
LINE
  5
427
100
AcDbEntity
  8
0
  6
CONTINUOUS
 62
               4
100
AcDbLine
 10
18.500000000000057
 20
15.400000000000006
 30
0.0
 11
18.500000000000057
 21
18.359999999999957
 31
0.0
  0
LINE
  5
428
100
AcDbEntity
  8
0
  6
CONTINUOUS
 62
               4
100
AcDbLine
 10
18.500000000000057
 20
19.859999999999957
 30
0.0
 11
18.500000000000057
 21
22.400000000000006
 31
0.0
  0
LINE
  5
429
100
AcDbEntity
  8
0
  6
CONTINUOUS
 62
               4
100
AcDbLine
 10
18.699999999999989
 20
22.399999999999977
 30
0.0
 11
18.700000000000045
 21
25.399999999999977
 31
0.0
  0
LINE
  5
42A
100
AcDbEntity
  8
0
  6
CONTINUOUS
 62
               4
100
AcDbLine
 10
19.200000000000045
 20
22.399999999999977
 30
0.0
 11
19.200000000000045
 21
25.399999999999977
 31
0.0
  0
LINE
  5
42B
100
AcDbEntity
  8
0
  6
CONTINUOUS
 62
               4
100
AcDbLine
 10
19.60000000000008
 20
22.399999999999977
 30
0.0
 11
19.60000000000008
 21
25.399999999999977
 31
0.0
  0
LINE
  5
42C
100
AcDbEntity
  8
0
  6
CONTINUOUS
 62
               4
100
AcDbLine
 10
20.100000000000023
 20
22.400000000000006
 30
0.0
 11
20.100000000000023
 21
25.400000000000006
 31
0.0
  0
LINE
  5
42D
100
AcDbEntity
  8
0
  6
CONTINUOUS
 62
             200
100
AcDbLine
 10
17.240000000000009
 20
19.129999999999967
 30
0.0
 11
21.57000000000005
 21
21.629999999999995
 31
0.0
  0
LINE
  5
42E
100
AcDbEntity
  8
0
  6
CENTER
 62
             200
100
AcDbLine
 10
19.400000000000091
 20
5.5799999999999841
 30
0.0
 11
19.400000000000091
 21
15.399999999999977
 31
0.0
  0
LINE
  5
42F
100
AcDbEntity
  8
0
  6
CONTINUOUS
 62
             200
100
AcDbLine
 10
17.240000000000066
 20
17.629999999999967
 30
0.0
 11
21.57000000000005
 21
20.129999999999995
 31
0.0
  0
LINE
  5
430
100
AcDbEntity
  8
0
  6
CONTINUOUS
 62
             200
100
AcDbLine
 10
17.240000000000066
 20
10.150000000000006
 30
0.0
 11
21.569999999999993
 21
12.649999999999977
 31
0.0
  0
LINE
  5
431
100
AcDbEntity
  8
0
  6
CONTINUOUS
 62
             200
100
AcDbLine
 10
17.240000000000009
 20
8.6500000000000057
 30
0.0
 11
21.57000000000005
 21
11.149999999999977
 31
0.0
  0
LINE
  5
432
100
AcDbEntity
  8
0
  6
CONTINUOUS
 62
               4
100
AcDbLine
 10
0.9700000000000273
 20
-4.0
 30
0.0
 11
3.0200000000000387
 21
-4.0
 31
0.0
  0
LINE
  5
433
100
AcDbEntity
  8
0
  6
CONTINUOUS
 62
               4
100
AcDbLine
 10
3.0200000000000387
 20
-4.0
 30
0.0
 11
3.2500000000000568
 21
-3.7700000000000102
 31
0.0
  0
LINE
  5
434
100
AcDbEntity
  8
0
  6
CONTINUOUS
 62
               4
100
AcDbLine
 10
0.9700000000000273
 20
-4.0
 30
0.0
 11
0.75
 21
-3.7700000000000102
 31
0.0
  0
LINE
  5
435
100
AcDbEntity
  8
0
  6
CONTINUOUS
 62
               4
100
AcDbLine
 10
0.75
 20
-2.6000000000000227
 30
0.0
 11
0.75
 21
-3.7700000000000102
 31
0.0
  0
LINE
  5
436
100
AcDbEntity
  8
0
  6
CONTINUOUS
 62
             200
100
AcDbLine
 10
0.9700000000000841
 20
-2.6000000000000227
 30
0.0
 11
0.9700000000000273
 21
-4.0
 31
0.0
  0
LINE
  5
437
100
AcDbEntity
  8
0
  6
CONTINUOUS
 62
             200
100
AcDbLine
 10
3.0200000000000387
 20
-2.6000000000000227
 30
0.0
 11
3.0200000000000387
 21
-4.0
 31
0.0
  0
LINE
  5
438
100
AcDbEntity
  8
0
  6
CONTINUOUS
 62
               4
100
AcDbLine
 10
3.25
 20
-2.6000000000000227
 30
0.0
 11
3.2500000000000568
 21
-3.7700000000000102
 31
0.0
  0
LINE
  5
439
100
AcDbEntity
  8
0
  6
CONTINUOUS
 62
               4
100
AcDbLine
 10
0.75
 20
-3.7700000000000102
 30
0.0
 11
3.2500000000000568
 21
-3.7700000000000102
 31
0.0
  0
LINE
  5
43A
100
AcDbEntity
  8
0
  6
CONTINUOUS
 62
               4
100
AcDbLine
 10
0.7500000000000568
 20
0.4999999999999716
 30
0.0
 11
0.7500000000000568
 21
0.0
 31
0.0
  0
LINE
  5
43B
100
AcDbEntity
  8
0
  6
CONTINUOUS
 62
             200
100
AcDbLine
 10
0.9700000000000273
 20
0.5
 30
0.0
 11
0.9700000000000841
 21
-0.0000000000000284
 31
0.0
  0
LINE
  5
43C
100
AcDbEntity
  8
0
  6
CONTINUOUS
 62
             200
100
AcDbLine
 10
3.0199999999999818
 20
0.5
 30
0.0
 11
3.0199999999999818
 21
-0.0000000000000284
 31
0.0
  0
LINE
  5
43D
100
AcDbEntity
  8
0
  6
CONTINUOUS
 62
               4
100
AcDbLine
 10
3.25
 20
0.4999999999999716
 30
0.0
 11
3.2500000000000568
 21
0.0
 31
0.0
  0
LINE
  5
43E
100
AcDbEntity
  8
0
  6
CONTINUOUS
 62
               4
100
AcDbLine
 10
0.7500000000000568
 20
0.4999999999999716
 30
0.0
 11
3.25
 21
0.4999999999999716
 31
0.0
  0
LINE
  5
43F
100
AcDbEntity
  8
0
  6
CONTINUOUS
 62
               4
100
AcDbLine
 10
20.699999999999989
 20
6.9000000000000057
 30
0.0
 11
20.699999999999989
 21
10.650000000000006
 31
0.0
  0
LINE
  5
440
100
AcDbEntity
  8
0
  6
CONTINUOUS
 62
               4
100
AcDbLine
 10
18.100000000000023
 20
6.9000000000000057
 30
0.0
 11
18.10000000000008
 21
9.1499999999999773
 31
0.0
  0
LINE
  5
441
100
AcDbEntity
  8
0
  6
CONTINUOUS
 62
               4
100
AcDbLine
 10
18.100000000000023
 20
10.649999999999977
 30
0.0
 11
18.10000000000008
 21
15.399999999999977
 31
0.0
  0
LINE
  5
442
100
AcDbEntity
  8
0
  6
CONTINUOUS
 62
               4
100
AcDbLine
 10
20.700000000000045
 20
12.150000000000006
 30
0.0
 11
20.700000000000045
 21
15.399999999999977
 31
0.0
  0
ENDBLK
  5
443
100
AcDbEntity
  8
0
100
AcDbBlockEnd
  0
BLOCK
  5
45F
100
AcDbEntity
  8
0
  6
ByBlock
 62
               0
100
AcDbBlockBegin
  2
_OPEN30
 70
               2
 10
0.0
 20
0.0
 30
0.0
  3
_OPEN30
  1

  0
LINE
  5
460
100
AcDbEntity
  8
0
  6
ByBlock
 62
               0
100
AcDbLine
 10
-1.0
 20
0.267949
 30
0.0
 11
0.0
 21
0.0
 31
0.0
  0
LINE
  5
461
100
AcDbEntity
  8
0
  6
ByBlock
 62
               0
100
AcDbLine
 10
0.0
 20
0.0
 30
0.0
 11
-1.0
 21
-0.267949
 31
0.0
  0
LINE
  5
462
100
AcDbEntity
  8
0
  6
ByBlock
 62
               0
100
AcDbLine
 10
0.0
 20
0.0
 30
0.0
 11
-1.0
 21
0.0
 31
0.0
  0
ENDBLK
  5
463
100
AcDbEntity
  8
0
  6
ByBlock
 62
               0
100
AcDbBlockEnd
  0
ENDSEC
  0
SECTION
  2
ENTITIES
  0
INSERT
  5
444
100
AcDbEntity
  8
0
  6
ByBlock
100
AcDbBlockReference
  2
ZS25SS-1
 10
-131.63872832369935
 20
136.78148059252027
 30
0.0
  0
INSERT
  5
445
100
AcDbEntity
  8
0
  6
ByBlock
100
AcDbBlockReference
  2
ZS25SS-4
 10
-264.63872832369935
 20
136.78148059252027
 30
0.0
  0
INSERT
  5
446
100
AcDbEntity
  8
0
  6
ByBlock
100
AcDbBlockReference
  2
ZS25SS-5
 10
242.36127167630065
 20
136.78148059252027
 30
0.0
  0
INSERT
  5
447
100
AcDbEntity
  8
0
  6
ByBlock
100
AcDbBlockReference
  2
ZS25SS-6
 10
-131.63872832369935
 20
-20.218519407479732
 30
0.0
  0
INSERT
  5
448
100
AcDbEntity
  8
0
  6
ByBlock
100
AcDbBlockReference
  2
ZS25SS-7
 10
-131.63872832369935
 20
-139.21851940747973
 30
0.0
  0
INSERT
  5
449
100
AcDbEntity
  8
0
  6
ByBlock
100
AcDbBlockReference
  2
ZS25SS-8
 10
322.90312516284081
 20
-92.147329752673784
 30
0.0
  0
INSERT
  5
44A
100
AcDbEntity
  8
0
  6
ByBlock
100
AcDbBlockReference
  2
ZS25SS-9
 10
258.36040055346581
 20
-92.147329752673784
 30
0.0
 50
359.99999999999915
  0
INSERT
  5
44B
100
AcDbEntity
  8
0
  6
ByBlock
100
AcDbBlockReference
  2
ZS25SS-10
 10
322.90312516284081
 20
-49.597326700915985
 30
0.0
  0
INSERT
  5
44C
100
AcDbEntity
  8
0
  6
ByBlock
100
AcDbBlockReference
  2
ZS25SS-11
 10
321.40315629139764
 20
-225.84192309949592
 30
0.0
 50
0.0000794785097516
  0
INSERT
  5
44D
100
AcDbEntity
  8
0
  6
ByBlock
100
AcDbBlockReference
  2
ZS25SS-2
 10
258.3604469408117
 20
-225.84195361707404
 30
0.0
  0
INSERT
  5
44E
100
AcDbEntity
  8
0
  6
ByBlock
100
AcDbBlockReference
  2
ZS25SS-3
 10
321.4031715501867
 20
-178.24196277250272
 30
0.0
  0
LINE
  5
44F
100
AcDbEntity
  8
0
  6
CONTINUOUS
 62
               7
100
AcDbLine
 10
399.52490234375
 20
276.5
 30
0.0
 11
399.52490234375
 21
-276.5
 31
0.0
  0
LINE
  5
450
100
AcDbEntity
  8
0
  6
CONTINUOUS
 62
               7
100
AcDbLine
 10
-399.52490234375
 20
276.5
 30
0.0
 11
-399.52490234375
 21
-276.5
 31
0.0
  0
LINE
  5
451
100
AcDbEntity
  8
0
  6
CONTINUOUS
 62
               7
100
AcDbLine
 10
-399.52490234375
 20
276.5
 30
0.0
 11
399.52490234375
 21
276.5
 31
0.0
  0
LINE
  5
452
100
AcDbEntity
  8
0
  6
CONTINUOUS
 62
               7
100
AcDbLine
 10
-399.52490234375
 20
-276.5
 30
0.0
 11
399.52490234375
 21
-276.5
 31
0.0
  0
MTEXT
  5
453
100
AcDbEntity
  8
0
  6
CONTINUOUS
 62
               7
100
AcDbMText
 10
-363.56893980331643
 20
266.5
 30
0.0
 40
6.3000001907348633
 41
0.0
 71
               4
 72
               1
  1
\W1.101;\A1;Z SLIDER
  0
LINE
  5
454
100
AcDbEntity
  8
0
  6
CONTINUOUS
 62
               7
100
AcDbLine
 10
-279.52490234375
 20
276.5
 30
0.0
 11
-279.52490234375
 21
256.5
 31
0.0
  0
LINE
  5
455
100
AcDbEntity
  8
0
  6
CONTINUOUS
 62
               7
100
AcDbLine
 10
-399.52490234375
 20
256.5
 30
0.0
 11
-279.52490234375
 21
256.5
 31
0.0
  0
MTEXT
  5
456
100
AcDbEntity
  8
0
  6
CONTINUOUS
 62
               7
100
AcDbMText
 10
-386.54090244849448
 20
241.5
 30
0.0
 40
6.3000001907348633
 41
0.0
 71
               4
 72
               1
  1
\W1.080;\A1;MODEL:ZS25*100-SS2
  0
LINE
  5
457
100
AcDbEntity
  8
0
  6
CONTINUOUS
 62
               7
100
AcDbLine
 10
279.5250244140625
 20
276.5
 30
0.0
 11
279.5250244140625
 21
256.5
 31
0.0
  0
LINE
  5
458
100
AcDbEntity
  8
0
  6
CONTINUOUS
 62
               7
100
AcDbLine
 10
279.5250244140625
 20
256.5
 30
0.0
 11
399.52490234375
 21
256.5
 31
0.0
  0
MTEXT
  5
459
100
AcDbEntity
  8
0
  6
CONTINUOUS
 62
               7
100
AcDbMText
 10
315.74075401876524
 20
266.5
 30
0.0
 40
6.3000001907348633
 41
0.0
 71
               4
 72
               1
  1
\W1.348;\A1;Ver. 1.1
  0
MTEXT
  5
45A
100
AcDbEntity
  8
0
  6
CONTINUOUS
 62
               7
100
AcDbMText
 10
287.70605892243776
 20
-266.5
 30
0.0
 40
9.0
 41
0.0
 71
               4
 72
               1
  1
\W1.121;\A1;KOGANEI CORP.
  0
LINE
  5
45B
100
AcDbEntity
  8
0
  6
CONTINUOUS
 62
               7
100
AcDbLine
 10
279.5250244140625
 20
-256.5
 30
0.0
 11
279.5250244140625
 21
-276.5
 31
0.0
  0
LINE
  5
45C
100
AcDbEntity
  8
0
  6
CONTINUOUS
 62
               7
100
AcDbLine
 10
279.5250244140625
 20
-256.5
 30
0.0
 11
399.52490234375
 21
-256.5
 31
0.0
  0
MTEXT
  5
45D
100
AcDbEntity
  8
0
  6
CONTINUOUS
 62
               2
100
AcDbMText
 10
-55.974862126717795
 20
216.90023021105054
 30
0.0
 40
6.3000001907348633
 41
0.0
 71
               4
 72
               1
  1
\W1.286;\A1;ST:90,100
  0
LEADER
  5
464
100
AcDbEntity
  8
0
  6
CONTINUOUS
 62
               2
100
AcDbLeader
  3
MXDIMSTYLE
 73
               3
 74
               0
 75
               0
 40
0.0
 76
               3
 10
33.661271676300657
 20
154.72596696538736
 30
0.0
 10
1.2976057941127692
 20
210.78148059252027
 30
0.0
 10
-55.97486211713067
 20
210.78148059252027
 30
0.0
 77
               2
1001
ACAD
1000
DSTYLE
1002
{
1070
               6
1000
_OPEN30
1070
               7
1000
_OPEN30
1070
              41
1040
2.77
1070
             173
1070
               1
1070
             341
1005
45E
1002
}
  0
MTEXT
  5
465
100
AcDbEntity
  8
0
  6
CONTINUOUS
 62
               3
100
AcDbMText
 10
9.6796137820451627
 20
228.83699421965318
 30
0.0
 40
6.3000001907348633
 41
0.0
 71
               4
 72
               1
  1
\W1.065;\A1;STRETCH LINE
  0
MTEXT
  5
466
100
AcDbEntity
  8
0
  6
CONTINUOUS
 62
               2
100
AcDbMText
 10
-57.515230624089469
 20
-59.099769788949487
 30
0.0
 40
6.3000001907348633
 41
0.0
 71
               4
 72
               1
  1
\W1.286;\A1;ST:90,100
  0
LEADER
  5
467
100
AcDbEntity
  8
0
  6
CONTINUOUS
 62
               2
100
AcDbLeader
  3
MXDIMSTYLE
 73
               3
 74
               0
 75
               0
 40
0.0
 76
               3
 10
33.661271676300657
 20
-121.27403303461267
 30
0.0
 10
1.2976057941127692
 20
-65.218519407479761
 30
0.0
 10
-57.515230614502343
 20
-65.218519407479761
 30
0.0
 77
               2
1001
ACAD
1000
DSTYLE
1002
{
1070
               6
1000
_OPEN30
1070
               7
1000
_OPEN30
1070
              41
1040
2.77
1070
             173
1070
               1
1070
             341
1005
45E
1002
}
  0
LINE
  5
468
100
AcDbEntity
  8
0
  6
CONTINUOUS
 62
               7
100
AcDbLine
 10
199.52490234375
 20
-6.5
 30
0.0
 11
399.52490234375
 21
-6.5
 31
0.0
  0
LINE
  5
469
100
AcDbEntity
  8
0
  6
CONTINUOUS
 62
               7
100
AcDbLine
 10
199.52490234375
 20
-276.5
 30
0.0
 11
199.52490234375
 21
-6.5
 31
0.0
  0
MTEXT
  5
46A
100
AcDbEntity
  8
0
  6
CONTINUOUS
 62
               7
100
AcDbMText
 10
202.65720320563611
 20
-11.5
 30
0.0
 40
6.3000001907348633
 41
0.0
 71
               4
 72
               1
  1
\W1.221;\A1;MODEL:ZE135,155,102,101
  0
LINE
  5
46B
100
AcDbEntity
  8
0
  6
CONTINUOUS
 62
               7
100
AcDbLine
 10
199.52490234375
 20
-136.5
 30
0.0
 11
399.52490234375
 21
-136.5
 31
0.0
  0
MTEXT
  5
46C
100
AcDbEntity
  8
0
  6
CONTINUOUS
 62
               7
100
AcDbMText
 10
202.57242236133771
 20
-141.5
 30
0.0
 40
6.3000001907348633
 41
0.0
 71
               4
 72
               1
  1
\W1.140;\A1;MODEL:ZE235,255,202,201
  0
MTEXT
  5
46D
100
AcDbEntity
  8
0
  6
CONTINUOUS
 62
               7
100
AcDbMText
 10
-106.7631378915526
 20
-266.5
 30
0.0
 40
6.3000001907348633
 41
0.0
 71
               4
 72
               1
  1
\W1.059;\A1;-20
  0
MTEXT
  5
46E
100
AcDbEntity
  8
0
  6
CONTINUOUS
 62
               7
100
AcDbMText
 10
-144.56313789155257
 20
-266.5
 30
0.0
 40
6.3000001907348633
 41
0.0
 71
               4
 72
               1
  1
\W1.059;\A1;-30
  0
MTEXT
  5
46F
100
AcDbEntity
  8
0
  6
CONTINUOUS
 62
               7
100
AcDbMText
 10
-182.36313789155258
 20
-266.5
 30
0.0
 40
6.3000001907348633
 41
0.0
 71
               4
 72
               1
  1
\W1.059;\A1;-40
  0
MTEXT
  5
470
100
AcDbEntity
  8
0
  6
CONTINUOUS
 62
               7
100
AcDbMText
 10
-220.16313789155259
 20
-266.5
 30
0.0
 40
6.3000001907348633
 41
0.0
 71
               4
 72
               1
  1
\W1.059;\A1;-50
  0
MTEXT
  5
471
100
AcDbEntity
  8
0
  6
CONTINUOUS
 62
               7
100
AcDbMText
 10
-257.96313789155261
 20
-266.5
 30
0.0
 40
6.3000001907348633
 41
0.0
 71
               4
 72
               1
  1
\W1.059;\A1;-60
  0
MTEXT
  5
472
100
AcDbEntity
  8
0
  6
CONTINUOUS
 62
               7
100
AcDbMText
 10
-295.76313789155262
 20
-266.5
 30
0.0
 40
6.3000001907348633
 41
0.0
 71
               4
 72
               1
  1
\W1.059;\A1;-70
  0
MTEXT
  5
473
100
AcDbEntity
  8
0
  6
CONTINUOUS
 62
               1
100
AcDbMText
 10
-33.706720854395726
 20
-256.49999997540255
 30
0.0
 40
6.3000001907348633
 41
0.0
 71
               4
 72
               1
  1
\W1.364;\A1;(100)
  0
MTEXT
  5
474
100
AcDbEntity
  8
0
  6
CONTINUOUS
 62
               1
100
AcDbMText
 10
-68.71542882878947
 20
-256.50000002459745
 30
0.0
 40
6.3000001907348633
 41
0.0
 71
               4
 72
               1
  1
\W1.263;\A1;(90)
  0
MTEXT
  5
475
100
AcDbEntity
  8
0
  6
CONTINUOUS
 62
               1
100
AcDbMText
 10
-144.31542882878941
 20
-256.49999993850639
 30
0.0
 40
6.3000001907348633
 41
0.0
 71
               4
 72
               1
  1
\W1.263;\A1;(70)
  0
MTEXT
  5
476
100
AcDbEntity
  8
0
  6
CONTINUOUS
 62
               7
100
AcDbMText
 10
-333.56313789155263
 20
-266.5
 30
0.0
 40
6.3000001907348633
 41
0.0
 71
               4
 72
               1
  1
\W1.059;\A1;-80
  0
MTEXT
  5
477
100
AcDbEntity
  8
0
  6
CONTINUOUS
 62
               7
100
AcDbMText
 10
-330.37944788888649
 20
-256.4999999877013
 30
0.0
 40
6.3000001907348633
 41
0.0
 71
               4
 72
               1
  1
\W1.091;\A1;20
  0
MTEXT
  5
478
100
AcDbEntity
  8
0
  6
CONTINUOUS
 62
               7
100
AcDbMText
 10
-68.814902641773244
 20
-266.5
 30
0.0
 40
6.3000001907348633
 41
0.0
 71
               4
 72
               1
  1
\W1.200;\A1;-10
  0
MTEXT
  5
479
100
AcDbEntity
  8
0
  6
CONTINUOUS
 62
               1
100
AcDbMText
 10
-103.57944788888649
 20
-256.49999995080515
 30
0.0
 40
6.3000001907348633
 41
0.0
 71
               4
 72
               1
  1
\W1.091;\A1;80
  0
MTEXT
  5
47A
100
AcDbEntity
  8
0
  6
CONTINUOUS
 62
               1
100
AcDbMText
 10
-182.11542882878942
 20
-256.4999999877013
 30
0.0
 40
6.3000001907348633
 41
0.0
 71
               4
 72
               1
  1
\W1.263;\A1;(60)
  0
MTEXT
  5
47B
100
AcDbEntity
  8
0
  6
CONTINUOUS
 62
               1
100
AcDbMText
 10
-216.97944788888648
 20
-256.49999997540255
 30
0.0
 40
6.3000001907348633
 41
0.0
 71
               4
 72
               1
  1
\W1.091;\A1;50
  0
MTEXT
  5
47C
100
AcDbEntity
  8
0
  6
CONTINUOUS
 62
               7
100
AcDbMText
 10
-390.32490297953291
 20
-266.5
 30
0.0
 40
6.3000001907348633
 41
0.0
 71
               4
 72
               1
  1
\A1;STRETCH
  0
MTEXT
  5
47D
100
AcDbEntity
  8
0
  6
CONTINUOUS
 62
               7
100
AcDbMText
 10
-254.77944788888652
 20
-256.4999999877013
 30
0.0
 40
6.3000001907348633
 41
0.0
 71
               4
 72
               1
  1
\W1.091;\A1;40
  0
MTEXT
  5
47E
100
AcDbEntity
  8
0
  6
CONTINUOUS
 62
               7
100
AcDbMText
 10
-292.57944788888648
 20
-256.4999999877013
 30
0.0
 40
6.3000001907348633
 41
0.0
 71
               4
 72
               1
  1
\W1.091;\A1;30
  0
MTEXT
  5
47F
100
AcDbEntity
  8
0
  6
CONTINUOUS
 62
               7
100
AcDbMText
 10
-387.17490288416548
 20
-256.5
 30
0.0
 40
6.3000001907348633
 41
0.0
 71
               4
 72
               1
  1
\A1;STROKE
  0
LINE
  5
480
100
AcDbEntity
  8
0
  6
CONTINUOUS
 62
               7
100
AcDbLine
 10
-41.724902343750017
 20
-271.5
 30
0.0
 11
-41.724902343750017
 21
-251.5
 31
0.0
  0
LINE
  5
481
100
AcDbEntity
  8
0
  6
CONTINUOUS
 62
               7
100
AcDbLine
 10
-79.524902343749986
 20
-271.5
 30
0.0
 11
-79.524902343749986
 21
-251.4999999754026
 31
0.0
  0
LINE
  5
482
100
AcDbEntity
  8
0
  6
CONTINUOUS
 62
               7
100
AcDbLine
 10
-117.32490234374994
 20
-271.5
 30
0.0
 11
-117.32490234374994
 21
-251.4999999754026
 31
0.0
  0
LINE
  5
483
100
AcDbEntity
  8
0
  6
CONTINUOUS
 62
               7
100
AcDbLine
 10
-155.12490234374994
 20
-271.5
 30
0.0
 11
-155.12490234374994
 21
-251.4999999754026
 31
0.0
  0
LINE
  5
484
100
AcDbEntity
  8
0
  6
CONTINUOUS
 62
               7
100
AcDbLine
 10
-192.92490234374995
 20
-271.5
 30
0.0
 11
-192.92490234374995
 21
-251.4999999754026
 31
0.0
  0
LINE
  5
485
100
AcDbEntity
  8
0
  6
CONTINUOUS
 62
               7
100
AcDbLine
 10
-230.72490234374999
 20
-271.5
 30
0.0
 11
-230.72490234374999
 21
-251.4999999754026
 31
0.0
  0
LINE
  5
486
100
AcDbEntity
  8
0
  6
CONTINUOUS
 62
               7
100
AcDbLine
 10
-268.52490234375
 20
-271.5
 30
0.0
 11
-268.52490234375
 21
-251.4999999754026
 31
0.0
  0
LINE
  5
487
100
AcDbEntity
  8
0
  6
CONTINUOUS
 62
               7
100
AcDbLine
 10
-306.32490234375001
 20
-271.5
 30
0.0
 11
-306.32490234375001
 21
-251.4999999754026
 31
0.0
  0
LINE
  5
488
100
AcDbEntity
  8
0
  6
CONTINUOUS
 62
               7
100
AcDbLine
 10
-344.12490234375002
 20
-271.5
 30
0.0
 11
-344.12490234375002
 21
-251.4999999754026
 31
0.0
  0
LINE
  5
489
100
AcDbEntity
  8
0
  6
CONTINUOUS
 62
               7
100
AcDbLine
 10
-394.52490234375
 20
-271.5
 30
0.0
 11
-394.52490234375
 21
-251.5
 31
0.0
  0
LINE
  5
48A
100
AcDbEntity
  8
0
  6
CONTINUOUS
 62
               7
100
AcDbLine
 10
-394.52490234375
 20
-251.5
 30
0.0
 11
-3.9249023437500341
 21
-251.5
 31
0.0
  0
LINE
  5
48B
100
AcDbEntity
  8
0
  6
CONTINUOUS
 62
               7
100
AcDbLine
 10
-394.52490234375
 20
-261.5
 30
0.0
 11
-3.9249023437500341
 21
-261.5
 31
0.0
  0
LINE
  5
48C
100
AcDbEntity
  8
0
  6
CONTINUOUS
 62
               7
100
AcDbLine
 10
-394.52490234375
 20
-271.5
 30
0.0
 11
-3.9249023437500341
 21
-271.5
 31
0.0
  0
LINE
  5
48D
100
AcDbEntity
  8
0
  6
CONTINUOUS
 62
               7
100
AcDbLine
 10
-3.9249023437500092
 20
-271.5
 30
0.0
 11
-3.9249023437500092
 21
-251.5
 31
0.0
  0
MTEXT
  5
48E
100
AcDbEntity
  8
0
  6
CONTINUOUS
 62
               7
100
AcDbMText
 10
-24.714902390956897
 20
-266.5
 30
0.0
 40
6.3000001907348633
 41
0.0
 71
               4
 72
               1
  1
\W1.200;\A1;0
  0
MTEXT
  5
48F
100
AcDbEntity
  8
0
  6
CONTINUOUS
 62
               7
100
AcDbMText
 10
-235.90656042874025
 20
-244.90536175985395
 30
0.0
 40
6.3000001907348633
 41
0.0
 71
               4
 72
               1
  1
\W1.065;\A1;STRETCH LIST
  0
MTEXT
  5
490
100
AcDbEntity
  8
0
  6
CONTINUOUS
 62
               7
100
AcDbMText
 10
-22.240902867889417
 20
-244.90536175985395
 30
0.0
 40
6.3000001907348633
 41
0.0
 71
               4
 72
               1
  1
\W1.200;\A1;(mm)
  0
ENDSEC
  0
SECTION
  2
OBJECTS
  0
DICTIONARY
  5
19
100
AcDbDictionary
  3
ACAD_GROUP
350
1A
  3
ACAD_MLINESTYLE
350
1B
  0
DICTIONARY
  5
1A
102
{ACAD_REACTORS
330
19
102
}
100
AcDbDictionary
  0
DICTIONARY
  5
1B
102
{ACAD_REACTORS
330
19
102
}
100
AcDbDictionary
  3
STANDARD
350
1C
  0
MLINESTYLE
  5
1C
102
{ACAD_REACTORS
330
1B
102
}
100
AcDbMlineStyle
  2
Standard
 70
               0
  3

 62
               0
 51
90.0
 52
90.0
 71
               2
 49
0.5
 62
             256
  6
ByLayer
 49
-0.5
 62
             256
  6
ByLayer
  0
ENDSEC
  0
EOF
