  0
SECTION
  2
HEADER
  0
ENDSEC
  0
SECTION
  2
TABLES
  0
TABLE
  2
LTYPE
 70
     4
  0
LTYPE
  2
CONTINUOUS
 70
    64
  3
Solid line
 72
    65
 73
     0
 40
0.000000
  0
LTYPE
  2
DASHED
 70
    64
  3
__ __ __ __ __ __ __ __ __ __ __ __ __ __ __
 72
    65
 73
     2
 40
3.500000
 49
2.000000
 49
-1.500000
  0
LTYPE
  2
CENTER
 70
    64
  3
____ _ ____ _ ____ _ ____ _ ____ _ ____ _ ____
 72
    65
 73
     4
 40
17.500000
 49
13.000000
 49
-1.500000
 49
1.500000
 49
-1.500000
  0
LTYPE
  2
PHANTOM
 70
    64
  3
_____ _ _ _____ _ _ _____ _ _ _____ _ _ ____  
 72
    65
 73
     6
 40
15.500000
 49
8.000000
 49
-1.500000
 49
1.500000
 49
-1.500000
 49
1.500000
 49
-1.500000
  0
LTYPE
  2
DASHED1
 70
    64
  3
__ __ __ __ __ __ __ __ __ __ __ __ __ __ __
 72
    65
 73
     2
 40
1.500000
 49
1.000000
 49
-0.500000
  0
LTYPE
  2
DASHED2
 70
    64
  3
__ __ __ __ __ __ __ __ __ __ __ __ __ __ __
 72
    65
 73
     2
 40
3.500000
 49
2.500000
 49
-1.000000
  0
LTYPE
  2
DASHED3
 70
    64
  3
__ __ __ __ __ __ __ __ __ __ __ __ __ __ __
 72
    65
 73
     2
 40
6.000000
 49
4.000000
 49
-2.000000
  0
LTYPE
  2
DASHED4
 70
    64
  3
__ __ __ __ __ __ __ __ __ __ __ __ __ __ __
 72
    65
 73
     2
 40
12.000000
 49
10.000000
 49
-2.000000
  0
LTYPE
  2
DASHED5
 70
    64
  3
__ __ __ __ __ __ __ __ __ __ __ __ __ __ __
 72
    65
 73
     2
 40
17.000000
 49
15.000000
 49
-2.000000
  0
LTYPE
  2
DASHED6
 70
    64
  3
__ __ __ __ __ __ __ __ __ __ __ __ __ __ __
 72
    65
 73
     2
 40
29.000000
 49
27.000000
 49
-2.000000
  0
LTYPE
  2
PHANTOM1
 70
    64
  3
_____ _ _ _____ _ _ _____ _ _ _____ _ _ ____  
 72
    65
 73
     6
 40
31.000000
 49
25.000000
 49
-1.500000
 49
1.000000
 49
-1.000000
 49
1.000000
 49
-1.500000
  0
LTYPE
  2
PHANTOM2
 70
    64
  3
_____ _ _ _____ _ _ _____ _ _ _____ _ _ ____  
 72
    65
 73
     6
 40
36.000000
 49
27.000000
 49
-1.500000
 49
2.500000
 49
-1.000000
 49
2.500000
 49
-1.500000
  0
LTYPE
  2
PHANTOM3
 70
    64
  3
_____ _ _ _____ _ _ _____ _ _ _____ _ _ ____  
 72
    65
 73
     6
 40
78.000000
 49
64.000000
 49
-2.000000
 49
4.000000
 49
-2.000000
 49
4.000000
 49
-2.000000
  0
LTYPE
  2
CENTER1
 70
    64
  3
____ _ ____ _ ____ _ ____ _ ____ _ ____ _ ____
 72
    65
 73
     4
 40
19.000000
 49
14.000000
 49
-1.000000
 49
3.000000
 49
-1.000000
  0
LTYPE
  2
CENTER2
 70
    64
  3
____ _ ____ _ ____ _ ____ _ ____ _ ____ _ ____
 72
    65
 73
     4
 40
28.500000
 49
25.000000
 49
-1.000000
 49
1.500000
 49
-1.000000
  0
LTYPE
  2
CENTER3
 70
    64
  3
____ _ ____ _ ____ _ ____ _ ____ _ ____ _ ____
 72
    65
 73
     4
 40
31.500000
 49
27.000000
 49
-1.000000
 49
2.500000
 49
-1.000000
  0
LTYPE
  2
CENTER4
 70
    64
  3
____ _ ____ _ ____ _ ____ _ ____ _ ____ _ ____
 72
    65
 73
     4
 40
50.000000
 49
45.000000
 49
-1.000000
 49
3.000000
 49
-1.000000
  0
LTYPE
  2
CENTER5
 70
    64
  3
____ _ ____ _ ____ _ ____ _ ____ _ ____ _ ____
 72
    65
 73
     4
 40
100.000000
 49
92.000000
 49
-2.000000
 49
4.000000
 49
-2.000000
  0
LTYPE
  2
SBK1
 70
    64
  3
______ _ _ _ ______ _ _ _ ______ _ _ _ _____  
 72
    65
 73
     8
 40
60.500000
 49
45.000000
 49
-2.000000
 49
2.500000
 49
-2.000000
 49
2.500000
 49
-2.000000
 49
2.500000
 49
-2.000000
  0
LTYPE
  2
SBK2
 70
    64
  3
______ _ _ _ ______ _ _ _ ______ _ _ _ _____  
 72
    65
 73
     8
 40
84.000000
 49
64.000000
 49
-2.000000
 49
4.000000
 49
-2.000000
 49
4.000000
 49
-2.000000
 49
4.000000
 49
-2.000000
  0
LTYPE
  2
STCH
 70
    64
  3
__ __ __ __ __ __ __ __ __ __ __ __ __ __ __
 72
    65
 73
     2
 40
3.000000
 49
1.000000
 49
-2.000000
  0
LTYPE
  2
MTCH
 70
    64
  3
_____ _ _ _____ _ _ _____ _ _ _____ _ _ ____  
 72
    65
 73
     6
 40
80.000000
 49
66.000000
 49
-2.000000
 49
4.000000
 49
-2.000000
 49
4.000000
 49
-2.000000
  0
ENDTAB
  0
TABLE
  2
LAYER
 70
     1
  0
LAYER
  2
0
 70
     0
 62
     7
  6
CONTINUOUS
  0
ENDTAB
  0
TABLE
  2
STYLE
 70
     1
  0
STYLE
  2
STANDARD
 70
     0
 40
0.000000
 41
1.000000
 50
0.000000
 71
     0
 42
0.200000
  3
txt
  4
BIGFONT
  0
ENDTAB
  0
TABLE
  2
VIEW
 70
     0
  0
ENDTAB
  0
ENDSEC
  0
SECTION
  2
BLOCKS
  0
ENDSEC
  0
SECTION
  2
ENTITIES
  0
LINE
  8
0
  6
CENTER
 62
     2
 10
17.324097
 20
155.495544
 11
17.324097
 21
161.495544
  0
LINE
  8
0
  6
CENTER
 62
     2
 10
81.324081
 20
155.495544
 11
81.324081
 21
161.495544
  0
LINE
  8
0
 62
     4
 10
50.624088
 20
106.195557
 11
48.024082
 21
106.195557
  0
LINE
  8
0
 62
     4
 10
50.624088
 20
102.795547
 11
48.024082
 21
102.795547
  0
LINE
  8
0
 62
     4
 10
55.844093
 20
94.355560
 11
55.824093
 21
94.295555
  0
LINE
  8
0
 62
     4
 10
50.824085
 20
94.295547
 11
50.824085
 21
96.295547
  0
LINE
  8
0
 62
     4
 10
51.574085
 20
94.435547
 11
51.574085
 21
95.695557
  0
LINE
  8
0
 62
     4
 10
51.274082
 20
95.695557
 11
51.274082
 21
96.295547
  0
LINE
  8
0
 62
     4
 10
51.944096
 20
94.295547
 11
42.824085
 21
94.295547
  0
LINE
  8
0
 62
     4
 10
56.074085
 20
94.435547
 11
56.074085
 21
95.695557
  0
LINE
  8
0
 62
     4
 10
56.374088
 20
95.695557
 11
56.374088
 21
96.295547
  0
LINE
  8
0
 62
     4
 10
51.274082
 20
95.695557
 11
56.374088
 21
95.695557
  0
LINE
  8
0
 62
     4
 10
56.824081
 20
96.295555
 11
56.074081
 21
94.795555
  0
LINE
  8
0
 62
     4
 10
41.824089
 20
96.295547
 11
42.824089
 21
94.295547
  0
LINE
  8
0
 62
     4
 10
55.824085
 20
94.295547
 11
55.694096
 21
94.295547
  0
LINE
  8
0
 62
     4
 10
56.824085
 20
96.295547
 11
41.824085
 21
96.295547
  0
LINE
  8
0
 62
     4
 10
41.824085
 20
96.295547
 11
41.824085
 21
122.495544
  0
LINE
  8
0
 62
     4
 10
56.824085
 20
97.295547
 11
41.824085
 21
97.295547
  0
LINE
  8
0
 62
     4
 10
56.824085
 20
96.295547
 11
56.824085
 21
122.495544
  0
LINE
  8
0
  6
CENTER
 62
     2
 10
49.324085
 20
91.795547
 11
49.324085
 21
127.495544
  0
LINE
  8
0
 62
     4
 10
34.624088
 20
106.195557
 11
32.024097
 21
106.195557
  0
LINE
  8
0
 62
     4
 10
34.624088
 20
102.795547
 11
32.024097
 21
102.795547
  0
LINE
  8
0
 62
     4
 10
39.844109
 20
94.355553
 11
39.824108
 21
94.295547
  0
LINE
  8
0
 62
     4
 10
34.824085
 20
94.295547
 11
34.824085
 21
96.295547
  0
LINE
  8
0
 62
     4
 10
35.574085
 20
94.435547
 11
35.574085
 21
95.695557
  0
LINE
  8
0
 62
     4
 10
35.274082
 20
95.695557
 11
35.274082
 21
96.295547
  0
LINE
  8
0
 62
     4
 10
35.944096
 20
94.295547
 11
26.824097
 21
94.295547
  0
LINE
  8
0
 62
     4
 10
40.074085
 20
94.435547
 11
40.074085
 21
95.695557
  0
LINE
  8
0
 62
     4
 10
40.374088
 20
95.695557
 11
40.374088
 21
96.295547
  0
LINE
  8
0
 62
     4
 10
35.274082
 20
95.695557
 11
40.374088
 21
95.695557
  0
LINE
  8
0
 62
     4
 10
40.824089
 20
96.295555
 11
40.074093
 21
94.795563
  0
LINE
  8
0
 62
     4
 10
25.824100
 20
96.295540
 11
26.824097
 21
94.295555
  0
LINE
  8
0
 62
     4
 10
39.824085
 20
94.295547
 11
39.694096
 21
94.295547
  0
LINE
  8
0
 62
     4
 10
40.824085
 20
96.295547
 11
25.824097
 21
96.295547
  0
LINE
  8
0
 62
     4
 10
25.824097
 20
96.295547
 11
25.824097
 21
122.495544
  0
LINE
  8
0
 62
     4
 10
40.824085
 20
97.295547
 11
25.824097
 21
97.295547
  0
LINE
  8
0
 62
     4
 10
40.824085
 20
96.295547
 11
40.824085
 21
122.495544
  0
LINE
  8
0
  6
CENTER
 62
     2
 10
33.324085
 20
91.795547
 11
33.324085
 21
127.495544
  0
LINE
  8
0
 62
     4
 10
18.624096
 20
106.195557
 11
16.024097
 21
106.195557
  0
LINE
  8
0
 62
     4
 10
18.624096
 20
102.795547
 11
16.024097
 21
102.795547
  0
LINE
  8
0
 62
     4
 10
23.844099
 20
94.355553
 11
23.824097
 21
94.295547
  0
LINE
  8
0
 62
     4
 10
18.824097
 20
94.295547
 11
18.824097
 21
96.295547
  0
LINE
  8
0
 62
     4
 10
19.574097
 20
94.435547
 11
19.574097
 21
95.695557
  0
LINE
  8
0
 62
     4
 10
19.274097
 20
95.695557
 11
19.274097
 21
96.295547
  0
LINE
  8
0
 62
     4
 10
19.944096
 20
94.295547
 11
10.824097
 21
94.295547
  0
LINE
  8
0
 62
     4
 10
24.074097
 20
94.435547
 11
24.074097
 21
95.695557
  0
LINE
  8
0
 62
     4
 10
24.374096
 20
95.695557
 11
24.374096
 21
96.295547
  0
LINE
  8
0
 62
     4
 10
19.274097
 20
95.695557
 11
24.374096
 21
95.695557
  0
LINE
  8
0
 62
     4
 10
24.824089
 20
96.295563
 11
24.074087
 21
94.795563
  0
LINE
  8
0
 62
     4
 10
9.824099
 20
96.295555
 11
10.824100
 21
94.295555
  0
LINE
  8
0
 62
     4
 10
23.824097
 20
94.295547
 11
23.694096
 21
94.295547
  0
LINE
  8
0
 62
     4
 10
24.824097
 20
96.295547
 11
9.824097
 21
96.295547
  0
LINE
  8
0
 62
     4
 10
9.824097
 20
96.295547
 11
9.824097
 21
122.495544
  0
LINE
  8
0
 62
     4
 10
24.824097
 20
97.295547
 11
9.824097
 21
97.295547
  0
LINE
  8
0
 62
     4
 10
24.824097
 20
96.295547
 11
24.824097
 21
122.495544
  0
LINE
  8
0
  6
CENTER
 62
     2
 10
17.324097
 20
91.795547
 11
17.324097
 21
127.495544
  0
LINE
  8
0
 62
     4
 10
66.624084
 20
106.195557
 11
64.024078
 21
106.195557
  0
LINE
  8
0
 62
     4
 10
66.624084
 20
102.795547
 11
64.024078
 21
102.795547
  0
LINE
  8
0
 62
     4
 10
71.844101
 20
94.355560
 11
71.824104
 21
94.295563
  0
LINE
  8
0
 62
     4
 10
66.824081
 20
94.295547
 11
66.824081
 21
96.295547
  0
LINE
  8
0
 62
     4
 10
67.574081
 20
94.435547
 11
67.574081
 21
95.695557
  0
LINE
  8
0
 62
     4
 10
67.274078
 20
95.695557
 11
67.274078
 21
96.295547
  0
LINE
  8
0
 62
     4
 10
67.944092
 20
94.295547
 11
58.824085
 21
94.295547
  0
LINE
  8
0
 62
     4
 10
72.074081
 20
94.435547
 11
72.074081
 21
95.695557
  0
LINE
  8
0
 62
     4
 10
72.374084
 20
95.695557
 11
72.374084
 21
96.295547
  0
LINE
  8
0
 62
     4
 10
67.274078
 20
95.695557
 11
72.374084
 21
95.695557
  0
LINE
  8
0
 62
     4
 10
72.824097
 20
96.295555
 11
72.074097
 21
94.795563
  0
LINE
  8
0
 62
     4
 10
57.824089
 20
96.295555
 11
58.824089
 21
94.295555
  0
LINE
  8
0
 62
     4
 10
71.824081
 20
94.295547
 11
71.694092
 21
94.295547
  0
LINE
  8
0
 62
     4
 10
72.824081
 20
96.295547
 11
57.824085
 21
96.295547
  0
LINE
  8
0
 62
     4
 10
57.824085
 20
96.295547
 11
57.824085
 21
122.495544
  0
LINE
  8
0
 62
     4
 10
72.824081
 20
97.295547
 11
57.824085
 21
97.295547
  0
LINE
  8
0
 62
     4
 10
72.824081
 20
96.295547
 11
72.824081
 21
122.495544
  0
LINE
  8
0
  6
CENTER
 62
     2
 10
65.324081
 20
91.795547
 11
65.324081
 21
127.495544
  0
LINE
  8
0
 10
9.424097
 20
159.495544
 11
9.424097
 21
157.495544
  0
LINE
  8
0
 10
84.224091
 20
159.495544
 11
84.224091
 21
157.495544
  0
LINE
  8
0
 10
78.424088
 20
159.495544
 11
78.424088
 21
157.495544
  0
LINE
  8
0
 10
20.224096
 20
159.495544
 11
20.224096
 21
157.495544
  0
LINE
  8
0
 10
14.424097
 20
159.495544
 11
14.424097
 21
157.495544
  0
LINE
  8
0
 10
73.424088
 20
159.495544
 11
89.224091
 21
159.495544
  0
LINE
  8
0
 10
9.424097
 20
159.495544
 11
25.224096
 21
159.495544
  0
LINE
  8
0
 10
89.224091
 20
159.495544
 11
89.224091
 21
157.495544
  0
LINE
  8
0
 10
73.424088
 20
159.495544
 11
73.424088
 21
157.495544
  0
LINE
  8
0
 10
25.224096
 20
159.495544
 11
25.224096
 21
157.495544
  0
LINE
  8
0
  6
CENTER
 62
     2
 10
69.944092
 20
153.495544
 11
76.714081
 21
153.495544
  0
LINE
  8
0
  6
CENTER
 62
     2
 10
70.114090
 20
131.495544
 11
76.044083
 21
131.495544
  0
LINE
  8
0
  6
CENTER
 62
     2
 10
21.654097
 20
131.495544
 11
28.944096
 21
131.495544
  0
LINE
  8
0
  6
CENTER
 62
     2
 10
21.484097
 20
153.495544
 11
29.114098
 21
153.495544
  0
LINE
  8
0
  6
CENTER
 62
     2
 10
73.324081
 20
157.495544
 11
73.324081
 21
128.475555
  0
LINE
  8
0
  6
CENTER
 62
     2
 10
25.324097
 20
157.495544
 11
25.324097
 21
128.475555
  0
LINE
  8
0
 10
9.324097
 20
122.495544
 11
89.324081
 21
122.495544
  0
LINE
  8
0
 10
9.324097
 20
157.495544
 11
9.324097
 21
122.495544
  0
LINE
  8
0
 10
89.324081
 20
157.495544
 11
89.324081
 21
122.495544
  0
LINE
  8
0
 10
9.324097
 20
157.495544
 11
89.324081
 21
157.495544
  0
LINE
  8
0
  6
CENTER
 62
     2
 10
65.324097
 20
-0.730672
 11
65.324097
 21
-34.510670
  0
LINE
  8
0
  6
CENTER
 62
     2
 10
49.324097
 20
-0.730672
 11
49.324097
 21
-34.510670
  0
LINE
  8
0
  6
CENTER
 62
     2
 10
33.324097
 20
-0.730672
 11
33.324097
 21
-34.510670
  0
LINE
  8
0
  6
CENTER
 62
     2
 10
17.324097
 20
-0.730672
 11
17.324097
 21
-34.510670
  0
LINE
  8
0
  6
CENTER
 62
     2
 10
81.324097
 20
-0.730672
 11
81.324097
 21
-12.080678
  0
LINE
  8
0
 10
68.344086
 20
-4.510671
 11
89.324097
 21
-4.510671
  0
LINE
  8
0
  6
CENTER
 62
     2
 10
81.324097
 20
18.989319
 11
81.324097
 21
11.989319
  0
LINE
  8
0
 62
     4
 10
84.574097
 20
-8.110677
 11
89.074097
 21
-8.110677
  0
LINE
  8
0
 62
     4
 10
73.564087
 20
-8.110677
 11
78.074097
 21
-8.110677
  0
LINE
  8
0
 62
     4
 10
89.074097
 20
-7.510671
 11
89.074097
 21
-8.110677
  0
LINE
  8
0
 62
     4
 10
84.574097
 20
-7.510671
 11
84.574097
 21
-8.110677
  0
LINE
  8
0
 62
     4
 10
73.574097
 20
-7.510671
 11
73.574097
 21
-8.110677
  0
LINE
  8
0
 62
     4
 10
78.074097
 20
-7.510671
 11
78.074097
 21
-8.110677
  0
LINE
  8
0
 62
     4
 10
73.824097
 20
-5.510671
 11
73.824097
 21
-7.510671
  0
LINE
  8
0
 62
     4
 10
88.824097
 20
-5.510671
 11
88.824097
 21
-7.510671
  0
LINE
  8
0
 62
     4
 10
73.574097
 20
-7.510671
 11
89.074097
 21
-7.510671
  0
LINE
  8
0
 62
     4
 10
73.824097
 20
-5.510671
 11
88.824097
 21
-5.510671
  0
LINE
  8
0
 10
66.944092
 20
10.489319
 11
89.324097
 21
10.489319
  0
LINE
  8
0
 10
64.344086
 20
10.489319
 11
66.304092
 21
10.489319
  0
LINE
  8
0
 62
     4
 10
52.904091
 20
-9.420673
 11
54.734089
 21
-7.590674
  0
LINE
  8
0
 62
     4
 10
54.734089
 20
-9.420676
 11
52.904087
 21
-7.590674
  0
LINE
  8
0
 62
     4
 10
45.734097
 20
-27.420677
 11
43.904095
 21
-25.590677
  0
LINE
  8
0
 62
     4
 10
45.734093
 20
-25.590673
 11
43.904091
 21
-27.420673
  0
LINE
  8
0
 62
     4
 10
41.824097
 20
-5.510671
 11
56.824097
 21
-5.510671
  0
LINE
  8
0
 62
     4
 10
56.824097
 20
-29.510670
 11
56.824097
 21
-5.510671
  0
LINE
  8
0
 62
     4
 10
41.824097
 20
-29.510670
 11
41.824097
 21
-5.510671
  0
LINE
  8
0
 62
     4
 10
41.824097
 20
-29.510670
 11
56.824097
 21
-29.510670
  0
LINE
  8
0
 62
     4
 10
55.824097
 20
-28.510670
 11
55.824097
 21
-11.510671
  0
LINE
  8
0
 62
     4
 10
42.824097
 20
-23.510670
 11
42.824097
 21
-6.510671
  0
LINE
  8
0
 62
     4
 10
42.824097
 20
-6.510671
 11
50.824097
 21
-6.510671
  0
LINE
  8
0
 62
     4
 10
47.824097
 20
-28.510670
 11
55.824097
 21
-28.510670
  0
LINE
  8
0
 62
     4
 10
53.824097
 20
-11.510671
 11
56.824097
 21
-11.510671
  0
LINE
  8
0
 62
     4
 10
44.824097
 20
-23.510670
 11
41.824097
 21
-23.510670
  0
LINE
  8
0
 62
     4
 10
47.824097
 20
-26.510670
 11
47.824097
 21
-29.510670
  0
LINE
  8
0
 62
     4
 10
50.824097
 20
-8.510671
 11
50.824097
 21
-5.510671
  0
LINE
  8
0
 62
     4
 10
52.344086
 20
-5.510671
 11
52.344086
 21
-3.510671
  0
LINE
  8
0
 62
     4
 10
46.344086
 20
-3.510671
 11
52.344086
 21
-3.510671
  0
LINE
  8
0
 62
     4
 10
46.344086
 20
-5.510671
 11
46.344086
 21
-3.510671
  0
LINE
  8
0
 62
     4
 10
51.474091
 20
0.139319
 11
51.474091
 21
-3.510671
  0
LINE
  8
0
 62
     4
 10
49.774094
 20
0.599319
 11
49.774094
 21
-3.510671
  0
LINE
  8
0
 62
     4
 10
48.874084
 20
0.839319
 11
48.874084
 21
-3.510671
  0
LINE
  8
0
 62
     4
 10
47.174088
 20
1.289319
 11
47.174088
 21
-3.510671
  0
LINE
  8
0
  6
PHANTOM
 62
     1
 10
45.174095
 20
3.379322
 11
53.474083
 21
1.159325
  0
LINE
  8
0
  6
PHANTOM
 62
     1
 10
45.174095
 20
1.829321
 11
53.474098
 21
-0.390680
  0
LINE
  8
0
 62
     4
 10
48.344086
 20
16.489319
 11
47.704086
 21
16.489319
  0
LINE
  8
0
 62
     4
 10
48.874084
 20
6.489319
 11
47.174088
 21
6.489319
  0
LINE
  8
0
 62
     4
 10
48.344086
 20
16.489319
 11
48.344086
 21
6.489319
  0
LINE
  8
0
 62
     4
 10
47.704086
 20
16.489319
 11
47.704086
 21
6.489319
  0
LINE
  8
0
 62
     4
 10
48.874084
 20
6.489319
 11
48.874084
 21
2.389319
  0
LINE
  8
0
 62
     4
 10
47.174088
 20
6.489319
 11
47.174088
 21
2.849319
  0
LINE
  8
0
 62
     4
 10
50.944092
 20
16.489319
 11
50.304092
 21
16.489319
  0
LINE
  8
0
 62
     4
 10
51.474091
 20
6.489319
 11
49.774094
 21
6.489319
  0
LINE
  8
0
 62
     4
 10
50.944092
 20
16.489319
 11
50.944092
 21
6.489319
  0
LINE
  8
0
 62
     4
 10
50.304092
 20
16.489319
 11
50.304092
 21
6.489319
  0
LINE
  8
0
 62
     4
 10
51.474091
 20
6.489319
 11
51.474091
 21
1.689320
  0
LINE
  8
0
 62
     4
 10
49.774094
 20
6.489319
 11
49.774094
 21
2.149320
  0
LINE
  8
0
  6
CENTER
 62
     2
 10
13.824097
 20
15.489319
 11
20.824097
 21
15.489319
  0
LINE
  8
0
  6
CENTER
 62
     2
 10
17.324097
 20
18.989319
 11
17.324097
 21
11.989319
  0
LINE
  8
0
 10
50.944092
 20
10.489319
 11
63.704086
 21
10.489319
  0
LINE
  8
0
 10
48.344086
 20
10.489319
 11
50.304092
 21
10.489319
  0
LINE
  8
0
 10
34.944092
 20
10.489319
 11
47.704086
 21
10.489319
  0
LINE
  8
0
 10
32.344097
 20
10.489319
 11
34.304092
 21
10.489319
  0
LINE
  8
0
 10
18.944096
 20
10.489319
 11
31.704096
 21
10.489319
  0
LINE
  8
0
 10
16.344097
 20
10.489319
 11
18.304096
 21
10.489319
  0
LINE
  8
0
 10
52.344086
 20
-4.510671
 11
62.344086
 21
-4.510671
  0
LINE
  8
0
 10
36.344086
 20
-4.510671
 11
46.344086
 21
-4.510671
  0
LINE
  8
0
 10
20.344097
 20
-4.510671
 11
30.344097
 21
-4.510671
  0
LINE
  8
0
 62
     4
 10
36.904091
 20
-9.420675
 11
38.734093
 21
-7.590675
  0
LINE
  8
0
 62
     4
 10
38.734093
 20
-9.420675
 11
36.904091
 21
-7.590676
  0
LINE
  8
0
 62
     4
 10
29.734089
 20
-27.420666
 11
27.904099
 21
-25.590675
  0
LINE
  8
0
 62
     4
 10
29.734091
 20
-25.590666
 11
27.904089
 21
-27.420668
  0
LINE
  8
0
 62
     4
 10
25.824097
 20
-5.510671
 11
40.824097
 21
-5.510671
  0
LINE
  8
0
 62
     4
 10
40.824097
 20
-29.510670
 11
40.824097
 21
-5.510671
  0
LINE
  8
0
 62
     4
 10
25.824097
 20
-29.510670
 11
25.824097
 21
-5.510671
  0
LINE
  8
0
 62
     4
 10
25.824097
 20
-29.510670
 11
40.824097
 21
-29.510670
  0
LINE
  8
0
 62
     4
 10
39.824097
 20
-28.510670
 11
39.824097
 21
-11.510671
  0
LINE
  8
0
 62
     4
 10
26.824097
 20
-23.510670
 11
26.824097
 21
-6.510671
  0
LINE
  8
0
 62
     4
 10
26.824097
 20
-6.510671
 11
34.824097
 21
-6.510671
  0
LINE
  8
0
 62
     4
 10
31.824097
 20
-28.510670
 11
39.824097
 21
-28.510670
  0
LINE
  8
0
 62
     4
 10
37.824097
 20
-11.510671
 11
40.824097
 21
-11.510671
  0
LINE
  8
0
 62
     4
 10
28.824097
 20
-23.510670
 11
25.824097
 21
-23.510670
  0
LINE
  8
0
 62
     4
 10
31.824097
 20
-26.510670
 11
31.824097
 21
-29.510670
  0
LINE
  8
0
 62
     4
 10
34.824097
 20
-8.510671
 11
34.824097
 21
-5.510671
  0
LINE
  8
0
 62
     4
 10
36.344086
 20
-5.510671
 11
36.344086
 21
-3.510671
  0
LINE
  8
0
 62
     4
 10
30.344097
 20
-3.510671
 11
36.344086
 21
-3.510671
  0
LINE
  8
0
 62
     4
 10
30.344097
 20
-5.510671
 11
30.344097
 21
-3.510671
  0
LINE
  8
0
 62
     4
 10
35.474091
 20
0.139319
 11
35.474091
 21
-3.510671
  0
LINE
  8
0
 62
     4
 10
33.774094
 20
0.599319
 11
33.774094
 21
-3.510671
  0
LINE
  8
0
 62
     4
 10
32.874096
 20
0.839319
 11
32.874096
 21
-3.510671
  0
LINE
  8
0
 62
     4
 10
31.174095
 20
1.289319
 11
31.174095
 21
-3.510671
  0
LINE
  8
0
  6
PHANTOM
 62
     1
 10
29.174097
 20
3.379320
 11
37.474083
 21
1.159324
  0
LINE
  8
0
  6
PHANTOM
 62
     1
 10
29.174099
 20
1.829320
 11
37.474094
 21
-0.390679
  0
LINE
  8
0
 62
     4
 10
32.344097
 20
16.489319
 11
31.704096
 21
16.489319
  0
LINE
  8
0
 62
     4
 10
32.874096
 20
6.489319
 11
31.174095
 21
6.489319
  0
LINE
  8
0
 62
     4
 10
32.344097
 20
16.489319
 11
32.344097
 21
6.489319
  0
LINE
  8
0
 62
     4
 10
31.704096
 20
16.489319
 11
31.704096
 21
6.489319
  0
LINE
  8
0
 62
     4
 10
32.874096
 20
6.489319
 11
32.874096
 21
2.389319
  0
LINE
  8
0
 62
     4
 10
31.174095
 20
6.489319
 11
31.174095
 21
2.849319
  0
LINE
  8
0
 62
     4
 10
34.944092
 20
16.489319
 11
34.304092
 21
16.489319
  0
LINE
  8
0
 62
     4
 10
35.474091
 20
6.489319
 11
33.774094
 21
6.489319
  0
LINE
  8
0
 62
     4
 10
34.944092
 20
16.489319
 11
34.944092
 21
6.489319
  0
LINE
  8
0
 62
     4
 10
34.304092
 20
16.489319
 11
34.304092
 21
6.489319
  0
LINE
  8
0
 62
     4
 10
35.474091
 20
6.489319
 11
35.474091
 21
1.689320
  0
LINE
  8
0
 62
     4
 10
33.774094
 20
6.489319
 11
33.774094
 21
2.149320
  0
LINE
  8
0
 62
     4
 10
20.904095
 20
-9.420677
 11
22.734095
 21
-7.590678
  0
LINE
  8
0
 62
     4
 10
22.734095
 20
-9.420679
 11
20.904095
 21
-7.590677
  0
LINE
  8
0
 62
     4
 10
13.744097
 20
-27.420677
 11
11.914095
 21
-25.590677
  0
LINE
  8
0
 62
     4
 10
13.744098
 20
-25.590677
 11
11.914097
 21
-27.420677
  0
LINE
  8
0
 62
     4
 10
9.824097
 20
-5.510671
 11
24.824097
 21
-5.510671
  0
LINE
  8
0
 62
     4
 10
24.824097
 20
-29.510670
 11
24.824097
 21
-5.510671
  0
LINE
  8
0
 62
     4
 10
9.824097
 20
-29.510670
 11
9.824097
 21
-5.510671
  0
LINE
  8
0
 62
     4
 10
9.824097
 20
-29.510670
 11
24.824097
 21
-29.510670
  0
LINE
  8
0
 62
     4
 10
23.824097
 20
-28.510670
 11
23.824097
 21
-11.510671
  0
LINE
  8
0
 62
     4
 10
10.824097
 20
-23.510670
 11
10.824097
 21
-6.510671
  0
LINE
  8
0
 62
     4
 10
10.824097
 20
-6.510671
 11
18.824097
 21
-6.510671
  0
LINE
  8
0
 62
     4
 10
15.824097
 20
-28.510670
 11
23.824097
 21
-28.510670
  0
LINE
  8
0
 62
     4
 10
21.824097
 20
-11.510671
 11
24.824097
 21
-11.510671
  0
LINE
  8
0
 62
     4
 10
12.824097
 20
-23.510670
 11
9.824097
 21
-23.510670
  0
LINE
  8
0
 62
     4
 10
15.824097
 20
-26.510670
 11
15.824097
 21
-29.510670
  0
LINE
  8
0
 62
     4
 10
18.824097
 20
-8.510671
 11
18.824097
 21
-5.510671
  0
LINE
  8
0
 62
     4
 10
20.344097
 20
-5.510671
 11
20.344097
 21
-3.510671
  0
LINE
  8
0
 62
     4
 10
14.354097
 20
-3.510671
 11
20.344097
 21
-3.510671
  0
LINE
  8
0
 62
     4
 10
14.354097
 20
-5.510671
 11
14.354097
 21
-3.510671
  0
LINE
  8
0
 62
     4
 10
19.474096
 20
0.139319
 11
19.474096
 21
-3.510671
  0
LINE
  8
0
 62
     4
 10
17.774097
 20
0.599319
 11
17.774097
 21
-3.510671
  0
LINE
  8
0
 62
     4
 10
16.874096
 20
0.839319
 11
16.874096
 21
-3.510671
  0
LINE
  8
0
 62
     4
 10
15.174097
 20
1.289319
 11
15.174097
 21
-3.510671
  0
LINE
  8
0
  6
PHANTOM
 62
     1
 10
13.174097
 20
3.379318
 11
21.474096
 21
1.159318
  0
LINE
  8
0
  6
PHANTOM
 62
     1
 10
13.174097
 20
1.829319
 11
21.474096
 21
-0.390681
  0
LINE
  8
0
 62
     4
 10
16.344097
 20
16.489319
 11
15.704097
 21
16.489319
  0
LINE
  8
0
 62
     4
 10
16.874096
 20
6.489319
 11
15.174097
 21
6.489319
  0
LINE
  8
0
 62
     4
 10
16.344097
 20
16.489319
 11
16.344097
 21
6.489319
  0
LINE
  8
0
 62
     4
 10
15.704097
 20
16.489319
 11
15.704097
 21
6.489319
  0
LINE
  8
0
 62
     4
 10
16.874096
 20
6.489319
 11
16.874096
 21
2.389319
  0
LINE
  8
0
 62
     4
 10
15.174097
 20
6.489319
 11
15.174097
 21
2.849319
  0
LINE
  8
0
 62
     4
 10
18.944096
 20
16.489319
 11
18.304096
 21
16.489319
  0
LINE
  8
0
 62
     4
 10
19.474096
 20
6.489319
 11
17.774097
 21
6.489319
  0
LINE
  8
0
 62
     4
 10
18.944096
 20
16.489319
 11
18.944096
 21
6.489319
  0
LINE
  8
0
 62
     4
 10
18.304096
 20
16.489319
 11
18.304096
 21
6.489319
  0
LINE
  8
0
 62
     4
 10
19.474096
 20
6.489319
 11
19.474096
 21
1.689320
  0
LINE
  8
0
 62
     4
 10
17.774097
 20
6.489319
 11
17.774097
 21
2.149320
  0
LINE
  8
0
 62
     4
 10
68.904076
 20
-9.420675
 11
70.734077
 21
-7.590674
  0
LINE
  8
0
 62
     4
 10
70.734077
 20
-9.420679
 11
68.904083
 21
-7.590680
  0
LINE
  8
0
 62
     4
 10
61.734089
 20
-27.420677
 11
59.904087
 21
-25.590677
  0
LINE
  8
0
 62
     4
 10
61.734093
 20
-25.590675
 11
59.904091
 21
-27.420677
  0
LINE
  8
0
 62
     4
 10
57.824097
 20
-5.510671
 11
72.824097
 21
-5.510671
  0
LINE
  8
0
 62
     4
 10
72.824097
 20
-29.510670
 11
72.824097
 21
-5.510671
  0
LINE
  8
0
 62
     4
 10
57.824097
 20
-29.510670
 11
57.824097
 21
-5.510671
  0
LINE
  8
0
 62
     4
 10
57.824097
 20
-29.510670
 11
72.824097
 21
-29.510670
  0
LINE
  8
0
 62
     4
 10
71.824097
 20
-28.510670
 11
71.824097
 21
-11.510671
  0
LINE
  8
0
 62
     4
 10
58.824097
 20
-23.510670
 11
58.824097
 21
-6.510671
  0
LINE
  8
0
 62
     4
 10
58.824097
 20
-6.510671
 11
66.824097
 21
-6.510671
  0
LINE
  8
0
 62
     4
 10
63.824097
 20
-28.510670
 11
71.824097
 21
-28.510670
  0
LINE
  8
0
 62
     4
 10
69.824097
 20
-11.510671
 11
72.824097
 21
-11.510671
  0
LINE
  8
0
 62
     4
 10
60.824097
 20
-23.510670
 11
57.824097
 21
-23.510670
  0
LINE
  8
0
 62
     4
 10
63.824097
 20
-26.510670
 11
63.824097
 21
-29.510670
  0
LINE
  8
0
 62
     4
 10
66.824097
 20
-8.510671
 11
66.824097
 21
-5.510671
  0
LINE
  8
0
 62
     4
 10
68.344086
 20
-5.510671
 11
68.344086
 21
-3.510671
  0
LINE
  8
0
 62
     4
 10
62.344086
 20
-3.510671
 11
68.344086
 21
-3.510671
  0
LINE
  8
0
 62
     4
 10
62.344086
 20
-5.510671
 11
62.344086
 21
-3.510671
  0
LINE
  8
0
 62
     4
 10
67.474091
 20
0.139319
 11
67.474091
 21
-3.510671
  0
LINE
  8
0
 62
     4
 10
65.774094
 20
0.599319
 11
65.774094
 21
-3.510671
  0
LINE
  8
0
 62
     4
 10
64.874084
 20
0.839319
 11
64.874084
 21
-3.510671
  0
LINE
  8
0
 62
     4
 10
63.174088
 20
1.289319
 11
63.174088
 21
-3.510671
  0
LINE
  8
0
  6
PHANTOM
 62
     1
 10
61.174095
 20
3.379322
 11
69.474083
 21
1.159325
  0
LINE
  8
0
  6
PHANTOM
 62
     1
 10
61.174095
 20
1.829323
 11
69.474083
 21
-0.390672
  0
LINE
  8
0
 62
     4
 10
64.344086
 20
16.489319
 11
63.704086
 21
16.489319
  0
LINE
  8
0
 62
     4
 10
64.874084
 20
6.489319
 11
63.174088
 21
6.489319
  0
LINE
  8
0
 62
     4
 10
64.344086
 20
16.489319
 11
64.344086
 21
6.489319
  0
LINE
  8
0
 62
     4
 10
63.704086
 20
16.489319
 11
63.704086
 21
6.489319
  0
LINE
  8
0
 62
     4
 10
64.874084
 20
6.489319
 11
64.874084
 21
2.389319
  0
LINE
  8
0
 62
     4
 10
63.174088
 20
6.489319
 11
63.174088
 21
2.849319
  0
LINE
  8
0
 62
     4
 10
66.944092
 20
16.489319
 11
66.304092
 21
16.489319
  0
LINE
  8
0
 62
     4
 10
67.474091
 20
6.489319
 11
65.774094
 21
6.489319
  0
LINE
  8
0
 62
     4
 10
66.944092
 20
16.489319
 11
66.944092
 21
6.489319
  0
LINE
  8
0
 62
     4
 10
66.304092
 20
16.489319
 11
66.304092
 21
6.489319
  0
LINE
  8
0
 62
     4
 10
67.474091
 20
6.489319
 11
67.474091
 21
1.689320
  0
LINE
  8
0
 62
     4
 10
65.774094
 20
6.489319
 11
65.774094
 21
2.149320
  0
LINE
  8
0
 10
88.624084
 20
-4.510671
 11
88.624084
 21
-5.510671
  0
LINE
  8
0
 10
74.024094
 20
-4.510671
 11
74.024094
 21
-5.510671
  0
LINE
  8
0
 10
72.624084
 20
-4.510671
 11
72.624084
 21
-5.510671
  0
LINE
  8
0
 10
58.024094
 20
-4.510671
 11
58.024094
 21
-5.510671
  0
LINE
  8
0
 10
56.624084
 20
-4.510671
 11
56.624084
 21
-5.510671
  0
LINE
  8
0
 10
42.024094
 20
-4.510671
 11
42.024094
 21
-5.510671
  0
LINE
  8
0
 10
40.624084
 20
-4.510671
 11
40.624084
 21
-5.510671
  0
LINE
  8
0
 10
26.024097
 20
-4.510671
 11
26.024097
 21
-5.510671
  0
LINE
  8
0
 10
24.624096
 20
-4.510671
 11
24.624096
 21
-5.510671
  0
LINE
  8
0
 10
10.024097
 20
-4.510671
 11
10.024097
 21
-5.510671
  0
LINE
  8
0
 10
14.424097
 20
20.479319
 11
20.224096
 21
20.479319
  0
LINE
  8
0
 10
89.324097
 20
-4.510671
 11
89.324097
 21
10.489319
  0
LINE
  8
0
 10
9.324097
 20
-4.510671
 11
9.324097
 21
10.489319
  0
LINE
  8
0
  6
CENTER
 62
     2
 10
77.854095
 20
15.489319
 11
84.864090
 21
15.489319
  0
LINE
  8
0
 10
84.224083
 20
20.489317
 11
89.224075
 21
15.489323
  0
LINE
  8
0
 10
73.424072
 20
15.489322
 11
78.424080
 21
20.489326
  0
LINE
  8
0
 10
78.424088
 20
20.489319
 11
84.224091
 21
20.489319
  0
LINE
  8
0
 10
73.424088
 20
15.489319
 11
73.424088
 21
10.489319
  0
LINE
  8
0
 10
89.224091
 20
15.489319
 11
89.224091
 21
10.489319
  0
LINE
  8
0
 10
20.224096
 20
20.489317
 11
25.224096
 21
15.489317
  0
LINE
  8
0
 10
9.424097
 20
15.489319
 11
14.424096
 21
20.489317
  0
LINE
  8
0
 10
9.424097
 20
15.489319
 11
9.424097
 21
10.489319
  0
LINE
  8
0
 10
25.224096
 20
15.489319
 11
25.224096
 21
10.489319
  0
LINE
  8
0
 10
9.324097
 20
10.489319
 11
15.704097
 21
10.489319
  0
LINE
  8
0
 10
9.324097
 20
-4.510671
 11
14.354097
 21
-4.510671
  0
LINE
  8
0
 10
89.324097
 20
10.489319
 11
89.324097
 21
-4.510671
  0
LINE
  8
0
  6
CENTER
 62
     2
 10
164.782074
 20
-86.884018
 11
164.782074
 21
-152.114777
  0
LINE
  8
0
  6
CENTER
 62
     2
 10
183.782074
 20
-116.578476
 11
183.782074
 21
-124.578476
  0
LINE
  8
0
  6
CENTER
 62
     2
 10
187.782074
 20
-120.578476
 11
179.782074
 21
-120.578476
  0
LINE
  8
0
  6
CENTER
 62
     2
 10
183.782074
 20
-129.578476
 11
183.782074
 21
-137.578476
  0
LINE
  8
0
  6
CENTER
 62
     2
 10
187.782074
 20
-133.578476
 11
179.782074
 21
-133.578476
  0
LINE
  8
0
 62
     4
 10
178.782074
 20
-97.878479
 11
176.782074
 21
-97.878479
  0
LINE
  8
0
 62
     4
 10
178.782074
 20
-97.878479
 11
178.782074
 21
-101.278488
  0
LINE
  8
0
 62
     4
 10
178.782074
 20
-101.278488
 11
176.782074
 21
-101.278488
  0
LINE
  8
0
 62
     4
 10
175.812073
 20
-89.438484
 11
175.782074
 21
-89.378471
  0
LINE
  8
0
 62
     4
 10
183.242081
 20
-100.428482
 11
178.782074
 21
-100.428482
  0
LINE
  8
0
 62
     4
 10
182.782074
 20
-98.728485
 11
178.782074
 21
-98.728485
  0
LINE
  8
0
  6
PHANTOM
 62
     1
 10
183.772079
 20
-102.428467
 11
182.242081
 21
-96.728493
  0
LINE
  8
0
  6
PHANTOM
 62
     1
 10
185.322083
 20
-102.428474
 11
183.802078
 21
-96.728477
  0
LINE
  8
0
 62
     4
 10
198.782074
 20
-99.258484
 11
198.782074
 21
-99.898483
  0
LINE
  8
0
 62
     4
 10
188.782074
 20
-98.728485
 11
188.782074
 21
-100.428482
  0
LINE
  8
0
 62
     4
 10
198.782074
 20
-99.258484
 11
188.782074
 21
-99.258484
  0
LINE
  8
0
 62
     4
 10
198.782074
 20
-99.898483
 11
188.782074
 21
-99.898483
  0
LINE
  8
0
 62
     4
 10
188.782074
 20
-98.728485
 11
184.332077
 21
-98.728485
  0
LINE
  8
0
 62
     4
 10
188.782074
 20
-100.428482
 11
184.792068
 21
-100.428482
  0
LINE
  8
0
 62
     4
 10
175.662079
 20
-89.378479
 11
175.782074
 21
-89.378479
  0
LINE
  8
0
 62
     4
 10
171.532074
 20
-89.518478
 11
171.532074
 21
-90.778488
  0
LINE
  8
0
 62
     4
 10
176.032074
 20
-89.518478
 11
176.032074
 21
-90.778488
  0
LINE
  8
0
 62
     4
 10
171.232086
 20
-90.778488
 11
171.232086
 21
-91.378479
  0
LINE
  8
0
 62
     4
 10
176.332077
 20
-90.778488
 11
176.332077
 21
-91.378479
  0
LINE
  8
0
 62
     4
 10
176.332077
 20
-90.778488
 11
171.232086
 21
-90.778488
  0
LINE
  8
0
 62
     4
 10
170.782074
 20
-89.378479
 11
170.782074
 21
-91.378479
  0
LINE
  8
0
 62
     4
 10
176.782074
 20
-91.378471
 11
176.032074
 21
-89.878479
  0
LINE
  8
0
 62
     4
 10
152.782089
 20
-91.378487
 11
153.782089
 21
-89.378487
  0
LINE
  8
0
 62
     4
 10
152.782074
 20
-91.378479
 11
176.782074
 21
-91.378479
  0
LINE
  8
0
 62
     4
 10
153.782074
 20
-89.378479
 11
171.962082
 21
-89.378479
  0
LINE
  8
0
 62
     4
 10
176.782074
 20
-91.378479
 11
176.782074
 21
-117.578476
  0
LINE
  8
0
 62
     4
 10
152.782074
 20
-91.378479
 11
152.782074
 21
-117.578476
  0
LINE
  8
0
 62
     4
 10
152.782074
 20
-92.378479
 11
176.782074
 21
-92.378479
  0
LINE
  8
0
 10
176.782074
 20
-143.578476
 11
176.782074
 21
-143.588470
  0
LINE
  8
0
 10
152.782074
 20
-117.578476
 11
176.782074
 21
-117.578476
  0
LINE
  8
0
 10
155.182083
 20
-124.768478
 11
155.182083
 21
-128.398483
  0
LINE
  8
0
 10
155.782074
 20
-124.768478
 11
155.782074
 21
-128.398483
  0
LINE
  8
0
 10
155.782074
 20
-124.768478
 11
152.782074
 21
-124.768478
  0
LINE
  8
0
 10
155.782074
 20
-128.398483
 11
152.782074
 21
-128.398483
  0
LINE
  8
0
 10
176.782074
 20
-117.578476
 11
152.782074
 21
-117.578476
  0
LINE
  8
0
 10
176.782074
 20
-147.578476
 11
152.782074
 21
-147.578476
  0
LINE
  8
0
 10
176.782074
 20
-150.078476
 11
152.782074
 21
-150.078476
  0
LINE
  8
0
 10
176.782074
 20
-117.578476
 11
176.782074
 21
-150.078476
  0
LINE
  8
0
 10
152.782074
 20
-117.578476
 11
152.782074
 21
-150.078476
  0
LINE
  8
0
 10
176.782074
 20
-117.578476
 11
152.782074
 21
-117.578476
  0
LINE
  8
0
 10
177.782074
 20
-119.578476
 11
176.782074
 21
-119.578476
  0
LINE
  8
0
 10
177.782074
 20
-143.578476
 11
176.782074
 21
-143.578476
  0
LINE
  8
0
 10
177.782074
 20
-115.078476
 11
177.782074
 21
-152.078476
  0
LINE
  8
0
  6
CENTER
 62
     2
 10
197.782074
 20
-148.128479
 11
197.782074
 21
-154.228470
  0
LINE
  8
0
 10
202.782074
 20
-150.078476
 11
202.782074
 21
-152.078476
  0
LINE
  8
0
 10
192.782074
 20
-115.078476
 11
192.782074
 21
-150.078476
  0
LINE
  8
0
 10
202.782074
 20
-152.078476
 11
177.782074
 21
-152.078476
  0
LINE
  8
0
 10
192.782074
 20
-115.078476
 11
177.782074
 21
-115.078476
  0
LINE
  8
0
 10
202.782074
 20
-150.078476
 11
177.782074
 21
-150.078476
  0
LINE
  8
0
 62
     4
 10
174.182083
 20
-124.328476
 11
174.182083
 21
-128.828476
  0
LINE
  8
0
 62
     4
 10
174.782074
 20
-124.328476
 11
174.182083
 21
-124.328476
  0
LINE
  8
0
 62
     4
 10
174.782074
 20
-128.828476
 11
174.182083
 21
-128.828476
  0
LINE
  8
0
 62
     4
 10
176.782074
 20
-118.578476
 11
174.782074
 21
-118.578476
  0
LINE
  8
0
 62
     4
 10
176.782074
 20
-133.578476
 11
174.782074
 21
-133.578476
  0
LINE
  8
0
 62
     4
 10
174.782074
 20
-118.578476
 11
174.782074
 21
-133.578476
  0
LINE
  8
0
  6
CENTER
 62
     2
 10
-76.133881
 20
-89.172897
 11
-76.133881
 21
-154.954559
  0
LINE
  8
0
  6
CENTER
 62
     2
 10
-95.133881
 20
-118.578476
 11
-95.133881
 21
-126.578476
  0
LINE
  8
0
  6
CENTER
 62
     2
 10
-99.133881
 20
-122.578476
 11
-91.133881
 21
-122.578476
  0
LINE
  8
0
  6
CENTER
 62
     2
 10
-95.133881
 20
-131.578476
 11
-95.133881
 21
-139.578476
  0
LINE
  8
0
  6
CENTER
 62
     2
 10
-99.133881
 20
-135.578476
 11
-91.133881
 21
-135.578476
  0
LINE
  8
0
 62
     4
 10
-90.133881
 20
-99.878479
 11
-88.133881
 21
-99.878479
  0
LINE
  8
0
 62
     4
 10
-90.133881
 20
-99.878479
 11
-90.133881
 21
-103.278488
  0
LINE
  8
0
 62
     4
 10
-90.133881
 20
-103.278488
 11
-88.133881
 21
-103.278488
  0
LINE
  8
0
 62
     4
 10
-65.113884
 20
-91.438484
 11
-65.133888
 21
-91.378479
  0
LINE
  8
0
 62
     4
 10
-94.593880
 20
-102.428482
 11
-90.133881
 21
-102.428482
  0
LINE
  8
0
 62
     4
 10
-94.133881
 20
-100.728485
 11
-90.133881
 21
-100.728485
  0
LINE
  8
0
  6
PHANTOM
 62
     1
 10
-95.123878
 20
-104.428474
 11
-93.593887
 21
-98.728477
  0
LINE
  8
0
  6
PHANTOM
 62
     1
 10
-96.673882
 20
-104.428482
 11
-95.153893
 21
-98.728485
  0
LINE
  8
0
 62
     4
 10
-110.133881
 20
-101.258484
 11
-110.133881
 21
-101.898483
  0
LINE
  8
0
 62
     4
 10
-100.133881
 20
-100.728485
 11
-100.133881
 21
-102.428482
  0
LINE
  8
0
 62
     4
 10
-110.133881
 20
-101.258484
 11
-100.133881
 21
-101.258484
  0
LINE
  8
0
 62
     4
 10
-110.133881
 20
-101.898483
 11
-100.133881
 21
-101.898483
  0
LINE
  8
0
 62
     4
 10
-100.133881
 20
-100.728485
 11
-95.683884
 21
-100.728485
  0
LINE
  8
0
 62
     4
 10
-100.133881
 20
-102.428482
 11
-96.143883
 21
-102.428482
  0
LINE
  8
0
 62
     4
 10
-65.263885
 20
-91.378479
 11
-65.133881
 21
-91.378479
  0
LINE
  8
0
 62
     4
 10
-69.383881
 20
-91.518478
 11
-69.383881
 21
-92.778488
  0
LINE
  8
0
 62
     4
 10
-64.883881
 20
-91.518478
 11
-64.883881
 21
-92.778488
  0
LINE
  8
0
 62
     4
 10
-69.683884
 20
-92.778488
 11
-69.683884
 21
-93.378479
  0
LINE
  8
0
 62
     4
 10
-64.583893
 20
-92.778488
 11
-64.583893
 21
-93.378479
  0
LINE
  8
0
 62
     4
 10
-64.583893
 20
-92.778488
 11
-69.683884
 21
-92.778488
  0
LINE
  8
0
 62
     4
 10
-70.133881
 20
-91.378479
 11
-70.133881
 21
-93.378479
  0
LINE
  8
0
 62
     4
 10
-64.133888
 20
-93.378487
 11
-64.883888
 21
-91.878487
  0
LINE
  8
0
 62
     4
 10
-88.133881
 20
-93.378479
 11
-87.133881
 21
-91.378479
  0
LINE
  8
0
 62
     4
 10
-64.133881
 20
-93.378479
 11
-88.133881
 21
-93.378479
  0
LINE
  8
0
 62
     4
 10
-87.133881
 20
-91.378479
 11
-68.963882
 21
-91.378479
  0
LINE
  8
0
 62
     4
 10
-88.133881
 20
-93.378479
 11
-88.133881
 21
-119.578476
  0
LINE
  8
0
 62
     4
 10
-64.133881
 20
-93.378479
 11
-64.133881
 21
-119.578476
  0
LINE
  8
0
 62
     4
 10
-64.133881
 20
-94.378479
 11
-88.133881
 21
-94.378479
  0
LINE
  8
0
 10
-88.133881
 20
-145.578476
 11
-88.133881
 21
-145.588470
  0
LINE
  8
0
 10
-64.133881
 20
-119.578476
 11
-88.133881
 21
-119.578476
  0
LINE
  8
0
 10
-66.533890
 20
-126.768478
 11
-66.533890
 21
-130.398483
  0
LINE
  8
0
 10
-67.133881
 20
-126.768478
 11
-67.133881
 21
-130.398483
  0
LINE
  8
0
 10
-67.133881
 20
-126.768478
 11
-64.133881
 21
-126.768478
  0
LINE
  8
0
 10
-67.133881
 20
-130.398483
 11
-64.133881
 21
-130.398483
  0
LINE
  8
0
 10
-88.133881
 20
-119.578476
 11
-64.133881
 21
-119.578476
  0
LINE
  8
0
 10
-88.133881
 20
-149.578476
 11
-64.133881
 21
-149.578476
  0
LINE
  8
0
 10
-88.133881
 20
-152.078476
 11
-64.133881
 21
-152.078476
  0
LINE
  8
0
 10
-88.133881
 20
-119.578476
 11
-88.133881
 21
-152.078476
  0
LINE
  8
0
 10
-64.133881
 20
-119.578476
 11
-64.133881
 21
-152.078476
  0
LINE
  8
0
 10
-88.133881
 20
-119.578476
 11
-64.133881
 21
-119.578476
  0
LINE
  8
0
 10
-89.133881
 20
-121.578476
 11
-88.133881
 21
-121.578476
  0
LINE
  8
0
 10
-89.133881
 20
-145.578476
 11
-88.133881
 21
-145.578476
  0
LINE
  8
0
 10
-89.133881
 20
-117.078476
 11
-89.133881
 21
-154.078476
  0
LINE
  8
0
  6
CENTER
 62
     2
 10
-109.133881
 20
-150.128479
 11
-109.133881
 21
-156.228470
  0
LINE
  8
0
 10
-114.133881
 20
-152.078476
 11
-114.133881
 21
-154.078476
  0
LINE
  8
0
 10
-104.133881
 20
-117.078476
 11
-104.133881
 21
-152.078476
  0
LINE
  8
0
 10
-114.133881
 20
-154.078476
 11
-89.133881
 21
-154.078476
  0
LINE
  8
0
 10
-104.133881
 20
-117.078476
 11
-89.133881
 21
-117.078476
  0
LINE
  8
0
 10
-114.133881
 20
-152.078476
 11
-89.133881
 21
-152.078476
  0
LINE
  8
0
  6
CENTER
 62
     2
 10
49.324085
 20
-88.948471
 11
49.324085
 21
-142.638458
  0
LINE
  8
0
 62
     4
 10
42.794079
 20
-91.438477
 11
42.824085
 21
-91.378464
  0
LINE
  8
0
 62
     4
 10
42.274082
 20
-92.778473
 11
42.274082
 21
-93.378464
  0
LINE
  8
0
 62
     4
 10
47.374073
 20
-92.778473
 11
47.374073
 21
-93.378464
  0
LINE
  8
0
 62
     4
 10
47.374073
 20
-92.778473
 11
42.274082
 21
-92.778473
  0
LINE
  8
0
 62
     4
 10
41.824085
 20
-94.378464
 11
56.824085
 21
-94.378464
  0
LINE
  8
0
 62
     4
 10
41.824085
 20
-93.378464
 11
56.824085
 21
-93.378464
  0
LINE
  8
0
 62
     4
 10
56.824085
 20
-93.378471
 11
55.824085
 21
-91.378471
  0
LINE
  8
0
 62
     4
 10
46.644077
 20
-91.378464
 11
55.824085
 21
-91.378464
  0
LINE
  8
0
 62
     4
 10
47.074085
 20
-91.518463
 11
47.074085
 21
-92.778473
  0
LINE
  8
0
 62
     4
 10
42.824085
 20
-91.378464
 11
42.944080
 21
-91.378464
  0
LINE
  8
0
 62
     4
 10
42.574085
 20
-91.518463
 11
42.574085
 21
-92.778473
  0
LINE
  8
0
 62
     4
 10
41.824081
 20
-93.378464
 11
42.574081
 21
-91.878471
  0
LINE
  8
0
 62
     4
 10
47.824085
 20
-91.378464
 11
47.824085
 21
-93.378464
  0
LINE
  8
0
 62
     4
 10
56.824085
 20
-93.378464
 11
56.824085
 21
-119.578461
  0
LINE
  8
0
 62
     4
 10
41.824085
 20
-93.378464
 11
41.824085
 21
-119.578461
  0
LINE
  8
0
 10
56.824085
 20
-119.578461
 11
41.824085
 21
-119.578461
  0
LINE
  8
0
 10
53.904072
 20
-129.498459
 11
55.734074
 21
-127.668465
  0
LINE
  8
0
 10
53.904079
 20
-127.668457
 11
55.734085
 21
-129.498459
  0
LINE
  8
0
 10
42.904087
 20
-129.498459
 11
44.734077
 21
-127.668480
  0
LINE
  8
0
 10
42.904076
 20
-127.668480
 11
44.734074
 21
-129.498474
  0
LINE
  8
0
 10
56.824085
 20
-129.618469
 11
56.824085
 21
-139.578461
  0
LINE
  8
0
 10
41.824085
 20
-129.618469
 11
41.824085
 21
-139.578461
  0
LINE
  8
0
  6
CENTER
 62
     2
 10
45.694080
 20
-131.578461
 11
52.674076
 21
-131.578461
  0
LINE
  8
0
  6
CENTER
 62
     2
 10
46.734074
 20
-123.078461
 11
51.694080
 21
-123.078461
  0
LINE
  8
0
 10
41.824085
 20
-139.578461
 11
56.824085
 21
-139.578461
  0
LINE
  8
0
 10
41.824085
 20
-119.578461
 11
41.824085
 21
-127.548462
  0
LINE
  8
0
 10
56.824085
 20
-119.578461
 11
56.824085
 21
-127.548462
  0
LINE
  8
0
  6
CENTER
 62
     2
 10
65.324081
 20
-88.948471
 11
65.324081
 21
-142.638458
  0
LINE
  8
0
 10
41.824085
 20
-137.078461
 11
56.824085
 21
-137.078461
  0
LINE
  8
0
 62
     4
 10
26.794083
 20
-91.438461
 11
26.824081
 21
-91.378479
  0
LINE
  8
0
 62
     4
 10
26.274086
 20
-92.778473
 11
26.274086
 21
-93.378464
  0
LINE
  8
0
 62
     4
 10
31.374084
 20
-92.778473
 11
31.374084
 21
-93.378464
  0
LINE
  8
0
 62
     4
 10
31.374084
 20
-92.778473
 11
26.274086
 21
-92.778473
  0
LINE
  8
0
 62
     4
 10
25.824085
 20
-94.378464
 11
40.824085
 21
-94.378464
  0
LINE
  8
0
 62
     4
 10
25.824085
 20
-93.378464
 11
40.824085
 21
-93.378464
  0
LINE
  8
0
 62
     4
 10
40.824089
 20
-93.378464
 11
39.824085
 21
-91.378464
  0
LINE
  8
0
 62
     4
 10
30.644085
 20
-91.378464
 11
39.824085
 21
-91.378464
  0
LINE
  8
0
 62
     4
 10
31.074085
 20
-91.518463
 11
31.074085
 21
-92.778473
  0
LINE
  8
0
 62
     4
 10
26.824085
 20
-91.378464
 11
26.944084
 21
-91.378464
  0
LINE
  8
0
 62
     4
 10
26.574085
 20
-91.518463
 11
26.574085
 21
-92.778473
  0
LINE
  8
0
 62
     4
 10
25.824085
 20
-93.378471
 11
26.574087
 21
-91.878464
  0
LINE
  8
0
 62
     4
 10
31.824085
 20
-91.378464
 11
31.824085
 21
-93.378464
  0
LINE
  8
0
 62
     4
 10
40.824085
 20
-93.378464
 11
40.824085
 21
-119.578461
  0
LINE
  8
0
 62
     4
 10
25.824085
 20
-93.378464
 11
25.824085
 21
-119.578461
  0
LINE
  8
0
  6
CENTER
 62
     2
 10
33.324085
 20
-88.948471
 11
33.324085
 21
-157.078461
  0
LINE
  8
0
 62
     4
 10
10.804090
 20
-91.438469
 11
10.824093
 21
-91.378464
  0
LINE
  8
0
 62
     4
 10
10.274086
 20
-92.778473
 11
10.274086
 21
-93.378464
  0
LINE
  8
0
 62
     4
 10
15.374085
 20
-92.778473
 11
15.374085
 21
-93.378464
  0
LINE
  8
0
 62
     4
 10
15.374085
 20
-92.778473
 11
10.274086
 21
-92.778473
  0
LINE
  8
0
 62
     4
 10
9.824085
 20
-94.378464
 11
24.824085
 21
-94.378464
  0
LINE
  8
0
 62
     4
 10
9.824085
 20
-93.378464
 11
24.824085
 21
-93.378464
  0
LINE
  8
0
 62
     4
 10
24.824083
 20
-93.378464
 11
23.824081
 21
-91.378464
  0
LINE
  8
0
 62
     4
 10
14.654086
 20
-91.378464
 11
23.824085
 21
-91.378464
  0
LINE
  8
0
 62
     4
 10
15.074085
 20
-91.518463
 11
15.074085
 21
-92.778473
  0
LINE
  8
0
 62
     4
 10
10.824085
 20
-91.378464
 11
10.954085
 21
-91.378464
  0
LINE
  8
0
 62
     4
 10
10.574085
 20
-91.518463
 11
10.574085
 21
-92.778473
  0
LINE
  8
0
 62
     4
 10
9.824085
 20
-93.378471
 11
10.574081
 21
-91.878471
  0
LINE
  8
0
 62
     4
 10
15.824085
 20
-91.378464
 11
15.824085
 21
-93.378464
  0
LINE
  8
0
 62
     4
 10
24.824085
 20
-93.378464
 11
24.824085
 21
-119.578461
  0
LINE
  8
0
 62
     4
 10
9.824085
 20
-93.378464
 11
9.824085
 21
-119.578461
  0
LINE
  8
0
  6
CENTER
 62
     2
 10
17.324085
 20
-88.948471
 11
17.324085
 21
-157.078461
  0
LINE
  8
0
 62
     4
 10
58.794083
 20
-91.438469
 11
58.824081
 21
-91.378471
  0
LINE
  8
0
 62
     4
 10
58.274082
 20
-92.778473
 11
58.274082
 21
-93.378464
  0
LINE
  8
0
 62
     4
 10
63.374073
 20
-92.778473
 11
63.374073
 21
-93.378464
  0
LINE
  8
0
 62
     4
 10
63.374073
 20
-92.778473
 11
58.274082
 21
-92.778473
  0
LINE
  8
0
 62
     4
 10
57.824085
 20
-94.378464
 11
72.824081
 21
-94.378464
  0
LINE
  8
0
 62
     4
 10
57.824085
 20
-93.378464
 11
72.824081
 21
-93.378464
  0
LINE
  8
0
 62
     4
 10
72.824074
 20
-93.378471
 11
71.824074
 21
-91.378471
  0
LINE
  8
0
 62
     4
 10
62.644077
 20
-91.378464
 11
71.824081
 21
-91.378464
  0
LINE
  8
0
 62
     4
 10
63.074085
 20
-91.518463
 11
63.074085
 21
-92.778473
  0
LINE
  8
0
 62
     4
 10
58.824085
 20
-91.378464
 11
58.944080
 21
-91.378464
  0
LINE
  8
0
 62
     4
 10
58.574085
 20
-91.518463
 11
58.574085
 21
-92.778473
  0
LINE
  8
0
 62
     4
 10
57.824081
 20
-93.378471
 11
58.574078
 21
-91.878471
  0
LINE
  8
0
 62
     4
 10
63.824085
 20
-91.378464
 11
63.824085
 21
-93.378464
  0
LINE
  8
0
 62
     4
 10
72.824081
 20
-93.378464
 11
72.824081
 21
-119.578461
  0
LINE
  8
0
 62
     4
 10
57.824085
 20
-93.378464
 11
57.824085
 21
-119.578461
  0
LINE
  8
0
 62
     4
 10
74.904076
 20
-129.498459
 11
76.734077
 21
-127.668457
  0
LINE
  8
0
 62
     4
 10
74.904076
 20
-127.668465
 11
76.734085
 21
-129.498459
  0
LINE
  8
0
 10
69.904068
 20
-129.498459
 11
71.734070
 21
-127.668465
  0
LINE
  8
0
 10
69.904068
 20
-127.668457
 11
71.734070
 21
-129.498459
  0
LINE
  8
0
 10
58.904083
 20
-129.498459
 11
60.734085
 21
-127.668465
  0
LINE
  8
0
 10
58.904087
 20
-127.668472
 11
60.734081
 21
-129.498459
  0
LINE
  8
0
 10
37.904079
 20
-129.498459
 11
39.734081
 21
-127.668465
  0
LINE
  8
0
 10
37.904087
 20
-127.668472
 11
39.734085
 21
-129.498459
  0
LINE
  8
0
 10
26.904072
 20
-129.498474
 11
28.734074
 21
-127.668472
  0
LINE
  8
0
 10
26.904078
 20
-127.668465
 11
28.734077
 21
-129.498474
  0
LINE
  8
0
 10
21.904087
 20
-129.498459
 11
23.734079
 21
-127.668472
  0
LINE
  8
0
 10
21.904089
 20
-127.668465
 11
23.734087
 21
-129.498459
  0
LINE
  8
0
 10
10.914092
 20
-129.498459
 11
12.744091
 21
-127.668472
  0
LINE
  8
0
 10
10.914094
 20
-127.668472
 11
12.744087
 21
-129.498459
  0
LINE
  8
0
 62
     4
 10
85.904068
 20
-129.498459
 11
87.734070
 21
-127.668457
  0
LINE
  8
0
 62
     4
 10
85.904068
 20
-127.668457
 11
87.734070
 21
-129.498459
  0
LINE
  8
0
  6
CENTER
 62
     2
 10
81.324081
 20
-149.968460
 11
81.324081
 21
-155.738464
  0
LINE
  8
0
 62
     4
 10
88.824081
 20
-129.618469
 11
88.824081
 21
-133.578461
  0
LINE
  8
0
 62
     4
 10
73.824081
 20
-129.618469
 11
73.824081
 21
-133.578461
  0
LINE
  8
0
 10
72.824081
 20
-129.618469
 11
72.824081
 21
-139.578461
  0
LINE
  8
0
 10
57.824085
 20
-129.618469
 11
57.824085
 21
-139.578461
  0
LINE
  8
0
 10
40.824085
 20
-129.618469
 11
40.824085
 21
-152.078461
  0
LINE
  8
0
 10
25.824085
 20
-129.618469
 11
25.824085
 21
-152.078461
  0
LINE
  8
0
 10
24.824085
 20
-129.618469
 11
24.824085
 21
-152.078461
  0
LINE
  8
0
 10
9.824085
 20
-129.618469
 11
9.824085
 21
-152.078461
  0
LINE
  8
0
 10
73.494080
 20
-154.078461
 11
89.224075
 21
-154.078461
  0
LINE
  8
0
 10
9.424086
 20
-152.078461
 11
9.424086
 21
-154.078461
  0
LINE
  8
0
 10
25.224085
 20
-152.078461
 11
25.224085
 21
-154.078461
  0
LINE
  8
0
 10
9.424086
 20
-154.078461
 11
25.224085
 21
-154.078461
  0
LINE
  8
0
 10
73.424072
 20
-152.078461
 11
73.424072
 21
-154.078461
  0
LINE
  8
0
 10
89.224075
 20
-152.078461
 11
89.224075
 21
-154.078461
  0
LINE
  8
0
 62
     4
 10
75.824081
 20
-135.578461
 11
86.824081
 21
-135.578461
  0
LINE
  8
0
 62
     4
 10
75.824081
 20
-120.578461
 11
86.824081
 21
-120.578461
  0
LINE
  8
0
 62
     4
 10
73.824081
 20
-122.578461
 11
73.824081
 21
-127.548462
  0
LINE
  8
0
 62
     4
 10
88.824081
 20
-122.578461
 11
88.824081
 21
-127.548462
  0
LINE
  8
0
  6
CENTER
 62
     1
 10
81.324081
 20
-118.598465
 11
81.324081
 21
-137.968475
  0
LINE
  8
0
 10
72.824081
 20
-117.078461
 11
89.324081
 21
-117.078461
  0
LINE
  8
0
 10
56.824085
 20
-117.078461
 11
57.824085
 21
-117.078461
  0
LINE
  8
0
 10
40.824085
 20
-117.078461
 11
41.824085
 21
-117.078461
  0
LINE
  8
0
 10
24.824085
 20
-117.078461
 11
25.824085
 21
-117.078461
  0
LINE
  8
0
 10
57.824085
 20
-119.578461
 11
72.824081
 21
-119.578461
  0
LINE
  8
0
  6
CENTER
 62
     2
 10
61.694080
 20
-131.578461
 11
68.674072
 21
-131.578461
  0
LINE
  8
0
  6
CENTER
 62
     2
 10
62.734074
 20
-123.078461
 11
67.694077
 21
-123.078461
  0
LINE
  8
0
 10
57.824085
 20
-139.578461
 11
72.824081
 21
-139.578461
  0
LINE
  8
0
 10
57.824085
 20
-119.578461
 11
57.824085
 21
-127.548462
  0
LINE
  8
0
 10
72.824081
 20
-119.578461
 11
72.824081
 21
-127.548462
  0
LINE
  8
0
 10
57.824085
 20
-137.078461
 11
72.824081
 21
-137.078461
  0
LINE
  8
0
 10
25.824085
 20
-119.578461
 11
40.824085
 21
-119.578461
  0
LINE
  8
0
  6
CENTER
 62
     2
 10
29.984085
 20
-143.578461
 11
36.734074
 21
-143.578461
  0
LINE
  8
0
  6
CENTER
 62
     2
 10
29.754086
 20
-131.578461
 11
36.514072
 21
-131.578461
  0
LINE
  8
0
  6
CENTER
 62
     2
 10
30.944084
 20
-123.078461
 11
35.544071
 21
-123.078461
  0
LINE
  8
0
 10
25.824085
 20
-149.578461
 11
40.824085
 21
-149.578461
  0
LINE
  8
0
 10
40.824085
 20
-119.578461
 11
40.824085
 21
-127.548462
  0
LINE
  8
0
 10
25.824085
 20
-119.578461
 11
25.824085
 21
-127.548462
  0
LINE
  8
0
 10
9.824085
 20
-119.578461
 11
24.824085
 21
-119.578461
  0
LINE
  8
0
  6
CENTER
 62
     2
 10
13.994085
 20
-143.578461
 11
20.734085
 21
-143.578461
  0
LINE
  8
0
  6
CENTER
 62
     2
 10
13.764086
 20
-131.578461
 11
20.514084
 21
-131.578461
  0
LINE
  8
0
  6
CENTER
 62
     2
 10
14.954085
 20
-123.078461
 11
19.544085
 21
-123.078461
  0
LINE
  8
0
 10
9.824085
 20
-149.578461
 11
24.824085
 21
-149.578461
  0
LINE
  8
0
 10
24.824085
 20
-119.578461
 11
24.824085
 21
-127.548462
  0
LINE
  8
0
 10
9.824085
 20
-119.578461
 11
9.824085
 21
-127.548462
  0
LINE
  8
0
 10
89.324081
 20
-117.078461
 11
89.324081
 21
-152.078461
  0
LINE
  8
0
 10
9.324085
 20
-117.078461
 11
9.824085
 21
-117.078461
  0
LINE
  8
0
 10
9.324085
 20
-117.078461
 11
9.324085
 21
-152.078461
  0
LINE
  8
0
 10
9.324085
 20
-152.078461
 11
89.324081
 21
-152.078461
  0
LINE
  8
0
 10
-271.250000
 20
-35.000000
 11
-271.250000
 21
-185.000000
  0
LINE
  8
0
 10
-236.250000
 20
-35.000000
 11
-236.250000
 21
-185.000000
  0
LINE
  8
0
 10
-271.250000
 20
-35.000000
 11
-161.250000
 21
-35.000000
  0
LINE
  8
0
 10
-271.250000
 20
-50.000000
 11
-161.250000
 21
-50.000000
  0
LINE
  8
0
 10
-271.250000
 20
-65.000000
 11
-161.250000
 21
-65.000000
  0
LINE
  8
0
 10
-271.250000
 20
-80.000000
 11
-161.250000
 21
-80.000000
  0
LINE
  8
0
 10
-271.250000
 20
-95.000000
 11
-161.250000
 21
-95.000000
  0
LINE
  8
0
 10
-271.250000
 20
-110.000000
 11
-161.250000
 21
-110.000000
  0
LINE
  8
0
 10
-271.250000
 20
-125.000000
 11
-161.250000
 21
-125.000000
  0
LINE
  8
0
 10
-271.250000
 20
-140.000000
 11
-161.250000
 21
-140.000000
  0
LINE
  8
0
 10
-271.250000
 20
-155.000000
 11
-161.250000
 21
-155.000000
  0
LINE
  8
0
 10
-271.250000
 20
-170.000000
 11
-161.250000
 21
-170.000000
  0
LINE
  8
0
 10
-271.250000
 20
-185.000000
 11
-161.250000
 21
-185.000000
  0
LINE
  8
0
 10
-203.250000
 20
-57.500000
 11
-194.250000
 21
-57.500000
  0
LINE
  8
0
 10
-211.250000
 20
-35.000000
 11
-211.250000
 21
-185.000000
  0
LINE
  8
0
 10
-186.250000
 20
-35.000000
 11
-186.250000
 21
-185.000000
  0
LINE
  8
0
 10
-161.250000
 20
-35.000000
 11
-161.250000
 21
-185.000000
  0
LINE
  8
0
 10
-281.250000
 20
195.500000
 11
282.099854
 21
195.500000
  0
LINE
  8
0
 10
-281.250000
 20
195.500000
 11
-281.250000
 21
-195.000000
  0
LINE
  8
0
 10
282.099854
 20
195.500000
 11
282.099854
 21
-195.000000
  0
LINE
  8
0
 10
-281.250000
 20
-195.000000
 11
282.099854
 21
-195.000000
  0
LINE
  8
0
 10
162.099976
 20
-175.000000
 11
162.099976
 21
-195.000000
  0
LINE
  8
0
 10
162.099976
 20
-175.000000
 11
282.099854
 21
-175.000000
  0
LINE
  8
0
 10
162.099976
 20
175.500000
 11
282.099854
 21
175.500000
  0
LINE
  8
0
 10
-281.250000
 20
175.500000
 11
-161.250000
 21
175.500000
  0
LINE
  8
0
 10
162.099976
 20
195.500000
 11
162.099976
 21
175.500000
  0
LINE
  8
0
 10
-161.250000
 20
195.500000
 11
-161.250000
 21
175.500000
  0
ARC
  8
0
 62
     4
 10
50.624088
 20
104.495544
 40
1.699997
 50
270.000000
 51
90.000000
  0
ARC
  8
0
 62
     4
 10
44.819096
 20
99.995605
 40
6.000516
 50
251.791672
 51
288.208374
  0
ARC
  8
0
 62
     4
 10
53.824085
 20
99.995590
 40
5.998033
 50
247.968124
 51
292.031921
  0
CIRCLE
  8
0
 62
     4
 10
48.024021
 20
104.495560
 40
0.850000
  0
CIRCLE
  8
0
 62
     4
 10
50.624027
 20
104.495560
 40
0.850000
  0
ARC
  8
0
 62
     4
 10
48.024082
 20
104.495544
 40
1.699997
 50
90.000000
 51
270.000000
  0
ARC
  8
0
 62
     4
 10
34.624088
 20
104.495544
 40
1.699997
 50
270.000000
 51
90.000000
  0
ARC
  8
0
 62
     4
 10
28.819096
 20
99.995605
 40
6.000516
 50
251.791672
 51
288.208374
  0
ARC
  8
0
 62
     4
 10
37.824085
 20
99.995605
 40
5.998047
 50
247.968185
 51
292.031860
  0
CIRCLE
  8
0
 62
     4
 10
32.024040
 20
104.495575
 40
0.850000
  0
CIRCLE
  8
0
 62
     4
 10
34.624027
 20
104.495575
 40
0.850000
  0
ARC
  8
0
 62
     4
 10
32.024097
 20
104.495544
 40
1.699997
 50
90.000000
 51
270.000000
  0
ARC
  8
0
 62
     4
 10
18.624096
 20
104.495544
 40
1.699997
 50
270.000000
 51
90.000000
  0
ARC
  8
0
 62
     4
 10
12.829097
 20
99.995605
 40
6.000516
 50
251.791672
 51
288.208374
  0
ARC
  8
0
 62
     4
 10
21.824097
 20
99.995605
 40
5.998047
 50
247.968155
 51
292.031860
  0
CIRCLE
  8
0
 62
     4
 10
16.024040
 20
104.495575
 40
0.850000
  0
CIRCLE
  8
0
 62
     4
 10
18.624046
 20
104.495575
 40
0.850000
  0
ARC
  8
0
 62
     4
 10
16.024097
 20
104.495544
 40
1.699997
 50
90.000000
 51
269.999939
  0
ARC
  8
0
 62
     4
 10
66.624084
 20
104.495544
 40
1.699997
 50
270.000000
 51
90.000000
  0
ARC
  8
0
 62
     4
 10
60.819096
 20
99.995590
 40
6.000501
 50
251.791656
 51
288.208435
  0
ARC
  8
0
 62
     4
 10
69.824081
 20
99.995590
 40
5.998034
 50
247.968094
 51
292.031921
  0
CIRCLE
  8
0
 62
     4
 10
64.024017
 20
104.495560
 40
0.850000
  0
CIRCLE
  8
0
 62
     4
 10
66.624023
 20
104.495560
 40
0.850000
  0
ARC
  8
0
 62
     4
 10
64.024078
 20
104.495544
 40
1.699997
 50
90.000000
 51
270.000000
  0
CIRCLE
  8
0
 10
73.324036
 20
131.495560
 40
0.750000
  0
CIRCLE
  8
0
 10
25.324062
 20
131.495590
 40
0.750000
  0
CIRCLE
  8
0
 10
73.324051
 20
153.495544
 40
0.750000
  0
CIRCLE
  8
0
 10
25.324066
 20
153.495590
 40
0.750000
  0
CIRCLE
  8
0
 62
     2
 10
73.324036
 20
131.495560
 40
1.500000
  0
CIRCLE
  8
0
 62
     2
 10
25.324062
 20
131.495590
 40
1.500000
  0
CIRCLE
  8
0
 62
     2
 10
73.324051
 20
153.495544
 40
1.500000
  0
CIRCLE
  8
0
 62
     2
 10
25.324066
 20
153.495590
 40
1.500000
  0
ARC
  8
0
 62
     4
 10
86.824097
 20
-7.471700
 40
2.338971
 50
195.853897
 51
344.146149
  0
ARC
  8
0
 62
     4
 10
75.824097
 20
-7.471700
 40
2.338971
 50
195.853897
 51
344.146149
  0
CIRCLE
  8
0
 62
     4
 10
44.824097
 20
-26.510670
 40
2.250000
  0
CIRCLE
  8
0
 62
     4
 10
44.824097
 20
-26.510670
 40
2.550000
  0
CIRCLE
  8
0
 62
     4
 10
53.824097
 20
-8.510671
 40
2.250000
  0
ARC
  8
0
 62
     4
 10
53.824097
 20
-8.510671
 40
3.000000
 50
180.000031
 51
270.000000
  0
ARC
  8
0
 62
     4
 10
44.824097
 20
-26.510670
 40
3.000000
 50
0.000000
 51
90.000000
  0
CIRCLE
  8
0
 62
     4
 10
53.824097
 20
-8.510671
 40
2.550000
  0
ARC
  8
0
 10
17.324097
 20
15.489319
 40
2.245172
 50
244.119781
 51
295.880310
  0
CIRCLE
  8
0
 62
     4
 10
28.824081
 20
-26.510670
 40
2.250000
  0
CIRCLE
  8
0
 62
     4
 10
37.824081
 20
-8.510671
 40
2.250000
  0
CIRCLE
  8
0
 62
     4
 10
28.824081
 20
-26.510670
 40
2.550000
  0
CIRCLE
  8
0
 62
     4
 10
37.824081
 20
-8.510671
 40
2.550000
  0
ARC
  8
0
 62
     4
 10
28.824089
 20
-26.510685
 40
3.000008
 50
0.000146
 51
89.999817
  0
ARC
  8
0
 62
     4
 10
37.824081
 20
-8.510686
 40
2.999992
 50
179.999802
 51
270.000153
  0
CIRCLE
  8
0
 62
     4
 10
12.824081
 20
-26.510670
 40
2.250000
  0
CIRCLE
  8
0
 62
     4
 10
21.824097
 20
-8.510671
 40
2.250000
  0
CIRCLE
  8
0
 62
     4
 10
12.824081
 20
-26.510670
 40
2.550000
  0
CIRCLE
  8
0
 62
     4
 10
21.824097
 20
-8.510671
 40
2.550000
  0
ARC
  8
0
 62
     4
 10
12.824089
 20
-26.510685
 40
3.000008
 50
0.000146
 51
89.999817
  0
ARC
  8
0
 62
     4
 10
21.824097
 20
-8.510671
 40
3.000000
 50
180.000031
 51
270.000000
  0
CIRCLE
  8
0
 62
     4
 10
60.824097
 20
-26.510670
 40
2.250000
  0
CIRCLE
  8
0
 62
     4
 10
69.824097
 20
-8.510671
 40
2.250000
  0
CIRCLE
  8
0
 62
     4
 10
60.824097
 20
-26.510670
 40
2.550000
  0
CIRCLE
  8
0
 62
     4
 10
69.824097
 20
-8.510671
 40
2.550000
  0
ARC
  8
0
 62
     4
 10
60.824097
 20
-26.510670
 40
3.000000
 50
0.000000
 51
90.000000
  0
ARC
  8
0
 62
     4
 10
69.824097
 20
-8.510671
 40
3.000000
 50
180.000031
 51
270.000000
  0
CIRCLE
  8
0
 10
81.324097
 20
15.489319
 40
2.250000
  0
ARC
  8
0
 10
17.324097
 20
15.489319
 40
2.249000
 50
316.080963
 51
223.919067
  0
CIRCLE
  8
0
 10
183.782074
 20
-133.578476
 40
2.500000
  0
CIRCLE
  8
0
 10
183.782074
 20
-120.578476
 40
2.099999
  0
ARC
  8
0
 62
     4
 10
155.787079
 20
-95.078506
 40
6.000480
 50
71.791550
 51
108.208427
  0
ARC
  8
0
 62
     4
 10
173.782074
 20
-95.078461
 40
5.997977
 50
67.967873
 51
112.032127
  0
ARC
  8
0
 10
159.482101
 20
-126.583481
 40
5.991528
 50
162.366440
 51
197.633514
  0
CIRCLE
  8
0
 62
     2
 10
183.782074
 20
-133.578476
 40
3.000000
  0
CIRCLE
  8
0
 62
     2
 10
183.782074
 20
-120.578476
 40
2.500000
  0
ARC
  8
0
 62
     4
 10
174.821060
 20
-126.578476
 40
2.338972
 50
105.854004
 51
254.145996
  0
CIRCLE
  8
0
 10
-95.133881
 20
-135.578476
 40
2.500000
  0
CIRCLE
  8
0
 10
-95.133881
 20
-122.578476
 40
2.099999
  0
ARC
  8
0
 62
     4
 10
-85.138885
 20
-97.078506
 40
6.000483
 50
71.791481
 51
108.208359
  0
ARC
  8
0
 62
     4
 10
-67.133881
 20
-97.078461
 40
5.997977
 50
67.967873
 51
112.032127
  0
ARC
  8
0
 10
-70.833908
 20
-128.583481
 40
5.991536
 50
342.366455
 51
17.633537
  0
CIRCLE
  8
0
 62
     2
 10
-95.133881
 20
-135.578476
 40
3.000000
  0
CIRCLE
  8
0
 62
     2
 10
-95.133881
 20
-122.578476
 40
2.500000
  0
CIRCLE
  8
0
 10
49.324100
 20
-131.578461
 40
2.099999
  0
CIRCLE
  8
0
 10
65.324097
 20
-131.578461
 40
2.099999
  0
CIRCLE
  8
0
 10
17.324085
 20
-131.578461
 40
2.099999
  0
CIRCLE
  8
0
 10
33.324100
 20
-131.578461
 40
2.099999
  0
CIRCLE
  8
0
 10
17.324085
 20
-143.578461
 40
2.099999
  0
CIRCLE
  8
0
 10
33.324100
 20
-143.578461
 40
2.099999
  0
ARC
  8
0
 62
     4
 10
44.824085
 20
-97.078476
 40
5.998020
 50
67.968033
 51
112.031929
  0
ARC
  8
0
 62
     4
 10
53.819080
 20
-97.078491
 40
6.000482
 50
71.791519
 51
108.208389
  0
CIRCLE
  8
0
 10
54.824100
 20
-128.578461
 40
2.250000
  0
CIRCLE
  8
0
 10
43.824085
 20
-128.578461
 40
2.250000
  0
ARC
  8
0
 10
43.824085
 20
-128.583466
 40
2.700787
 50
222.223724
 51
137.776276
  0
ARC
  8
0
 10
54.824085
 20
-128.583466
 40
2.700775
 50
42.223946
 51
317.776062
  0
CIRCLE
  8
0
 62
     2
 10
49.324100
 20
-131.578461
 40
2.500000
  0
CIRCLE
  8
0
 10
49.324100
 20
-123.078461
 40
1.500000
  0
ARC
  8
0
 62
     4
 10
28.824085
 20
-97.078476
 40
5.998021
 50
67.968018
 51
112.031944
  0
ARC
  8
0
 62
     4
 10
37.819080
 20
-97.078491
 40
6.000482
 50
71.791519
 51
108.208389
  0
ARC
  8
0
 62
     4
 10
12.824085
 20
-97.078476
 40
5.998020
 50
67.968025
 51
112.031937
  0
ARC
  8
0
 62
     4
 10
21.819084
 20
-97.078491
 40
6.000482
 50
71.791519
 51
108.208389
  0
ARC
  8
0
 62
     4
 10
60.824085
 20
-97.078476
 40
5.998020
 50
67.968033
 51
112.031929
  0
ARC
  8
0
 62
     4
 10
69.819077
 20
-97.078491
 40
6.000483
 50
71.791481
 51
108.208359
  0
CIRCLE
  8
0
 62
     4
 10
75.824097
 20
-128.578461
 40
2.250000
  0
CIRCLE
  8
0
 10
70.824097
 20
-128.578461
 40
2.250000
  0
CIRCLE
  8
0
 10
59.824100
 20
-128.578461
 40
2.250000
  0
CIRCLE
  8
0
 10
38.824085
 20
-128.578461
 40
2.250000
  0
CIRCLE
  8
0
 10
27.824085
 20
-128.578461
 40
2.250000
  0
CIRCLE
  8
0
 10
22.824100
 20
-128.578461
 40
2.250000
  0
CIRCLE
  8
0
 10
11.824085
 20
-128.578461
 40
2.250000
  0
CIRCLE
  8
0
 62
     4
 10
86.824097
 20
-128.578461
 40
2.250000
  0
ARC
  8
0
 62
     4
 10
86.824081
 20
-133.578476
 40
1.999985
 50
269.999786
 51
0.000000
  0
ARC
  8
0
 62
     4
 10
75.824081
 20
-133.578461
 40
2.000008
 50
180.000443
 51
269.999786
  0
ARC
  8
0
 62
     4
 10
75.824081
 20
-122.578476
 40
2.000008
 50
90.000221
 51
179.999786
  0
ARC
  8
0
 62
     4
 10
86.824081
 20
-122.578461
 40
1.999992
 50
359.999786
 51
90.000221
  0
ARC
  8
0
 10
59.824100
 20
-128.583466
 40
2.700798
 50
222.223511
 51
137.776489
  0
ARC
  8
0
 10
70.824081
 20
-128.583466
 40
2.700773
 50
42.223999
 51
317.776001
  0
CIRCLE
  8
0
 62
     2
 10
65.324097
 20
-131.578461
 40
2.500000
  0
CIRCLE
  8
0
 10
65.324097
 20
-123.078461
 40
1.500000
  0
CIRCLE
  8
0
 10
33.324100
 20
-123.078461
 40
1.500000
  0
ARC
  8
0
 10
27.824089
 20
-128.583466
 40
2.700785
 50
222.223755
 51
137.776245
  0
ARC
  8
0
 10
38.824070
 20
-128.583466
 40
2.700787
 50
42.223728
 51
317.776276
  0
CIRCLE
  8
0
 62
     2
 10
33.324100
 20
-131.578461
 40
2.500000
  0
CIRCLE
  8
0
 62
     2
 10
33.324100
 20
-143.578461
 40
2.500000
  0
CIRCLE
  8
0
 10
17.324085
 20
-123.078461
 40
1.500000
  0
ARC
  8
0
 10
11.824089
 20
-128.583466
 40
2.700786
 50
222.223740
 51
137.776260
  0
ARC
  8
0
 10
22.824097
 20
-128.583466
 40
2.700775
 50
42.223946
 51
317.776062
  0
CIRCLE
  8
0
 62
     2
 10
17.324085
 20
-131.578461
 40
2.500000
  0
CIRCLE
  8
0
 62
     2
 10
17.324085
 20
-143.578461
 40
2.500000
  0
TEXT
  8
0
 10
-228.642654
 20
-45.549999
 40
4.500000
  1
P1
 50
0.000000
 41
1.052632
 51
0.000000
  7
STANDARD
  0
TEXT
  8
0
 10
-203.642654
 20
-45.549999
 40
4.500000
  1
P2
 50
0.000000
 41
1.052632
 51
0.000000
  7
STANDARD
  0
TEXT
  8
0
 10
-176.392654
 20
-45.549999
 40
4.500000
  1
L
 50
0.000000
 41
1.052632
 51
0.000000
  7
STANDARD
  0
TEXT
  8
0
 10
-263.142670
 20
-45.549999
 40
4.500000
  1
TYPE
 50
0.000000
 41
1.052632
 51
0.000000
  7
STANDARD
  0
TEXT
  8
0
 10
-266.199951
 20
-59.200001
 40
4.500000
  1
YM 2F
 50
0.000000
 41
1.052632
 51
0.000000
  7
STANDARD
  0
TEXT
  8
0
 10
-266.199951
 20
-74.199997
 40
4.500000
  1
YM 3F
 50
0.000000
 41
1.052632
 51
0.000000
  7
STANDARD
  0
TEXT
  8
0
 10
-266.199951
 20
-89.199997
 40
4.500000
  1
YM 4F
 50
0.000000
 41
1.052632
 51
0.000000
  7
STANDARD
  0
TEXT
  8
0
 10
-266.199951
 20
-104.199997
 40
4.500000
  1
YM 5F
 50
0.000000
 41
1.052632
 51
0.000000
  7
STANDARD
  0
TEXT
  8
0
 10
-266.199951
 20
-119.199997
 40
4.500000
  1
YM 6F
 50
0.000000
 41
1.052632
 51
0.000000
  7
STANDARD
  0
TEXT
  8
0
 10
-266.199951
 20
-134.199997
 40
4.500000
  1
YM 7F
 50
0.000000
 41
1.052632
 51
0.000000
  7
STANDARD
  0
TEXT
  8
0
 10
-266.199951
 20
-149.199997
 40
4.500000
  1
YM 8F
 50
0.000000
 41
1.052632
 51
0.000000
  7
STANDARD
  0
TEXT
  8
0
 10
-266.199951
 20
-164.199997
 40
4.500000
  1
YM 9F
 50
0.000000
 41
1.052632
 51
0.000000
  7
STANDARD
  0
TEXT
  8
0
 10
-266.199951
 20
-179.199997
 40
4.500000
  1
YM10F
 50
0.000000
 41
1.052632
 51
0.000000
  7
STANDARD
  0
TEXT
  8
0
 10
-176.392654
 20
-60.549999
 40
4.500000
  1
32
 50
0.000000
 41
1.052632
 51
0.000000
  7
STANDARD
  0
TEXT
  8
0
 10
-176.392654
 20
-75.550003
 40
4.500000
  1
48
 50
0.000000
 41
1.052632
 51
0.000000
  7
STANDARD
  0
TEXT
  8
0
 10
-176.392654
 20
-90.550003
 40
4.500000
  1
64
 50
0.000000
 41
1.052632
 51
0.000000
  7
STANDARD
  0
TEXT
  8
0
 10
-176.392654
 20
-105.550003
 40
4.500000
  1
80
 50
0.000000
 41
1.052632
 51
0.000000
  7
STANDARD
  0
TEXT
  8
0
 10
-176.392654
 20
-120.550003
 40
4.500000
  1
96
 50
0.000000
 41
1.052632
 51
0.000000
  7
STANDARD
  0
TEXT
  8
0
 10
-180.892654
 20
-135.550003
 40
4.500000
  1
112
 50
0.000000
 41
1.052632
 51
0.000000
  7
STANDARD
  0
TEXT
  8
0
 10
-180.892654
 20
-150.550003
 40
4.500000
  1
128
 50
0.000000
 41
1.052632
 51
0.000000
  7
STANDARD
  0
TEXT
  8
0
 10
-180.892654
 20
-165.550003
 40
4.500000
  1
144
 50
0.000000
 41
1.052632
 51
0.000000
  7
STANDARD
  0
TEXT
  8
0
 10
-230.892654
 20
-180.550003
 40
4.500000
  1
144
 50
0.000000
 41
1.052632
 51
0.000000
  7
STANDARD
  0
TEXT
  8
0
 10
-230.892654
 20
-165.550003
 40
4.500000
  1
128
 50
0.000000
 41
1.052632
 51
0.000000
  7
STANDARD
  0
TEXT
  8
0
 10
-230.892654
 20
-150.550003
 40
4.500000
  1
112
 50
0.000000
 41
1.052632
 51
0.000000
  7
STANDARD
  0
TEXT
  8
0
 10
-226.392654
 20
-135.550003
 40
4.500000
  1
96
 50
0.000000
 41
1.052632
 51
0.000000
  7
STANDARD
  0
TEXT
  8
0
 10
-226.392654
 20
-120.550003
 40
4.500000
  1
80
 50
0.000000
 41
1.052632
 51
0.000000
  7
STANDARD
  0
TEXT
  8
0
 10
-226.392654
 20
-105.550003
 40
4.500000
  1
64
 50
0.000000
 41
1.052632
 51
0.000000
  7
STANDARD
  0
TEXT
  8
0
 10
-226.392654
 20
-90.550003
 40
4.500000
  1
48
 50
0.000000
 41
1.052632
 51
0.000000
  7
STANDARD
  0
TEXT
  8
0
 10
-226.392654
 20
-75.550003
 40
4.500000
  1
32
 50
0.000000
 41
1.052632
 51
0.000000
  7
STANDARD
  0
TEXT
  8
0
 10
-226.392654
 20
-60.549999
 40
4.500000
  1
16
 50
0.000000
 41
1.052632
 51
0.000000
  7
STANDARD
  0
TEXT
  8
0
 10
-205.892654
 20
-180.550003
 40
4.500000
  1
128
 50
0.000000
 41
1.052632
 51
0.000000
  7
STANDARD
  0
TEXT
  8
0
 10
-205.892654
 20
-165.550003
 40
4.500000
  1
112
 50
0.000000
 41
1.052632
 51
0.000000
  7
STANDARD
  0
TEXT
  8
0
 10
-201.392654
 20
-150.550003
 40
4.500000
  1
96
 50
0.000000
 41
1.052632
 51
0.000000
  7
STANDARD
  0
TEXT
  8
0
 10
-201.392654
 20
-135.550003
 40
4.500000
  1
80
 50
0.000000
 41
1.052632
 51
0.000000
  7
STANDARD
  0
TEXT
  8
0
 10
-201.392654
 20
-120.550003
 40
4.500000
  1
64
 50
0.000000
 41
1.052632
 51
0.000000
  7
STANDARD
  0
TEXT
  8
0
 10
-201.392654
 20
-105.550003
 40
4.500000
  1
48
 50
0.000000
 41
1.052632
 51
0.000000
  7
STANDARD
  0
TEXT
  8
0
 10
-201.392654
 20
-90.550003
 40
4.500000
  1
32
 50
0.000000
 41
1.052632
 51
0.000000
  7
STANDARD
  0
TEXT
  8
0
 10
-201.392654
 20
-75.550003
 40
4.500000
  1
16
 50
0.000000
 41
1.052632
 51
0.000000
  7
STANDARD
  0
TEXT
  8
0
 10
-180.892654
 20
-180.550003
 40
4.500000
  1
160
 50
0.000000
 41
1.052632
 51
0.000000
  7
STANDARD
  0
TEXT
  8
0
 10
-248.142654
 20
-28.050001
 40
4.500000
  1
DIMENSION LIST
 50
0.000000
 41
1.052632
 51
0.000000
  7
STANDARD
  0
TEXT
  8
0
 10
-253.399719
 20
180.830002
 40
6.300000
  1
030 SERIES
 50
0.000000
 41
1.052632
 51
0.000000
  7
STANDARD
  0
TEXT
  8
0
 10
-266.000000
 20
157.720001
 40
6.300000
  1
MODEL:YM5F
 50
0.000000
 41
1.052632
 51
0.000000
  7
STANDARD
  0
TEXT
  8
0
 10
196.250259
 20
180.830002
 40
6.300000
  1
VER. 1.0
 50
0.000000
 41
1.052632
 51
0.000000
  7
STANDARD
  0
TEXT
  8
0
 10
167.564651
 20
-192.100006
 40
9.000000
  1
KOGANEI CORP.
 50
0.000000
 41
1.052632
 51
0.000000
  7
STANDARD
  0
TEXT
  8
0
 62
     2
 10
13.917082
 20
179.060959
 40
3.200000
  1
16
 50
0.000000
 41
1.052632
 51
0.000000
  7
STANDARD
  0
LINE
  8
0
 62
     2
 10
9.324081
 20
178.060959
 11
25.324081
 21
178.060959
  0
LINE
  8
0
 62
     2
 10
9.324081
 20
178.060959
 11
12.221859
 21
178.837418
  0
LINE
  8
0
 62
     2
 10
9.324081
 20
178.060959
 11
12.221859
 21
177.284500
  0
LINE
  8
0
 62
     2
 10
25.324081
 20
178.060959
 11
22.426304
 21
177.284500
  0
LINE
  8
0
 62
     2
 10
25.324081
 20
178.060959
 11
22.426304
 21
178.837418
  0
LINE
  8
0
 62
     2
 10
9.324081
 20
157.495590
 11
9.324081
 21
179.560959
  0
LINE
  8
0
 62
     2
 10
25.324081
 20
157.495590
 11
25.324081
 21
179.560959
  0
TEXT
  8
0
 62
     2
 10
45.917080
 20
179.060959
 40
3.200000
  1
P2
 50
0.000000
 41
1.052632
 51
0.000000
  7
STANDARD
  0
LINE
  8
0
 62
     2
 10
25.324081
 20
178.060959
 11
73.324097
 21
178.060959
  0
LINE
  8
0
 62
     2
 10
25.324081
 20
178.060959
 11
28.221859
 21
178.837418
  0
LINE
  8
0
 62
     2
 10
25.324081
 20
178.060959
 11
28.221859
 21
177.284500
  0
LINE
  8
0
 62
     2
 10
73.324097
 20
178.060959
 11
70.426323
 21
177.284500
  0
LINE
  8
0
 62
     2
 10
73.324097
 20
178.060959
 11
70.426323
 21
178.837418
  0
LINE
  8
0
 62
     2
 10
25.324081
 20
157.495590
 11
25.324081
 21
179.560959
  0
LINE
  8
0
 62
     2
 10
73.324097
 20
157.495560
 11
73.324097
 21
179.560959
  0
TEXT
  8
0
 62
     2
 10
77.917099
 20
179.060959
 40
3.200000
  1
16
 50
0.000000
 41
1.052632
 51
0.000000
  7
STANDARD
  0
LINE
  8
0
 62
     2
 10
73.324097
 20
178.060959
 11
89.324097
 21
178.060959
  0
LINE
  8
0
 62
     2
 10
73.324097
 20
178.060959
 11
76.221870
 21
178.837418
  0
LINE
  8
0
 62
     2
 10
73.324097
 20
178.060959
 11
76.221870
 21
177.284500
  0
LINE
  8
0
 62
     2
 10
89.324097
 20
178.060959
 11
86.426323
 21
177.284500
  0
LINE
  8
0
 62
     2
 10
89.324097
 20
178.060959
 11
86.426323
 21
178.837418
  0
LINE
  8
0
 62
     2
 10
73.324097
 20
157.495560
 11
73.324097
 21
179.560959
  0
LINE
  8
0
 62
     2
 10
89.324097
 20
157.495560
 11
89.324097
 21
179.560959
  0
TEXT
  8
0
 62
     2
 10
11.517081
 20
49.409821
 40
3.200000
  1
8
 50
0.000000
 41
1.052632
 51
0.000000
  7
STANDARD
  0
LINE
  8
0
 62
     2
 10
9.324081
 20
48.409821
 11
17.324097
 21
48.409821
  0
LINE
  8
0
 62
     2
 10
9.324081
 20
48.409821
 11
6.426304
 21
47.633362
  0
LINE
  8
0
 62
     2
 10
9.324081
 20
48.409821
 11
6.426304
 21
49.186279
  0
LINE
  8
0
 62
     2
 10
9.324081
 20
48.409821
 11
3.324081
 21
48.409821
  0
LINE
  8
0
 62
     2
 10
17.324097
 20
48.409821
 11
20.221874
 21
49.186279
  0
LINE
  8
0
 62
     2
 10
17.324097
 20
48.409821
 11
20.221874
 21
47.633362
  0
LINE
  8
0
 62
     2
 10
17.324097
 20
48.409821
 11
23.324097
 21
48.409821
  0
LINE
  8
0
 62
     2
 10
9.324081
 20
10.489319
 11
9.324081
 21
49.909821
  0
LINE
  8
0
 62
     2
 10
17.324097
 20
18.994080
 11
17.324097
 21
49.909821
  0
TEXT
  8
0
 62
     2
 10
45.917095
 20
49.409821
 40
3.200000
  1
P1
 50
0.000000
 41
1.052632
 51
0.000000
  7
STANDARD
  0
LINE
  8
0
 62
     2
 10
17.324097
 20
48.409821
 11
81.324097
 21
48.409821
  0
LINE
  8
0
 62
     2
 10
17.324097
 20
48.409821
 11
20.221874
 21
49.186279
  0
LINE
  8
0
 62
     2
 10
17.324097
 20
48.409821
 11
20.221874
 21
47.633362
  0
LINE
  8
0
 62
     2
 10
81.324097
 20
48.409821
 11
78.426323
 21
47.633362
  0
LINE
  8
0
 62
     2
 10
81.324097
 20
48.409821
 11
78.426323
 21
49.186279
  0
LINE
  8
0
 62
     2
 10
17.324097
 20
18.994080
 11
17.324097
 21
49.909821
  0
LINE
  8
0
 62
     2
 10
81.324097
 20
18.994080
 11
81.324097
 21
49.909821
  0
TEXT
  8
0
 62
     2
 10
83.517097
 20
49.409821
 40
3.200000
  1
8
 50
0.000000
 41
1.052632
 51
0.000000
  7
STANDARD
  0
LINE
  8
0
 62
     2
 10
81.324097
 20
48.409821
 11
89.324097
 21
48.409821
  0
LINE
  8
0
 62
     2
 10
81.324097
 20
48.409821
 11
78.426323
 21
47.633362
  0
LINE
  8
0
 62
     2
 10
81.324097
 20
48.409821
 11
78.426323
 21
49.186279
  0
LINE
  8
0
 62
     2
 10
81.324097
 20
48.409821
 11
75.324097
 21
48.409821
  0
LINE
  8
0
 62
     2
 10
89.324097
 20
48.409821
 11
92.221870
 21
49.186279
  0
LINE
  8
0
 62
     2
 10
89.324097
 20
48.409821
 11
92.221870
 21
47.633362
  0
LINE
  8
0
 62
     2
 10
89.324097
 20
48.409821
 11
95.324097
 21
48.409821
  0
LINE
  8
0
 62
     2
 10
81.324097
 20
18.994080
 11
81.324097
 21
49.909821
  0
LINE
  8
0
 62
     2
 10
89.324097
 20
10.489319
 11
89.324097
 21
49.909821
  0
TEXT
  8
0
 62
     2
 10
47.517082
 20
61.754166
 40
3.200000
  1
L
 50
0.000000
 41
1.052632
 51
0.000000
  7
STANDARD
  0
LINE
  8
0
 62
     2
 10
89.324097
 20
60.754166
 11
9.324081
 21
60.754166
  0
LINE
  8
0
 62
     2
 10
89.324097
 20
60.754166
 11
86.426323
 21
59.977707
  0
LINE
  8
0
 62
     2
 10
89.324097
 20
60.754166
 11
86.426323
 21
61.530624
  0
LINE
  8
0
 62
     2
 10
9.324081
 20
60.754166
 11
12.221859
 21
61.530624
  0
LINE
  8
0
 62
     2
 10
9.324081
 20
60.754166
 11
12.221859
 21
59.977707
  0
LINE
  8
0
 62
     2
 10
89.324097
 20
10.489319
 11
89.324097
 21
62.254166
  0
LINE
  8
0
 62
     2
 10
9.324081
 20
10.489319
 11
9.324081
 21
62.254166
  0
LINE
  8
0
 62
     2
 10
17.324080
 20
-91.378471
 11
7.324072
 21
-74.057945
  0
LINE
  8
0
 62
     2
 10
7.324072
 20
-74.057945
 11
-16.060030
 21
-74.057945
  0
LINE
  8
0
 62
     2
 10
17.324080
 20
-91.378471
 11
16.547623
 21
-88.480690
  0
LINE
  8
0
 62
     2
 10
17.324080
 20
-91.378471
 11
15.202760
 21
-89.257149
  0
TEXT
  8
0
 62
     2
 10
-15.810030
 20
-73.057945
 40
3.200000
  1
030-4E1
 50
0.000000
 41
1.052632
 51
0.000000
  7
STANDARD
  0
LINE
  8
0
 62
     2
 10
33.324093
 20
-91.378494
 11
17.324085
 21
-63.665646
  0
LINE
  8
0
 62
     2
 10
17.324085
 20
-63.665646
 11
-6.265134
 21
-63.665646
  0
LINE
  8
0
 62
     2
 10
33.324093
 20
-91.378494
 11
32.547638
 21
-88.480713
  0
LINE
  8
0
 62
     2
 10
33.324093
 20
-91.378494
 11
31.202774
 21
-89.257172
  0
TEXT
  8
0
 62
     2
 10
-6.015134
 20
-62.665646
 40
3.200000
  1
030-4E1
 50
0.000000
 41
1.052632
 51
0.000000
  7
STANDARD
  0
LINE
  8
0
 62
     2
 10
65.324104
 20
-91.378487
 11
75.324089
 21
-74.057968
  0
LINE
  8
0
 62
     2
 10
75.324089
 20
-74.057968
 11
92.732239
 21
-74.057968
  0
LINE
  8
0
 62
     2
 10
65.324104
 20
-91.378487
 11
67.445419
 21
-89.257164
  0
LINE
  8
0
 62
     2
 10
65.324104
 20
-91.378487
 11
66.100555
 21
-88.480705
  0
TEXT
  8
0
 62
     2
 10
76.068237
 20
-73.057968
 40
3.200000
  1
030E1
 50
0.000000
 41
1.052632
 51
0.000000
  7
STANDARD
  0
LINE
  8
0
 62
     2
 10
81.224167
 20
-120.578621
 11
88.724174
 21
-107.588211
  0
LINE
  8
0
 62
     2
 10
88.724174
 20
-107.588211
 11
100.045113
 21
-107.588219
  0
LINE
  8
0
 62
     2
 10
81.224167
 20
-120.578621
 11
83.345490
 21
-118.457298
  0
LINE
  8
0
 62
     2
 10
81.224167
 20
-120.578621
 11
82.000626
 21
-117.680840
  0
TEXT
  8
0
 62
     2
 10
89.781113
 20
-106.588219
 40
3.200000
  1
-BP
 50
0.000000
 41
1.052632
 51
0.000000
  7
STANDARD
  0
ENDSEC
  0
EOF
