  0
SECTION
  2
HEADER
  0
ENDSEC
  0
SECTION
  2
TABLES
  0
TABLE
  2
LTYPE
 70
     4
  0
LTYPE
  2
CONTINUOUS
 70
    64
  3
Solid line
 72
    65
 73
     0
 40
0.000000
  0
LTYPE
  2
DASHED
 70
    64
  3
__ __ __ __ __ __ __ __ __ __ __ __ __ __ __
 72
    65
 73
     2
 40
3.500000
 49
2.000000
 49
-1.500000
  0
LTYPE
  2
CENTER
 70
    64
  3
____ _ ____ _ ____ _ ____ _ ____ _ ____ _ ____
 72
    65
 73
     4
 40
17.500000
 49
13.000000
 49
-1.500000
 49
1.500000
 49
-1.500000
  0
LTYPE
  2
PHANTOM
 70
    64
  3
_____ _ _ _____ _ _ _____ _ _ _____ _ _ ____  
 72
    65
 73
     6
 40
15.500000
 49
8.000000
 49
-1.500000
 49
1.500000
 49
-1.500000
 49
1.500000
 49
-1.500000
  0
LTYPE
  2
DASHED1
 70
    64
  3
__ __ __ __ __ __ __ __ __ __ __ __ __ __ __
 72
    65
 73
     2
 40
1.500000
 49
1.000000
 49
-0.500000
  0
LTYPE
  2
DASHED2
 70
    64
  3
__ __ __ __ __ __ __ __ __ __ __ __ __ __ __
 72
    65
 73
     2
 40
3.500000
 49
2.500000
 49
-1.000000
  0
LTYPE
  2
DASHED3
 70
    64
  3
__ __ __ __ __ __ __ __ __ __ __ __ __ __ __
 72
    65
 73
     2
 40
6.000000
 49
4.000000
 49
-2.000000
  0
LTYPE
  2
DASHED4
 70
    64
  3
__ __ __ __ __ __ __ __ __ __ __ __ __ __ __
 72
    65
 73
     2
 40
12.000000
 49
10.000000
 49
-2.000000
  0
LTYPE
  2
DASHED5
 70
    64
  3
__ __ __ __ __ __ __ __ __ __ __ __ __ __ __
 72
    65
 73
     2
 40
17.000000
 49
15.000000
 49
-2.000000
  0
LTYPE
  2
DASHED6
 70
    64
  3
__ __ __ __ __ __ __ __ __ __ __ __ __ __ __
 72
    65
 73
     2
 40
29.000000
 49
27.000000
 49
-2.000000
  0
LTYPE
  2
PHANTOM1
 70
    64
  3
_____ _ _ _____ _ _ _____ _ _ _____ _ _ ____  
 72
    65
 73
     6
 40
31.000000
 49
25.000000
 49
-1.500000
 49
1.000000
 49
-1.000000
 49
1.000000
 49
-1.500000
  0
LTYPE
  2
PHANTOM2
 70
    64
  3
_____ _ _ _____ _ _ _____ _ _ _____ _ _ ____  
 72
    65
 73
     6
 40
36.000000
 49
27.000000
 49
-1.500000
 49
2.500000
 49
-1.000000
 49
2.500000
 49
-1.500000
  0
LTYPE
  2
PHANTOM3
 70
    64
  3
_____ _ _ _____ _ _ _____ _ _ _____ _ _ ____  
 72
    65
 73
     6
 40
78.000000
 49
64.000000
 49
-2.000000
 49
4.000000
 49
-2.000000
 49
4.000000
 49
-2.000000
  0
LTYPE
  2
CENTER1
 70
    64
  3
____ _ ____ _ ____ _ ____ _ ____ _ ____ _ ____
 72
    65
 73
     4
 40
19.000000
 49
14.000000
 49
-1.000000
 49
3.000000
 49
-1.000000
  0
LTYPE
  2
CENTER2
 70
    64
  3
____ _ ____ _ ____ _ ____ _ ____ _ ____ _ ____
 72
    65
 73
     4
 40
28.500000
 49
25.000000
 49
-1.000000
 49
1.500000
 49
-1.000000
  0
LTYPE
  2
CENTER3
 70
    64
  3
____ _ ____ _ ____ _ ____ _ ____ _ ____ _ ____
 72
    65
 73
     4
 40
31.500000
 49
27.000000
 49
-1.000000
 49
2.500000
 49
-1.000000
  0
LTYPE
  2
CENTER4
 70
    64
  3
____ _ ____ _ ____ _ ____ _ ____ _ ____ _ ____
 72
    65
 73
     4
 40
50.000000
 49
45.000000
 49
-1.000000
 49
3.000000
 49
-1.000000
  0
LTYPE
  2
CENTER5
 70
    64
  3
____ _ ____ _ ____ _ ____ _ ____ _ ____ _ ____
 72
    65
 73
     4
 40
100.000000
 49
92.000000
 49
-2.000000
 49
4.000000
 49
-2.000000
  0
LTYPE
  2
SBK1
 70
    64
  3
______ _ _ _ ______ _ _ _ ______ _ _ _ _____  
 72
    65
 73
     8
 40
60.500000
 49
45.000000
 49
-2.000000
 49
2.500000
 49
-2.000000
 49
2.500000
 49
-2.000000
 49
2.500000
 49
-2.000000
  0
LTYPE
  2
SBK2
 70
    64
  3
______ _ _ _ ______ _ _ _ ______ _ _ _ _____  
 72
    65
 73
     8
 40
84.000000
 49
64.000000
 49
-2.000000
 49
4.000000
 49
-2.000000
 49
4.000000
 49
-2.000000
 49
4.000000
 49
-2.000000
  0
LTYPE
  2
STCH
 70
    64
  3
__ __ __ __ __ __ __ __ __ __ __ __ __ __ __
 72
    65
 73
     2
 40
3.000000
 49
1.000000
 49
-2.000000
  0
LTYPE
  2
MTCH
 70
    64
  3
_____ _ _ _____ _ _ _____ _ _ _____ _ _ ____  
 72
    65
 73
     6
 40
80.000000
 49
66.000000
 49
-2.000000
 49
4.000000
 49
-2.000000
 49
4.000000
 49
-2.000000
  0
ENDTAB
  0
TABLE
  2
LAYER
 70
     1
  0
LAYER
  2
0
 70
     0
 62
     7
  6
CONTINUOUS
  0
ENDTAB
  0
TABLE
  2
STYLE
 70
     1
  0
STYLE
  2
STANDARD
 70
     0
 40
0.000000
 41
1.000000
 50
0.000000
 71
     0
 42
0.200000
  3
txt
  4
BIGFONT
  0
ENDTAB
  0
TABLE
  2
VIEW
 70
     0
  0
ENDTAB
  0
ENDSEC
  0
SECTION
  2
BLOCKS
  0
ENDSEC
  0
SECTION
  2
ENTITIES
  0
LINE
  8
0
 10
-75.000015
 20
65.999992
 11
-75.000015
 21
-6.000004
  0
LINE
  8
0
 10
-67.000015
 20
65.999992
 11
-67.000015
 21
-6.000004
  0
LINE
  8
0
 10
-60.000015
 20
66.999992
 11
-60.000015
 21
-7.000004
  0
LINE
  8
0
 10
-67.000015
 20
23.499996
 11
-62.000015
 21
23.499996
  0
LINE
  8
0
 10
-62.000015
 20
23.499996
 11
-62.000015
 21
36.499996
  0
LINE
  8
0
 10
-67.000015
 20
36.499996
 11
-62.000015
 21
36.499996
  0
LINE
  8
0
  6
CENTER
 62
     2
 10
-68.745529
 20
5.499996
 11
-57.429546
 21
5.499996
  0
LINE
  8
0
  6
CENTER
 62
     2
 10
-69.122726
 20
54.499992
 11
-57.618145
 21
54.499992
  0
LINE
  8
0
 10
-67.000015
 20
49.499996
 11
-60.000015
 21
49.499996
  0
LINE
  8
0
 10
-67.000015
 20
59.499992
 11
-60.000015
 21
59.499992
  0
LINE
  8
0
 10
-67.000015
 20
0.499996
 11
-60.000015
 21
0.499996
  0
LINE
  8
0
 10
-67.000015
 20
10.499996
 11
-60.000015
 21
10.499996
  0
LINE
  8
0
 10
-60.000015
 20
66.999992
 11
-4.000015
 21
66.999992
  0
LINE
  8
0
 10
-60.000015
 20
-7.000004
 11
-4.000015
 21
-7.000004
  0
LINE
  8
0
 10
-75.000015
 20
65.999992
 11
-67.000015
 21
65.999992
  0
LINE
  8
0
 10
-75.000015
 20
-6.000004
 11
-67.000015
 21
-6.000004
  0
LINE
  8
0
 10
-4.000015
 20
66.799995
 11
60.999985
 21
66.799995
  0
LINE
  8
0
 10
-4.000015
 20
-6.800003
 11
60.999985
 21
-6.800003
  0
LINE
  8
0
 10
60.999985
 20
66.999992
 11
71.999985
 21
66.999992
  0
LINE
  8
0
 10
60.999985
 20
-7.000004
 11
71.999985
 21
-7.000004
  0
LINE
  8
0
  6
CENTER
 62
     2
 10
-67.506607
 20
11.999996
 11
-75.129250
 21
11.999996
  0
LINE
  8
0
  6
CENTER
 62
     2
 10
-67.593330
 20
47.999996
 11
-75.267456
 21
47.999996
  0
LINE
  8
0
  6
CENTER
 62
     2
 10
-71.000015
 20
52.265831
 11
-71.000015
 21
44.507530
  0
LINE
  8
0
  6
CENTER
 62
     2
 10
-71.000015
 20
15.800767
 11
-71.000015
 21
8.689121
  0
LINE
  8
0
  6
CENTER
 62
     2
 10
-54.000015
 20
47.976627
 11
-54.000015
 21
34.447155
  0
LINE
  8
0
  6
CENTER
 62
     2
 10
-15.000015
 20
46.737621
 11
-15.000015
 21
34.358044
  0
LINE
  8
0
  6
CENTER
 62
     2
 10
-59.617683
 20
40.499996
 11
-47.773491
 21
40.499996
  0
LINE
  8
0
  6
CENTER
 62
     2
 10
-59.203072
 20
19.499996
 11
-47.860214
 21
19.499996
  0
LINE
  8
0
  6
CENTER
 62
     2
 10
-21.584499
 20
40.499996
 11
-10.383827
 21
40.499996
  0
LINE
  8
0
  6
CENTER
 62
     2
 10
-21.826481
 20
19.499996
 11
-10.500015
 21
19.499996
  0
LINE
  8
0
  6
CENTER
 62
     2
 10
-15.000015
 20
25.839729
 11
-15.000015
 21
13.256767
  0
LINE
  8
0
  6
CENTER
 62
     2
 10
-54.000015
 20
25.600960
 11
-54.000015
 21
13.285675
  0
LINE
  8
0
 10
-10.000015
 20
41.999996
 11
-10.000015
 21
17.999996
  0
LINE
  8
0
 10
-8.000015
 20
39.999996
 11
-8.000015
 21
19.999996
  0
LINE
  8
0
 10
-10.000015
 20
17.999996
 11
71.999985
 21
17.999996
  0
LINE
  8
0
 10
-10.000015
 20
41.999996
 11
71.999985
 21
41.999996
  0
LINE
  8
0
 10
-8.000015
 20
39.999996
 11
71.999985
 21
39.999996
  0
LINE
  8
0
 10
-8.000015
 20
19.999996
 11
71.999985
 21
19.999996
  0
LINE
  8
0
 10
-10.000030
 20
18.000006
 11
-8.000032
 21
20.000002
  0
LINE
  8
0
 10
-4.000015
 20
28.499996
 11
60.999985
 21
28.499996
  0
LINE
  8
0
 10
-4.000015
 20
31.499996
 11
60.999985
 21
31.499996
  0
LINE
  8
0
 10
-4.000015
 20
33.374996
 11
60.999985
 21
33.374996
  0
LINE
  8
0
 10
-4.000015
 20
26.624996
 11
60.999985
 21
26.624996
  0
LINE
  8
0
 10
-4.000015
 20
37.624996
 11
60.999985
 21
37.624996
  0
LINE
  8
0
 10
-4.000015
 20
22.374996
 11
60.999985
 21
22.374996
  0
LINE
  8
0
  6
CENTER
 62
     2
 10
65.644760
 20
24.499996
 11
75.497757
 21
24.499996
  0
LINE
  8
0
  6
CENTER
 62
     2
 10
65.160782
 20
35.499996
 11
75.497757
 21
35.499996
  0
LINE
  8
0
 10
69.249985
 20
37.249996
 11
71.999985
 21
37.249996
  0
LINE
  8
0
 10
69.249985
 20
33.749996
 11
71.999985
 21
33.749996
  0
LINE
  8
0
 10
69.249985
 20
26.249996
 11
71.999985
 21
26.249996
  0
LINE
  8
0
 10
69.249985
 20
22.749996
 11
71.999985
 21
22.749996
  0
LINE
  8
0
 10
40.749985
 20
31.249996
 11
41.499985
 21
31.249996
  0
LINE
  8
0
 10
40.749985
 20
28.749996
 11
41.499985
 21
28.749996
  0
LINE
  8
0
 10
42.499985
 20
31.249996
 11
43.249985
 21
31.249996
  0
LINE
  8
0
 10
42.499985
 20
28.749996
 11
43.249985
 21
28.749996
  0
LINE
  8
0
 10
-62.000015
 20
32.999996
 11
-60.000015
 21
32.999996
  0
LINE
  8
0
 10
-62.000015
 20
26.999996
 11
-60.000015
 21
26.999996
  0
LINE
  8
0
 62
     2
 10
-62.000019
 20
32.500011
 11
-61.133999
 21
33.000011
  0
LINE
  8
0
 62
     2
 10
-62.000031
 20
27.499994
 11
-61.133999
 21
26.999990
  0
LINE
  8
0
 10
-66.709854
 20
29.999996
 11
-62.290176
 21
29.999996
  0
LINE
  8
0
 62
     4
 10
-4.000015
 20
87.799995
 11
60.999985
 21
87.799995
  0
LINE
  8
0
 62
     4
 10
60.999985
 20
87.999992
 11
71.999985
 21
87.999992
  0
LINE
  8
0
 62
     4
 10
-4.000015
 20
87.999992
 11
-4.000015
 21
66.999992
  0
LINE
  8
0
 62
     4
 10
60.999985
 20
87.999992
 11
60.999985
 21
66.999992
  0
LINE
  8
0
 62
     4
 10
71.999985
 20
87.999992
 11
71.999985
 21
66.999992
  0
LINE
  8
0
  6
CENTER
 62
     1
 10
-30.246132
 20
74.999992
 11
86.491653
 21
74.999992
  0
LINE
  8
0
 62
     4
 10
71.999985
 20
67.999992
 11
78.999985
 21
67.999992
  0
LINE
  8
0
 62
     4
 10
71.999985
 20
81.999992
 11
78.999985
 21
81.999992
  0
LINE
  8
0
 62
     1
 10
71.999985
 20
80.999992
 11
79.999985
 21
80.999992
  0
LINE
  8
0
 62
     1
 10
71.999985
 20
68.999992
 11
79.999985
 21
68.999992
  0
LINE
  8
0
 62
     4
 10
79.999985
 20
80.999985
 11
79.999985
 21
68.999992
  0
LINE
  8
0
 62
     4
 10
79.000092
 20
82.000061
 11
80.000084
 21
81.000053
  0
LINE
  8
0
 62
     4
 10
79.999962
 20
68.999985
 11
78.999962
 21
67.999985
  0
LINE
  8
0
 62
     4
 10
78.999985
 20
67.999992
 11
78.999985
 21
81.999992
  0
LINE
  8
0
 10
-10.000031
 20
42.000004
 11
-8.000029
 21
40.000000
  0
LINE
  8
0
  6
CENTER
 62
     2
 10
-77.166924
 20
29.999996
 11
75.497757
 21
29.999996
  0
LINE
  8
0
  6
CENTER
 62
     2
 10
69.249985
 20
38.999996
 11
69.249985
 21
21.333328
  0
LINE
  8
0
 10
-4.000015
 20
66.999992
 11
-4.000015
 21
-7.000004
  0
LINE
  8
0
 10
60.999985
 20
66.999992
 11
60.999985
 21
-7.000004
  0
LINE
  8
0
 10
71.999985
 20
66.999992
 11
71.999985
 21
-7.000004
  0
LINE
  8
0
 62
     4
 10
-4.000015
 20
87.999992
 11
-15.000015
 21
87.999992
  0
LINE
  8
0
 62
     4
 10
-15.000015
 20
87.999992
 11
-15.000015
 21
66.999992
  0
LINE
  8
0
 62
     4
 10
-22.000015
 20
67.999992
 11
-22.000015
 21
81.999992
  0
LINE
  8
0
 62
     4
 10
-15.000015
 20
67.999992
 11
-22.000015
 21
67.999992
  0
LINE
  8
0
 62
     4
 10
-15.000015
 20
81.999992
 11
-22.000015
 21
81.999992
  0
LINE
  8
0
 62
     1
 10
-15.000015
 20
80.999992
 11
-23.000015
 21
80.999992
  0
LINE
  8
0
 62
     1
 10
-15.000015
 20
68.999992
 11
-23.000015
 21
68.999992
  0
LINE
  8
0
 62
     4
 10
-23.000015
 20
80.999985
 11
-23.000015
 21
68.999992
  0
LINE
  8
0
 62
     4
 10
-22.000076
 20
82.000046
 11
-23.000078
 21
81.000031
  0
LINE
  8
0
 62
     4
 10
-23.000017
 20
68.999985
 11
-22.000015
 21
67.999985
  0
LINE
  8
0
  6
PHANTOM
 62
     3
 10
28.499985
 20
107.893188
 11
28.499985
 21
-46.877342
  0
LINE
  8
0
  6
CENTER
 62
     2
 10
-195.460693
 20
30.000015
 11
-156.828644
 21
30.000015
  0
LINE
  8
0
 10
-191.000000
 20
67.000015
 11
-191.000000
 21
-6.999985
  0
LINE
  8
0
 10
-162.000000
 20
67.000015
 11
-162.000000
 21
-6.999985
  0
LINE
  8
0
 10
-191.000000
 20
-6.999985
 11
-162.000000
 21
-6.999985
  0
LINE
  8
0
  6
CENTER
 62
     2
 10
-178.000000
 20
68.498123
 11
-178.000000
 21
-8.723835
  0
LINE
  8
0
 10
-174.250015
 20
36.495213
 11
-170.500015
 21
30.000015
  0
LINE
  8
0
 10
-170.499954
 20
29.999962
 11
-174.249954
 21
23.504784
  0
LINE
  8
0
 10
-174.250000
 20
23.504745
 11
-181.750000
 21
23.504745
  0
LINE
  8
0
 10
-181.750046
 20
23.504824
 11
-185.500046
 21
30.000008
  0
LINE
  8
0
 10
-185.500000
 20
30.000025
 11
-181.750000
 21
36.495213
  0
LINE
  8
0
 10
-181.750000
 20
36.495205
 11
-174.250000
 21
36.495205
  0
LINE
  8
0
 10
-190.000000
 20
66.000015
 11
-190.000000
 21
-5.999985
  0
LINE
  8
0
 10
-166.000000
 20
66.000015
 11
-166.000000
 21
-5.999985
  0
LINE
  8
0
 10
-166.000000
 20
-5.999985
 11
-190.000000
 21
-5.999985
  0
LINE
  8
0
 10
-166.000000
 20
66.000015
 11
-190.000000
 21
66.000015
  0
LINE
  8
0
  6
CENTER
 62
     2
 10
-174.647095
 20
16.000015
 11
-181.000000
 21
16.000015
  0
LINE
  8
0
  6
CENTER
 62
     2
 10
-174.769531
 20
44.000015
 11
-181.000000
 21
44.000015
  0
LINE
  8
0
  6
CENTER
 62
     2
 10
-173.500000
 20
54.500015
 11
-183.218231
 21
54.500015
  0
LINE
  8
0
  6
CENTER
 62
     2
 10
-173.108795
 20
5.500015
 11
-183.340698
 21
5.500015
  0
LINE
  8
0
 10
-177.100006
 20
7.058861
 11
-178.899994
 21
7.058861
  0
LINE
  8
0
 10
-178.900024
 20
7.058882
 11
-179.800034
 21
5.500038
  0
LINE
  8
0
 10
-179.800034
 20
5.499993
 11
-178.900040
 21
3.941151
  0
LINE
  8
0
 10
-178.899994
 20
3.941086
 11
-177.100006
 21
3.941086
  0
LINE
  8
0
 10
-177.100021
 20
3.941213
 11
-176.200012
 21
5.500057
  0
LINE
  8
0
 10
-176.200012
 20
5.500000
 11
-177.100021
 21
7.058844
  0
LINE
  8
0
 10
-177.100006
 20
56.058834
 11
-176.199997
 21
54.499989
  0
LINE
  8
0
 10
-176.200058
 20
54.500046
 11
-177.100067
 21
52.941200
  0
LINE
  8
0
 10
-177.100006
 20
52.941170
 11
-178.899994
 21
52.941170
  0
LINE
  8
0
 10
-178.900055
 20
52.941147
 11
-179.800064
 21
54.499992
  0
LINE
  8
0
 10
-179.800034
 20
54.500046
 11
-178.900024
 21
56.058891
  0
LINE
  8
0
 10
-178.899994
 20
56.058861
 11
-177.100006
 21
56.058861
  0
LINE
  8
0
 10
-160.000000
 20
40.000015
 11
-160.000000
 21
20.000011
  0
LINE
  8
0
 10
-162.000031
 20
41.999973
 11
-160.000031
 21
39.999973
  0
LINE
  8
0
 10
-162.000031
 20
18.000036
 11
-160.000031
 21
20.000034
  0
LINE
  8
0
 10
-191.000000
 20
67.000015
 11
-162.000000
 21
67.000015
  0
LINE
  8
0
 62
     4
 10
-191.000000
 20
88.000015
 11
-162.000000
 21
88.000015
  0
LINE
  8
0
 62
     4
 10
-191.000000
 20
88.000015
 11
-191.000000
 21
67.000015
  0
LINE
  8
0
 62
     4
 10
-162.000000
 20
88.000015
 11
-162.000000
 21
67.000015
  0
LINE
  8
0
  6
CENTER
 62
     1
 10
-185.350983
 20
75.000015
 11
-167.850983
 21
75.000015
  0
LINE
  8
0
  6
CENTER
 62
     1
 10
-176.500000
 20
83.528961
 11
-176.500000
 21
67.267899
  0
LINE
  8
0
  6
CENTER
 62
     2
 10
157.887054
 20
29.999966
 11
193.472443
 21
29.999966
  0
LINE
  8
0
 10
190.999969
 20
66.999969
 11
190.999969
 21
-7.000034
  0
LINE
  8
0
 10
161.999969
 20
66.999969
 11
161.999969
 21
40.199966
  0
LINE
  8
0
 10
161.999969
 20
66.999969
 11
190.999969
 21
66.999969
  0
LINE
  8
0
 10
161.999969
 20
-7.000034
 11
190.999969
 21
-7.000034
  0
LINE
  8
0
  6
CENTER
 62
     2
 10
177.999969
 20
69.027237
 11
177.999969
 21
-9.786594
  0
LINE
  8
0
  6
CENTER
 62
     2
 10
186.999969
 20
51.999966
 11
186.999969
 21
46.025661
  0
LINE
  8
0
  6
CENTER
 62
     2
 10
183.249146
 20
49.499966
 11
189.499969
 21
49.499966
  0
LINE
  8
0
  6
CENTER
 62
     2
 10
168.999969
 20
51.999966
 11
168.999969
 21
46.279133
  0
LINE
  8
0
  6
CENTER
 62
     2
 10
172.687866
 20
49.499966
 11
165.421722
 21
49.499966
  0
LINE
  8
0
  6
CENTER
 62
     2
 10
186.999969
 20
7.075706
 11
186.999969
 21
14.088389
  0
LINE
  8
0
  6
CENTER
 62
     2
 10
183.587097
 20
10.499966
 11
189.499969
 21
10.499966
  0
LINE
  8
0
  6
CENTER
 62
     2
 10
168.999969
 20
7.329178
 11
168.999969
 21
13.327978
  0
LINE
  8
0
  6
CENTER
 62
     2
 10
172.518890
 20
10.499966
 11
165.759674
 21
10.499966
  0
LINE
  8
0
  6
CENTER
 62
     2
 10
179.700562
 20
40.999966
 11
186.999969
 21
40.999966
  0
LINE
  8
0
  6
CENTER
 62
     2
 10
168.125397
 20
18.999966
 11
174.999969
 21
18.999966
  0
LINE
  8
0
  6
CENTER
 62
     2
 10
183.999969
 20
45.603214
 11
183.999969
 21
36.900730
  0
LINE
  8
0
  6
CENTER
 62
     2
 10
171.999969
 20
21.999966
 11
171.999969
 21
14.933290
  0
LINE
  8
0
  6
CENTER
 62
     2
 10
181.499969
 20
18.999966
 11
190.499969
 21
18.999966
  0
LINE
  8
0
  6
CENTER
 62
     2
 10
164.999268
 20
40.999966
 11
175.222595
 21
40.999966
  0
LINE
  8
0
  6
CENTER
 62
     2
 10
169.999969
 20
46.617092
 11
169.999969
 21
35.633377
  0
LINE
  8
0
  6
CENTER
 62
     2
 10
185.999969
 20
24.480677
 11
185.999969
 21
13.665939
  0
LINE
  8
0
 10
186.899887
 20
20.558756
 11
187.799896
 21
18.999910
  0
LINE
  8
0
 10
186.900116
 20
17.441021
 11
187.800125
 21
18.999865
  0
LINE
  8
0
 10
186.899963
 20
17.441120
 11
185.099976
 21
17.441120
  0
LINE
  8
0
 10
185.100021
 20
17.441133
 11
184.200027
 21
18.999977
  0
LINE
  8
0
 10
184.200058
 20
18.999922
 11
185.100067
 21
20.558765
  0
LINE
  8
0
 10
185.099976
 20
20.558811
 11
186.899963
 21
20.558811
  0
LINE
  8
0
 10
170.899994
 20
42.558853
 11
171.800003
 21
41.000008
  0
LINE
  8
0
 10
171.799988
 20
40.999947
 11
170.899979
 21
39.441101
  0
LINE
  8
0
 10
170.899963
 20
39.441120
 11
169.099976
 21
39.441120
  0
LINE
  8
0
 10
169.100006
 20
39.441139
 11
168.199997
 21
40.999989
  0
LINE
  8
0
 10
168.200027
 20
40.999954
 11
169.100037
 21
42.558800
  0
LINE
  8
0
 10
169.099976
 20
42.558811
 11
170.899963
 21
42.558811
  0
LINE
  8
0
 10
162.899963
 20
41.199966
 11
162.899963
 21
40.199966
  0
LINE
  8
0
 10
161.999969
 20
19.799965
 11
162.899963
 21
19.799965
  0
LINE
  8
0
 10
161.999969
 20
40.199966
 11
162.899963
 21
40.199966
  0
LINE
  8
0
 10
162.899963
 20
18.799965
 11
164.599976
 21
18.799965
  0
LINE
  8
0
 10
162.899963
 20
41.199966
 11
164.599976
 21
41.199966
  0
LINE
  8
0
 10
162.899963
 20
19.799965
 11
162.899963
 21
18.799965
  0
LINE
  8
0
 10
164.599976
 20
18.799965
 11
164.599976
 21
41.199966
  0
LINE
  8
0
 10
161.999969
 20
19.799965
 11
161.999969
 21
-7.000034
  0
LINE
  8
0
 10
160.000015
 20
39.999920
 11
162.000015
 21
41.999920
  0
LINE
  8
0
 10
160.000015
 20
20.000017
 11
162.000015
 21
18.000021
  0
LINE
  8
0
 10
159.999969
 20
19.999962
 11
159.999969
 21
39.999966
  0
LINE
  8
0
  6
CENTER
 62
     2
 10
158.915619
 20
35.499966
 11
166.396912
 21
35.499966
  0
LINE
  8
0
  6
CENTER
 62
     2
 10
158.915619
 20
24.499966
 11
166.850311
 21
24.499966
  0
LINE
  8
0
 10
162.649963
 20
37.249966
 11
164.599976
 21
37.249966
  0
LINE
  8
0
 10
162.649963
 20
33.749966
 11
164.599976
 21
33.749966
  0
LINE
  8
0
 10
162.649963
 20
26.249966
 11
164.599976
 21
26.249966
  0
LINE
  8
0
 10
162.649963
 20
22.749966
 11
164.599976
 21
22.749966
  0
LINE
  8
0
 62
     4
 10
161.999969
 20
87.999962
 11
190.999969
 21
87.999962
  0
LINE
  8
0
 62
     4
 10
161.999969
 20
87.999962
 11
161.999969
 21
66.999969
  0
LINE
  8
0
 62
     4
 10
190.999969
 20
87.999962
 11
190.999969
 21
66.999969
  0
LINE
  8
0
  6
CENTER
 62
     1
 10
167.648987
 20
74.999969
 11
185.148987
 21
74.999969
  0
LINE
  8
0
  6
CENTER
 62
     1
 10
176.499969
 20
83.528915
 11
176.499969
 21
67.267853
  0
LINE
  8
0
  6
CENTER
 62
     2
 10
162.649963
 20
21.876072
 11
162.649963
 21
37.982265
  0
LINE
  8
0
  6
CENTER
 62
     2
 10
-77.917030
 20
-103.181038
 11
74.064621
 21
-103.181038
  0
LINE
  8
0
 10
-75.000031
 20
-91.181038
 11
-75.000031
 21
-115.181038
  0
LINE
  8
0
 10
-67.000031
 20
-91.181038
 11
-67.000031
 21
-115.181038
  0
LINE
  8
0
 10
-60.000031
 20
-87.181038
 11
-60.000031
 21
-116.181038
  0
LINE
  8
0
 10
-4.000031
 20
-85.181038
 11
-4.000031
 21
-116.181038
  0
LINE
  8
0
 10
60.999969
 20
-85.181038
 11
60.999969
 21
-116.181038
  0
LINE
  8
0
 10
71.999969
 20
-85.181038
 11
71.999969
 21
-116.181038
  0
LINE
  8
0
 10
-60.000031
 20
-87.181038
 11
-4.000031
 21
-87.181038
  0
LINE
  8
0
 10
-60.000031
 20
-116.181038
 11
-4.000031
 21
-116.181038
  0
LINE
  8
0
  6
CENTER
 62
     2
 10
-71.000031
 20
-114.303841
 11
-71.000031
 21
-107.589798
  0
LINE
  8
0
  6
CENTER
 62
     2
 10
-74.000031
 20
-111.181038
 11
-68.215744
 21
-111.181038
  0
LINE
  8
0
  6
CENTER
 62
     2
 10
-74.000031
 20
-95.181038
 11
-68.095856
 21
-95.181038
  0
LINE
  8
0
  6
CENTER
 62
     2
 10
-71.000031
 20
-98.477882
 11
-71.000031
 21
-92.681038
  0
LINE
  8
0
  6
CENTER
 62
     2
 10
-54.500031
 20
-87.567558
 11
-54.500031
 21
-95.000961
  0
LINE
  8
0
  6
CENTER
 62
     2
 10
-9.500031
 20
-87.568817
 11
-9.500031
 21
-94.761177
  0
LINE
  8
0
  6
CENTER
 62
     2
 10
-57.500031
 20
-91.681038
 11
-51.509674
 21
-91.681038
  0
LINE
  8
0
  6
CENTER
 62
     2
 10
-57.500031
 20
-111.681038
 11
-51.389782
 21
-111.681038
  0
LINE
  8
0
  6
CENTER
 62
     2
 10
-54.500031
 20
-108.309158
 11
-54.500031
 21
-115.143105
  0
LINE
  8
0
  6
CENTER
 62
     2
 10
-12.883492
 20
-91.681038
 11
-6.289337
 21
-91.681038
  0
LINE
  8
0
  6
CENTER
 62
     2
 10
-9.500031
 20
-108.548950
 11
-9.500031
 21
-115.023209
  0
LINE
  8
0
  6
CENTER
 62
     2
 10
-12.763596
 20
-111.681038
 11
-6.289337
 21
-111.681038
  0
LINE
  8
0
  6
CENTER
 62
     2
 10
66.499969
 20
-88.484695
 11
66.499969
 21
-95.143890
  0
LINE
  8
0
  6
CENTER
 62
     2
 10
63.603333
 20
-91.681038
 11
69.499969
 21
-91.681038
  0
LINE
  8
0
  6
CENTER
 62
     2
 10
63.392120
 20
-111.681038
 11
69.815231
 21
-111.681038
  0
LINE
  8
0
  6
CENTER
 62
     2
 10
66.499969
 20
-108.238503
 11
66.499969
 21
-114.997009
  0
LINE
  8
0
 10
-8.000031
 20
-85.181038
 11
-4.000031
 21
-85.181038
  0
LINE
  8
0
 10
-9.999984
 20
-87.181076
 11
-7.999981
 21
-85.181076
  0
LINE
  8
0
 10
-4.000031
 20
-87.381042
 11
60.999969
 21
-87.381042
  0
LINE
  8
0
 10
-4.004166
 20
-115.981041
 11
60.999969
 21
-115.981041
  0
LINE
  8
0
 10
60.999969
 20
-116.181038
 11
71.999969
 21
-116.181038
  0
LINE
  8
0
 10
60.999969
 20
-87.181038
 11
71.999969
 21
-87.181038
  0
LINE
  8
0
 10
-4.000031
 20
-85.381042
 11
60.999969
 21
-85.381042
  0
LINE
  8
0
 10
60.999969
 20
-85.181038
 11
71.999969
 21
-85.181038
  0
LINE
  8
0
 10
-66.273308
 20
-110.686592
 11
-62.726753
 21
-110.686592
  0
LINE
  8
0
 10
-60.000031
 20
-108.181038
 11
-67.000031
 21
-108.181038
  0
LINE
  8
0
 10
-60.000031
 20
-98.181038
 11
-67.000031
 21
-98.181038
  0
LINE
  8
0
 10
-75.000031
 20
-115.181038
 11
-67.000031
 21
-115.181038
  0
LINE
  8
0
 10
-75.000031
 20
-91.181038
 11
-67.000031
 21
-91.181038
  0
LINE
  8
0
 62
     4
 10
71.999969
 20
-94.681038
 11
78.999969
 21
-94.681038
  0
LINE
  8
0
 62
     4
 10
71.999969
 20
-108.681038
 11
78.999969
 21
-108.681038
  0
LINE
  8
0
 62
     4
 10
79.999969
 20
-95.681038
 11
79.999969
 21
-107.681038
  0
LINE
  8
0
 62
     4
 10
78.999977
 20
-94.681023
 11
79.999985
 21
-95.681030
  0
LINE
  8
0
 62
     4
 10
79.999947
 20
-107.681030
 11
78.999947
 21
-108.681030
  0
LINE
  8
0
 62
     1
 10
79.999969
 20
-95.681038
 11
71.999969
 21
-95.681038
  0
LINE
  8
0
 62
     1
 10
79.999969
 20
-107.681038
 11
71.999969
 21
-107.681038
  0
LINE
  8
0
 62
     4
 10
78.999969
 20
-94.681038
 11
78.999969
 21
-108.681038
  0
LINE
  8
0
 10
-62.000031
 20
-108.181038
 11
-62.000031
 21
-108.806038
  0
LINE
  8
0
 10
-62.721718
 20
-95.681038
 11
-66.278343
 21
-95.681038
  0
LINE
  8
0
 10
-62.000031
 20
-97.556038
 11
-62.000031
 21
-98.181038
  0
LINE
  8
0
  6
CENTER
 62
     1
 10
71.239639
 20
-101.681038
 11
81.293228
 21
-101.681038
  0
LINE
  8
0
  6
PHANTOM
 62
     3
 10
28.499969
 20
-46.867477
 11
28.499969
 21
-132.468872
  0
LINE
  8
0
 10
-281.250000
 20
195.500000
 11
282.099976
 21
195.500000
  0
LINE
  8
0
 10
-281.250000
 20
195.500000
 11
-281.250000
 21
-195.000000
  0
LINE
  8
0
 10
282.099976
 20
195.500000
 11
282.099976
 21
-195.000000
  0
LINE
  8
0
 10
-281.250000
 20
-195.000000
 11
282.099976
 21
-195.000000
  0
LINE
  8
0
 10
162.099976
 20
-175.000000
 11
162.099976
 21
-195.000000
  0
LINE
  8
0
 10
162.099976
 20
-175.000000
 11
282.099976
 21
-175.000000
  0
LINE
  8
0
 10
162.099976
 20
175.500000
 11
282.099976
 21
175.500000
  0
LINE
  8
0
 10
-281.250000
 20
175.500000
 11
-161.250000
 21
175.500000
  0
LINE
  8
0
 10
162.099976
 20
195.500000
 11
162.099976
 21
175.500000
  0
LINE
  8
0
 10
-161.250000
 20
195.500000
 11
-161.250000
 21
175.500000
  0
LINE
  8
0
 10
-271.250000
 20
-185.000000
 11
-89.250000
 21
-185.000000
  0
LINE
  8
0
 10
-271.250000
 20
-177.000000
 11
-89.250000
 21
-177.000000
  0
LINE
  8
0
 10
-271.250000
 20
-161.000000
 11
-271.250000
 21
-185.000000
  0
LINE
  8
0
 10
-221.250000
 20
-161.000000
 11
-221.250000
 21
-185.000000
  0
LINE
  8
0
 10
-199.250000
 20
-161.000000
 11
-199.250000
 21
-185.000000
  0
LINE
  8
0
 10
-177.250000
 20
-161.000000
 11
-177.250000
 21
-185.000000
  0
LINE
  8
0
 10
-155.250000
 20
-161.000000
 11
-155.250000
 21
-185.000000
  0
LINE
  8
0
 10
-133.250000
 20
-161.000000
 11
-133.250000
 21
-185.000000
  0
LINE
  8
0
 10
-111.250000
 20
-161.000000
 11
-111.250000
 21
-185.000000
  0
LINE
  8
0
 10
-271.250000
 20
-161.000000
 11
-89.250000
 21
-161.000000
  0
LINE
  8
0
 10
-271.250000
 20
-161.000031
 11
-221.250015
 21
-177.000031
  0
LINE
  8
0
 10
-89.250000
 20
-161.000000
 11
-89.250000
 21
-185.000000
  0
CIRCLE
  8
0
 10
-15.000015
 20
19.499996
 40
2.250000
  0
CIRCLE
  8
0
 10
-71.000015
 20
47.999996
 40
1.650000
  0
CIRCLE
  8
0
 10
-15.000015
 20
19.499996
 40
4.000000
  0
CIRCLE
  8
0
 10
-71.000015
 20
11.999996
 40
1.650000
  0
CIRCLE
  8
0
 10
-54.000015
 20
19.499996
 40
2.250000
  0
CIRCLE
  8
0
 10
-15.000015
 20
40.499996
 40
2.250000
  0
CIRCLE
  8
0
 10
-54.000015
 20
40.499996
 40
2.250000
  0
ARC
  8
0
 10
69.249985
 20
35.499996
 40
1.750000
 50
90.000000
 51
270.000000
  0
ARC
  8
0
 10
69.249985
 20
24.499996
 40
1.750000
 50
90.000000
 51
270.000000
  0
ARC
  8
0
 10
43.249985
 20
29.999996
 40
1.250000
 50
270.000000
 51
90.000000
  0
ARC
  8
0
 10
41.999985
 20
28.749996
 40
0.500000
 50
0.000000
 51
180.000000
  0
ARC
  8
0
 10
40.749985
 20
29.999996
 40
1.250000
 50
90.000000
 51
270.000000
  0
ARC
  8
0
 10
41.999985
 20
31.249996
 40
0.500000
 50
180.000000
 51
0.000000
  0
ARC
  8
0
 10
-83.254059
 20
26.999996
 40
21.254044
 50
350.521606
 51
359.999939
  0
ARC
  8
0
 10
-83.254059
 20
26.499996
 40
21.254044
 50
359.999939
 51
9.478273
  0
ARC
  8
0
 10
-83.254059
 20
32.999996
 40
21.254044
 50
0.000000
 51
9.478329
  0
ARC
  8
0
 10
-83.254059
 20
33.499996
 40
21.254044
 50
350.521667
 51
0.000000
  0
ARC
  8
0
 10
-45.745972
 20
26.999996
 40
21.254044
 50
180.000092
 51
189.478424
  0
ARC
  8
0
 10
-45.745972
 20
26.499996
 40
21.254040
 50
170.521744
 51
180.000076
  0
ARC
  8
0
 10
-45.745972
 20
32.999996
 40
21.254044
 50
170.521683
 51
180.000015
  0
ARC
  8
0
 10
-45.745972
 20
33.499996
 40
21.254044
 50
180.000031
 51
189.478378
  0
CIRCLE
  8
0
 62
     2
 10
-71.000015
 20
47.999996
 40
2.000000
  0
CIRCLE
  8
0
 62
     2
 10
-71.000015
 20
11.999996
 40
2.000000
  0
CIRCLE
  8
0
 10
-15.000015
 20
40.499996
 40
4.000000
  0
CIRCLE
  8
0
 10
-54.000015
 20
40.499996
 40
4.000000
  0
CIRCLE
  8
0
 10
-54.000015
 20
19.499996
 40
4.000000
  0
CIRCLE
  8
0
 10
-178.000000
 20
16.000015
 40
2.100000
  0
CIRCLE
  8
0
 10
-178.000000
 20
44.000015
 40
2.100000
  0
CIRCLE
  8
0
 62
     2
 10
-178.000000
 20
30.000015
 40
2.500000
  0
CIRCLE
  8
0
 62
     2
 10
-178.000000
 20
44.000015
 40
2.500000
  0
CIRCLE
  8
0
 10
-178.000000
 20
5.500015
 40
4.000000
  0
CIRCLE
  8
0
 62
     1
 10
-176.500000
 20
75.000015
 40
6.000000
  0
CIRCLE
  8
0
 10
-178.000000
 20
54.500015
 40
4.000000
  0
CIRCLE
  8
0
 62
     4
 10
-176.500000
 20
75.000015
 40
7.000000
  0
CIRCLE
  8
0
 10
-178.000000
 20
5.500015
 40
3.500000
  0
CIRCLE
  8
0
 10
-178.000000
 20
54.500015
 40
3.500000
  0
CIRCLE
  8
0
 10
-178.000000
 20
30.000015
 40
3.000000
  0
CIRCLE
  8
0
 10
-178.000000
 20
30.000015
 40
10.000000
  0
ARC
  8
0
 10
-162.500000
 20
-6.499985
 40
0.500000
 50
270.000000
 51
0.000000
  0
ARC
  8
0
 10
-190.500000
 20
-6.499985
 40
0.500000
 50
180.000000
 51
270.000000
  0
CIRCLE
  8
0
 62
     2
 10
-178.000000
 20
16.000015
 40
2.500000
  0
CIRCLE
  8
0
 10
186.999969
 20
49.499966
 40
1.650000
  0
CIRCLE
  8
0
 10
183.999969
 20
40.999966
 40
2.100000
  0
CIRCLE
  8
0
 10
168.999969
 20
49.499966
 40
1.650000
  0
CIRCLE
  8
0
 10
186.999969
 20
10.499966
 40
1.650000
  0
CIRCLE
  8
0
 10
168.999969
 20
10.499966
 40
1.650000
  0
CIRCLE
  8
0
 10
185.999969
 20
18.999966
 40
3.500000
  0
ARC
  8
0
 10
162.649963
 20
24.499966
 40
1.750000
 50
90.000000
 51
270.000000
  0
ARC
  8
0
 10
162.649963
 20
35.499966
 40
1.750000
 50
90.000000
 51
270.000000
  0
CIRCLE
  8
0
 62
     1
 10
176.499969
 20
74.999969
 40
6.000000
  0
CIRCLE
  8
0
 62
     4
 10
176.499969
 20
74.999969
 40
7.000000
  0
CIRCLE
  8
0
 62
     2
 10
186.999969
 20
49.499966
 40
2.000000
  0
CIRCLE
  8
0
 62
     2
 10
168.999969
 20
49.499966
 40
2.000000
  0
CIRCLE
  8
0
 62
     2
 10
186.999969
 20
10.499966
 40
2.000000
  0
CIRCLE
  8
0
 62
     2
 10
168.999969
 20
10.499966
 40
2.000000
  0
CIRCLE
  8
0
 62
     2
 10
183.999969
 20
40.999966
 40
2.500000
  0
CIRCLE
  8
0
 62
     2
 10
171.999969
 20
18.999966
 40
2.500000
  0
CIRCLE
  8
0
 10
169.999969
 20
40.999966
 40
4.000000
  0
CIRCLE
  8
0
 10
185.999969
 20
18.999966
 40
4.000000
  0
CIRCLE
  8
0
 10
169.999969
 20
40.999966
 40
3.500000
  0
CIRCLE
  8
0
 10
171.999969
 20
18.999966
 40
2.100000
  0
CIRCLE
  8
0
 10
66.499969
 20
-91.681038
 40
1.650000
  0
CIRCLE
  8
0
 10
66.499969
 20
-111.681038
 40
1.650000
  0
CIRCLE
  8
0
 10
-54.500031
 20
-91.681038
 40
1.650000
  0
CIRCLE
  8
0
 10
-9.500031
 20
-111.681038
 40
1.650000
  0
CIRCLE
  8
0
 10
-54.500031
 20
-111.681038
 40
1.650000
  0
CIRCLE
  8
0
 10
-9.500031
 20
-91.681038
 40
1.650000
  0
ARC
  8
0
 10
-64.203491
 20
-108.806038
 40
2.796542
 50
167.085892
 51
222.103455
  0
ARC
  8
0
 10
-64.203491
 20
-97.556038
 40
2.796539
 50
137.896317
 51
192.914108
  0
ARC
  8
0
 10
-64.796570
 20
-108.806038
 40
2.796540
 50
317.896545
 51
12.914133
  0
ARC
  8
0
 10
-64.796570
 20
-97.556038
 40
2.796539
 50
347.085876
 51
42.103455
  0
CIRCLE
  8
0
 62
     2
 10
-71.000031
 20
-95.181038
 40
2.000000
  0
CIRCLE
  8
0
 62
     2
 10
-71.000031
 20
-111.181038
 40
2.000000
  0
CIRCLE
  8
0
 62
     2
 10
-54.500031
 20
-91.681038
 40
2.000000
  0
CIRCLE
  8
0
 62
     2
 10
-9.500031
 20
-91.681038
 40
2.000000
  0
CIRCLE
  8
0
 62
     2
 10
-9.500031
 20
-111.681038
 40
2.000000
  0
CIRCLE
  8
0
 62
     2
 10
-54.500031
 20
-111.681038
 40
2.000000
  0
CIRCLE
  8
0
 62
     2
 10
66.499969
 20
-91.681038
 40
2.000000
  0
CIRCLE
  8
0
 62
     2
 10
66.499969
 20
-111.681038
 40
2.000000
  0
CIRCLE
  8
0
 10
-71.000031
 20
-95.181038
 40
1.650000
  0
CIRCLE
  8
0
 10
-71.000031
 20
-111.181038
 40
1.650000
  0
TEXT
  8
0
 10
167.564667
 20
-192.100006
 40
9.000000
  1
KOGANEI CORP.
 50
0.000000
 41
1.052632
 51
0.000000
  7
STANDARD
  0
TEXT
  8
0
 10
196.250259
 20
180.830002
 40
6.300000
  1
Ver. 2.0
 50
0.000000
 41
1.052632
 51
0.000000
  7
STANDARD
  0
TEXT
  8
0
 10
167.564667
 20
-192.100006
 40
9.000000
  1
KOGANEI CORP.
 50
0.000000
 41
1.052632
 51
0.000000
  7
STANDARD
  0
TEXT
  8
0
 10
-262.849731
 20
180.830002
 40
6.300000
  1
AXIS CYLINDER
 50
0.000000
 41
1.052632
 51
0.000000
  7
STANDARD
  0
TEXT
  8
0
 10
-270.049988
 20
155.830002
 40
6.300000
  1
MODEL:XDAQ20*ST(25)-SSL
 50
0.000000
 41
1.052631
 51
0.000000
  7
STANDARD
  0
TEXT
  8
0
 10
-109.642860
 20
-160.050003
 40
4.500000
  1
(mm)
 50
0.000000
 41
1.052632
 51
0.000000
  7
STANDARD
  0
TEXT
  8
0
 10
-215.142853
 20
-172.050003
 40
4.500000
  1
25
 50
0.000000
 41
1.052632
 51
0.000000
  7
STANDARD
  0
TEXT
  8
0
 10
-193.142853
 20
-172.050003
 40
4.500000
  1
50
 50
0.000000
 41
1.052632
 51
0.000000
  7
STANDARD
  0
TEXT
  8
0
 10
-171.142853
 20
-172.050003
 40
4.500000
  1
75
 50
0.000000
 41
1.052632
 51
0.000000
  7
STANDARD
  0
TEXT
  8
0
 10
-151.392853
 20
-172.050003
 40
4.500000
  1
100
 50
0.000000
 41
1.052632
 51
0.000000
  7
STANDARD
  0
TEXT
  8
0
 10
-107.392853
 20
-172.050003
 40
4.500000
  1
150
 50
0.000000
 41
1.052632
 51
0.000000
  7
STANDARD
  0
TEXT
  8
0
 10
-212.892853
 20
-184.050003
 40
4.500000
  1
0
 50
0.000000
 41
1.052632
 51
0.000000
  7
STANDARD
  0
TEXT
  8
0
 10
-193.142853
 20
-184.050003
 40
4.500000
  1
25
 50
0.000000
 41
1.052632
 51
0.000000
  7
STANDARD
  0
TEXT
  8
0
 10
-171.142853
 20
-184.050003
 40
4.500000
  1
50
 50
0.000000
 41
1.052632
 51
0.000000
  7
STANDARD
  0
TEXT
  8
0
 10
-149.142853
 20
-184.050003
 40
4.500000
  1
75
 50
0.000000
 41
1.052632
 51
0.000000
  7
STANDARD
  0
TEXT
  8
0
 10
-107.392853
 20
-184.050003
 40
4.500000
  1
125
 50
0.000000
 41
1.052632
 51
0.000000
  7
STANDARD
  0
TEXT
  8
0
 10
-250.377258
 20
-168.050003
 40
4.500000
  1
STROKE
 50
0.000000
 41
1.052632
 51
0.000000
  7
STANDARD
  0
TEXT
  8
0
 10
-265.408447
 20
-176.050003
 40
4.500000
  1
TYPE
 50
0.000000
 41
1.052632
 51
0.000000
  7
STANDARD
  0
TEXT
  8
0
 10
-264.000000
 20
-182.699997
 40
4.500000
  1
XDAQ20
 50
0.000000
 41
1.052632
 51
0.000000
  7
STANDARD
  0
TEXT
  8
0
 10
-207.642853
 20
-159.050003
 40
4.500000
  1
STRETCH LIST
 50
0.000000
 41
1.052632
 51
0.000000
  7
STANDARD
  0
TEXT
  8
0
 10
-129.392853
 20
-172.050003
 40
4.500000
  1
125
 50
0.000000
 41
1.052632
 51
0.000000
  7
STANDARD
  0
TEXT
  8
0
 10
-129.392853
 20
-184.050003
 40
4.500000
  1
100
 50
0.000000
 41
1.052632
 51
0.000000
  7
STANDARD
  0
TEXT
  8
0
 62
     3
 10
-9.726529
 20
117.147926
 40
6.300000
  1
STRETCH LINE
 50
0.000000
 41
1.052632
 51
0.000000
  7
STANDARD
  0
ENDSEC
  0
EOF
