  0
SECTION
  2
HEADER
  0
ENDSEC
  0
SECTION
  2
TABLES
  0
TABLE
  2
LTYPE
 70
     4
  0
LTYPE
  2
CONTINUOUS
 70
    64
  3
Solid line
 72
    65
 73
     0
 40
0.000000
  0
LTYPE
  2
DASHED
 70
    64
  3
__ __ __ __ __ __ __ __ __ __ __ __ __ __ __
 72
    65
 73
     2
 40
3.500000
 49
2.000000
 49
-1.500000
  0
LTYPE
  2
CENTER
 70
    64
  3
____ _ ____ _ ____ _ ____ _ ____ _ ____ _ ____
 72
    65
 73
     4
 40
17.500000
 49
13.000000
 49
-1.500000
 49
1.500000
 49
-1.500000
  0
LTYPE
  2
PHANTOM
 70
    64
  3
_____ _ _ _____ _ _ _____ _ _ _____ _ _ ____  
 72
    65
 73
     6
 40
15.500000
 49
8.000000
 49
-1.500000
 49
1.500000
 49
-1.500000
 49
1.500000
 49
-1.500000
  0
LTYPE
  2
DASHED1
 70
    64
  3
__ __ __ __ __ __ __ __ __ __ __ __ __ __ __
 72
    65
 73
     2
 40
1.500000
 49
1.000000
 49
-0.500000
  0
LTYPE
  2
DASHED2
 70
    64
  3
__ __ __ __ __ __ __ __ __ __ __ __ __ __ __
 72
    65
 73
     2
 40
3.500000
 49
2.500000
 49
-1.000000
  0
LTYPE
  2
DASHED3
 70
    64
  3
__ __ __ __ __ __ __ __ __ __ __ __ __ __ __
 72
    65
 73
     2
 40
6.000000
 49
4.000000
 49
-2.000000
  0
LTYPE
  2
DASHED4
 70
    64
  3
__ __ __ __ __ __ __ __ __ __ __ __ __ __ __
 72
    65
 73
     2
 40
12.000000
 49
10.000000
 49
-2.000000
  0
LTYPE
  2
DASHED5
 70
    64
  3
__ __ __ __ __ __ __ __ __ __ __ __ __ __ __
 72
    65
 73
     2
 40
17.000000
 49
15.000000
 49
-2.000000
  0
LTYPE
  2
DASHED6
 70
    64
  3
__ __ __ __ __ __ __ __ __ __ __ __ __ __ __
 72
    65
 73
     2
 40
29.000000
 49
27.000000
 49
-2.000000
  0
LTYPE
  2
PHANTOM1
 70
    64
  3
_____ _ _ _____ _ _ _____ _ _ _____ _ _ ____  
 72
    65
 73
     6
 40
31.000000
 49
25.000000
 49
-1.500000
 49
1.000000
 49
-1.000000
 49
1.000000
 49
-1.500000
  0
LTYPE
  2
PHANTOM2
 70
    64
  3
_____ _ _ _____ _ _ _____ _ _ _____ _ _ ____  
 72
    65
 73
     6
 40
36.000000
 49
27.000000
 49
-1.500000
 49
2.500000
 49
-1.000000
 49
2.500000
 49
-1.500000
  0
LTYPE
  2
PHANTOM3
 70
    64
  3
_____ _ _ _____ _ _ _____ _ _ _____ _ _ ____  
 72
    65
 73
     6
 40
78.000000
 49
64.000000
 49
-2.000000
 49
4.000000
 49
-2.000000
 49
4.000000
 49
-2.000000
  0
LTYPE
  2
CENTER1
 70
    64
  3
____ _ ____ _ ____ _ ____ _ ____ _ ____ _ ____
 72
    65
 73
     4
 40
19.000000
 49
14.000000
 49
-1.000000
 49
3.000000
 49
-1.000000
  0
LTYPE
  2
CENTER2
 70
    64
  3
____ _ ____ _ ____ _ ____ _ ____ _ ____ _ ____
 72
    65
 73
     4
 40
28.500000
 49
25.000000
 49
-1.000000
 49
1.500000
 49
-1.000000
  0
LTYPE
  2
CENTER3
 70
    64
  3
____ _ ____ _ ____ _ ____ _ ____ _ ____ _ ____
 72
    65
 73
     4
 40
31.500000
 49
27.000000
 49
-1.000000
 49
2.500000
 49
-1.000000
  0
LTYPE
  2
CENTER4
 70
    64
  3
____ _ ____ _ ____ _ ____ _ ____ _ ____ _ ____
 72
    65
 73
     4
 40
50.000000
 49
45.000000
 49
-1.000000
 49
3.000000
 49
-1.000000
  0
LTYPE
  2
CENTER5
 70
    64
  3
____ _ ____ _ ____ _ ____ _ ____ _ ____ _ ____
 72
    65
 73
     4
 40
100.000000
 49
92.000000
 49
-2.000000
 49
4.000000
 49
-2.000000
  0
LTYPE
  2
SBK1
 70
    64
  3
______ _ _ _ ______ _ _ _ ______ _ _ _ _____  
 72
    65
 73
     8
 40
60.500000
 49
45.000000
 49
-2.000000
 49
2.500000
 49
-2.000000
 49
2.500000
 49
-2.000000
 49
2.500000
 49
-2.000000
  0
LTYPE
  2
SBK2
 70
    64
  3
______ _ _ _ ______ _ _ _ ______ _ _ _ _____  
 72
    65
 73
     8
 40
84.000000
 49
64.000000
 49
-2.000000
 49
4.000000
 49
-2.000000
 49
4.000000
 49
-2.000000
 49
4.000000
 49
-2.000000
  0
LTYPE
  2
STCH
 70
    64
  3
__ __ __ __ __ __ __ __ __ __ __ __ __ __ __
 72
    65
 73
     2
 40
3.000000
 49
1.000000
 49
-2.000000
  0
LTYPE
  2
MTCH
 70
    64
  3
_____ _ _ _____ _ _ _____ _ _ _____ _ _ ____  
 72
    65
 73
     6
 40
80.000000
 49
66.000000
 49
-2.000000
 49
4.000000
 49
-2.000000
 49
4.000000
 49
-2.000000
  0
ENDTAB
  0
TABLE
  2
LAYER
 70
     1
  0
LAYER
  2
0
 70
     0
 62
     7
  6
CONTINUOUS
  0
ENDTAB
  0
TABLE
  2
STYLE
 70
     1
  0
STYLE
  2
STANDARD
 70
     0
 40
0.000000
 41
1.000000
 50
0.000000
 71
     0
 42
0.200000
  3
txt
  4
BIGFONT
  0
ENDTAB
  0
TABLE
  2
VIEW
 70
     0
  0
ENDTAB
  0
ENDSEC
  0
SECTION
  2
BLOCKS
  0
ENDSEC
  0
SECTION
  2
ENTITIES
  0
LINE
  8
0
 10
-103.999939
 20
102.000000
 11
-103.999939
 21
-22.000008
  0
LINE
  8
0
 10
-113.999939
 20
101.000000
 11
-113.999939
 21
-21.000008
  0
LINE
  8
0
 10
-128.999939
 20
101.000000
 11
-128.999939
 21
-21.000008
  0
LINE
  8
0
 10
46.000061
 20
102.000000
 11
76.000061
 21
102.000000
  0
LINE
  8
0
 10
-22.999939
 20
101.799988
 11
46.000061
 21
101.799988
  0
LINE
  8
0
 10
-103.999939
 20
102.000000
 11
-22.999939
 21
102.000000
  0
LINE
  8
0
 10
-128.999939
 20
101.000000
 11
-113.999939
 21
101.000000
  0
LINE
  8
0
 10
-105.999939
 20
50.999992
 11
-105.999939
 21
28.999992
  0
LINE
  8
0
 10
-105.999939
 20
50.999992
 11
-113.999939
 21
50.999992
  0
LINE
  8
0
 10
-105.999939
 20
46.999992
 11
-103.999939
 21
46.999992
  0
LINE
  8
0
 62
     2
 10
-105.999947
 20
46.000103
 11
-104.267899
 21
47.000103
  0
LINE
  8
0
  6
CENTER
 62
     2
 10
-127.223694
 20
70.000000
 11
-115.064270
 21
70.000000
  0
LINE
  8
0
  6
CENTER
 62
     2
 10
-121.499939
 20
77.157906
 11
-121.499939
 21
63.529747
  0
LINE
  8
0
  6
CENTER
 62
     2
 10
-41.499939
 20
69.108521
 11
-41.499939
 21
49.242783
  0
LINE
  8
0
  6
CENTER
 62
     2
 10
-105.989304
 20
58.499992
 11
-85.344437
 21
58.499992
  0
LINE
  8
0
 10
-28.999939
 20
51.999992
 11
-28.999939
 21
27.999992
  0
LINE
  8
0
 10
-28.999939
 20
51.999992
 11
62.000061
 21
51.999992
  0
LINE
  8
0
 10
-26.999939
 20
49.999992
 11
62.000061
 21
49.999992
  0
LINE
  8
0
 10
-26.999939
 20
49.999992
 11
-26.999939
 21
29.999992
  0
LINE
  8
0
 10
-28.999954
 20
51.999950
 11
-26.999958
 21
49.999950
  0
LINE
  8
0
  6
CENTER
 62
     2
 10
-116.594894
 20
82.000000
 11
-101.010330
 21
82.000000
  0
LINE
  8
0
 10
-113.999939
 20
92.000000
 11
-103.999939
 21
92.000000
  0
LINE
  8
0
 10
-113.999939
 20
72.000000
 11
-103.999939
 21
72.000000
  0
LINE
  8
0
 10
-22.999939
 20
41.499992
 11
46.000061
 21
41.499992
  0
LINE
  8
0
 10
-22.999939
 20
43.374992
 11
46.000061
 21
43.374992
  0
LINE
  8
0
 10
-22.999939
 20
47.624992
 11
46.000061
 21
47.624992
  0
LINE
  8
0
  6
CENTER
 62
     2
 10
55.623169
 20
45.499992
 11
62.719681
 21
45.499992
  0
LINE
  8
0
 10
59.250061
 20
47.249992
 11
62.000061
 21
47.249992
  0
LINE
  8
0
 10
59.250061
 20
43.749992
 11
62.000061
 21
43.749992
  0
LINE
  8
0
 10
22.750061
 20
41.249992
 11
23.500061
 21
41.249992
  0
LINE
  8
0
 10
24.500061
 20
41.249992
 11
25.250061
 21
41.249992
  0
LINE
  8
0
  6
CENTER
 62
     2
 10
-142.072037
 20
39.999992
 11
137.425873
 21
39.999992
  0
LINE
  8
0
 10
46.000061
 20
-22.000008
 11
76.000061
 21
-22.000008
  0
LINE
  8
0
 10
-22.999939
 20
-21.800007
 11
46.000061
 21
-21.800007
  0
LINE
  8
0
 10
-103.999939
 20
-22.000008
 11
-22.999939
 21
-22.000008
  0
LINE
  8
0
 10
-128.999939
 20
-21.000008
 11
-113.999939
 21
-21.000008
  0
LINE
  8
0
 10
-105.999939
 20
28.999992
 11
-113.999939
 21
28.999992
  0
LINE
  8
0
 10
-105.999939
 20
32.999992
 11
-103.999939
 21
32.999992
  0
LINE
  8
0
 62
     2
 10
-105.999969
 20
34.000008
 11
-104.267906
 21
33.000004
  0
LINE
  8
0
  6
CENTER
 62
     2
 10
-128.539581
 20
9.999992
 11
-115.386261
 21
9.999992
  0
LINE
  8
0
  6
CENTER
 62
     2
 10
-121.499939
 20
3.640392
 11
-121.499939
 21
16.841808
  0
LINE
  8
0
  6
CENTER
 62
     2
 10
-94.999939
 20
12.281326
 11
-94.999939
 21
31.300331
  0
LINE
  8
0
  6
CENTER
 62
     2
 10
-41.499939
 20
12.101902
 11
-41.499939
 21
30.941483
  0
LINE
  8
0
  6
CENTER
 62
     2
 10
-105.568588
 20
21.499992
 11
-85.716873
 21
21.499992
  0
LINE
  8
0
 10
-28.999939
 20
27.999992
 11
62.000061
 21
27.999992
  0
LINE
  8
0
 10
-26.999939
 20
29.999992
 11
62.000061
 21
29.999992
  0
LINE
  8
0
 10
-28.999960
 20
28.000002
 11
-26.999954
 21
30.000006
  0
LINE
  8
0
  6
CENTER
 62
     2
 10
-116.594894
 20
-2.000008
 11
-101.010330
 21
-2.000008
  0
LINE
  8
0
 10
-113.999939
 20
-12.000008
 11
-103.999939
 21
-12.000008
  0
LINE
  8
0
 10
-113.999939
 20
7.999992
 11
-103.999939
 21
7.999992
  0
LINE
  8
0
 10
-22.999939
 20
38.499992
 11
46.000061
 21
38.499992
  0
LINE
  8
0
 10
-22.999939
 20
36.624992
 11
46.000061
 21
36.624992
  0
LINE
  8
0
 10
-22.999939
 20
32.374992
 11
46.000061
 21
32.374992
  0
LINE
  8
0
  6
CENTER
 62
     2
 10
55.497101
 20
34.499992
 11
62.719681
 21
34.499992
  0
LINE
  8
0
  6
CENTER
 62
     2
 10
59.250061
 20
31.505753
 11
59.250061
 21
48.333328
  0
LINE
  8
0
 10
59.250061
 20
32.749992
 11
62.000061
 21
32.749992
  0
LINE
  8
0
 10
59.250061
 20
36.249992
 11
62.000061
 21
36.249992
  0
LINE
  8
0
 10
22.750061
 20
38.749992
 11
23.500061
 21
38.749992
  0
LINE
  8
0
 10
24.500061
 20
38.749992
 11
25.250061
 21
38.749992
  0
LINE
  8
0
 10
-107.024452
 20
39.999992
 11
-112.975433
 21
39.999992
  0
LINE
  8
0
  6
CENTER
 62
     2
 10
-51.824760
 20
58.499992
 11
-31.619507
 21
58.499992
  0
LINE
  8
0
  6
CENTER
 62
     2
 10
-51.079880
 20
21.499992
 11
-32.337204
 21
21.499992
  0
LINE
  8
0
 62
     4
 10
-22.999939
 20
132.799988
 11
46.000061
 21
132.799988
  0
LINE
  8
0
 62
     4
 10
46.000061
 20
133.000000
 11
62.000061
 21
133.000000
  0
LINE
  8
0
 62
     4
 10
-22.999939
 20
133.000000
 11
-22.999939
 21
102.000000
  0
LINE
  8
0
 62
     4
 10
46.000061
 20
133.000000
 11
46.000061
 21
102.000000
  0
LINE
  8
0
 62
     4
 10
62.000061
 20
133.000000
 11
62.000061
 21
102.000000
  0
LINE
  8
0
  6
CENTER
 62
     1
 10
-63.907883
 20
115.000000
 11
84.940247
 21
115.000000
  0
LINE
  8
0
 62
     4
 10
62.000061
 20
126.000000
 11
78.000061
 21
126.000000
  0
LINE
  8
0
 62
     4
 10
62.000061
 20
104.000000
 11
78.000061
 21
104.000000
  0
LINE
  8
0
 62
     1
 10
62.000061
 20
125.000000
 11
79.000061
 21
125.000000
  0
LINE
  8
0
 62
     1
 10
62.000061
 20
105.000000
 11
79.000061
 21
105.000000
  0
LINE
  8
0
 62
     4
 10
79.000061
 20
125.000000
 11
79.000061
 21
105.000000
  0
LINE
  8
0
 62
     4
 10
77.999916
 20
125.999886
 11
78.999916
 21
124.999886
  0
LINE
  8
0
 62
     4
 10
79.000092
 20
105.000061
 11
78.000084
 21
104.000061
  0
LINE
  8
0
 62
     4
 10
78.000061
 20
104.000000
 11
78.000061
 21
126.000000
  0
LINE
  8
0
  6
CENTER
 62
     2
 10
-94.999939
 20
67.608734
 11
-94.999939
 21
49.507469
  0
LINE
  8
0
 10
111.000061
 20
101.000000
 11
111.000061
 21
-21.000008
  0
LINE
  8
0
 10
126.000061
 20
101.000000
 11
126.000061
 21
-21.000008
  0
LINE
  8
0
 10
126.000061
 20
101.000000
 11
111.000061
 21
101.000000
  0
LINE
  8
0
  6
CENTER
 62
     2
 10
126.129181
 20
70.000000
 11
112.064392
 21
70.000000
  0
LINE
  8
0
  6
CENTER
 62
     2
 10
118.500061
 20
77.943695
 11
118.500061
 21
63.529747
  0
LINE
  8
0
  6
CENTER
 62
     2
 10
113.595016
 20
82.000000
 11
71.145401
 21
82.000000
  0
LINE
  8
0
 10
111.000061
 20
92.000000
 11
76.000061
 21
92.000000
  0
LINE
  8
0
 10
111.000061
 20
72.000000
 11
76.000061
 21
72.000000
  0
LINE
  8
0
 10
126.000061
 20
-21.000008
 11
111.000061
 21
-21.000008
  0
LINE
  8
0
  6
CENTER
 62
     2
 10
127.482544
 20
9.999992
 11
112.386383
 21
9.999992
  0
LINE
  8
0
  6
CENTER
 62
     2
 10
118.500061
 20
3.640392
 11
118.500061
 21
16.841808
  0
LINE
  8
0
  6
CENTER
 62
     2
 10
113.595016
 20
-2.000008
 11
70.442261
 21
-2.000008
  0
LINE
  8
0
 10
111.000061
 20
-12.000008
 11
76.000061
 21
-12.000008
  0
LINE
  8
0
 10
111.000061
 20
7.999992
 11
76.000061
 21
7.999992
  0
LINE
  8
0
  6
CENTER
 62
     2
 10
69.000061
 20
60.999992
 11
69.000061
 21
48.999992
  0
LINE
  8
0
  6
CENTER
 62
     2
 10
69.000061
 20
30.999992
 11
69.000061
 21
18.999992
  0
LINE
  8
0
  6
CENTER
 62
     2
 10
63.000061
 20
54.999992
 11
75.000061
 21
54.999992
  0
LINE
  8
0
  6
CENTER
 62
     2
 10
63.000061
 20
24.999992
 11
75.000061
 21
24.999992
  0
LINE
  8
0
 10
76.000061
 20
-22.000008
 11
76.000061
 21
102.000000
  0
LINE
  8
0
 10
-22.999939
 20
102.000000
 11
-22.999939
 21
-22.000008
  0
LINE
  8
0
 10
46.000061
 20
102.000000
 11
46.000061
 21
-21.800007
  0
LINE
  8
0
 10
62.000061
 20
102.000000
 11
62.000061
 21
-22.000008
  0
LINE
  8
0
 62
     4
 10
-22.999939
 20
133.000000
 11
-38.999939
 21
133.000000
  0
LINE
  8
0
 62
     4
 10
-38.999939
 20
133.000000
 11
-38.999939
 21
102.000000
  0
LINE
  8
0
 62
     4
 10
-54.999939
 20
104.000000
 11
-54.999939
 21
126.000000
  0
LINE
  8
0
 62
     4
 10
-38.999939
 20
126.000000
 11
-54.999939
 21
126.000000
  0
LINE
  8
0
 62
     4
 10
-38.999939
 20
104.000000
 11
-54.999939
 21
104.000000
  0
LINE
  8
0
 62
     1
 10
-38.999939
 20
125.000000
 11
-55.999939
 21
125.000000
  0
LINE
  8
0
 62
     1
 10
-38.999939
 20
105.000000
 11
-55.999939
 21
105.000000
  0
LINE
  8
0
 62
     4
 10
-55.999939
 20
125.000000
 11
-55.999939
 21
105.000000
  0
LINE
  8
0
 62
     4
 10
-54.999790
 20
125.999870
 11
-55.999798
 21
124.999870
  0
LINE
  8
0
 62
     4
 10
-55.999973
 20
105.000061
 11
-54.999973
 21
104.000053
  0
LINE
  8
0
  6
PHANTOM
 62
     3
 10
11.500061
 20
149.688400
 11
11.500061
 21
-41.578598
  0
LINE
  8
0
  6
PHANTOM
 62
     3
 10
93.500061
 20
139.688400
 11
93.500061
 21
-41.578598
  0
LINE
  8
0
  6
CENTER
 62
     2
 10
-250.494598
 20
39.999977
 11
-192.594360
 21
39.999977
  0
LINE
  8
0
 10
-246.999939
 20
101.999985
 11
-197.999939
 21
101.999985
  0
LINE
  8
0
 10
-197.999939
 20
101.999985
 11
-197.999939
 21
-22.000023
  0
LINE
  8
0
 10
-246.999939
 20
101.999985
 11
-246.999939
 21
-22.000023
  0
LINE
  8
0
 10
-245.999939
 20
100.999985
 11
-201.999939
 21
100.999985
  0
LINE
  8
0
  6
CENTER
 62
     2
 10
-223.999939
 20
109.713425
 11
-223.999939
 21
-29.468552
  0
LINE
  8
0
 10
-245.999939
 20
100.999985
 11
-245.999939
 21
-21.000023
  0
LINE
  8
0
 10
-201.999939
 20
100.999985
 11
-201.999939
 21
-21.000023
  0
LINE
  8
0
 10
-217.649155
 20
50.999912
 11
-211.298309
 21
39.999943
  0
LINE
  8
0
 10
-236.701797
 20
40.000065
 11
-230.350937
 21
51.000057
  0
LINE
  8
0
 10
-230.350800
 20
50.999977
 11
-217.649078
 21
50.999977
  0
LINE
  8
0
  6
CENTER
 62
     2
 10
-232.916931
 20
63.999985
 11
-215.999939
 21
63.999985
  0
LINE
  8
0
  6
CENTER
 62
     2
 10
-233.961456
 20
81.999985
 11
-213.539154
 21
81.999985
  0
LINE
  8
0
 10
-220.535965
 20
82.000023
 11
-222.268021
 21
79.000015
  0
LINE
  8
0
 10
-222.267929
 20
84.999893
 11
-220.535904
 21
81.999916
  0
LINE
  8
0
 10
-225.731995
 20
84.999985
 11
-222.267883
 21
84.999985
  0
LINE
  8
0
 10
-227.464188
 20
82.000061
 11
-225.732132
 21
85.000069
  0
LINE
  8
0
 10
-225.732407
 20
78.999748
 11
-227.464462
 21
81.999756
  0
LINE
  8
0
 10
-222.267883
 20
78.999939
 11
-225.731995
 21
78.999939
  0
LINE
  8
0
 10
-195.999939
 20
49.999969
 11
-195.999939
 21
29.999985
  0
LINE
  8
0
 10
-198.000061
 20
51.999893
 11
-196.000031
 21
49.999874
  0
LINE
  8
0
 10
-246.999939
 20
-22.000023
 11
-197.999939
 21
-22.000023
  0
LINE
  8
0
 10
-245.999939
 20
-21.000023
 11
-201.999939
 21
-21.000023
  0
LINE
  8
0
 10
-217.648972
 20
28.999895
 11
-211.298126
 21
39.999889
  0
LINE
  8
0
 10
-236.701599
 20
40.000046
 11
-230.350754
 21
29.000042
  0
LINE
  8
0
 10
-230.350800
 20
28.999977
 11
-217.649078
 21
28.999977
  0
LINE
  8
0
  6
CENTER
 62
     2
 10
-231.971039
 20
15.999977
 11
-215.999939
 21
15.999977
  0
LINE
  8
0
  6
CENTER
 62
     2
 10
-233.961456
 20
-2.000023
 11
-212.364777
 21
-2.000023
  0
LINE
  8
0
 10
-220.535858
 20
-1.999969
 11
-222.267914
 21
1.000040
  0
LINE
  8
0
 10
-222.268524
 20
-4.999691
 11
-220.536484
 21
-1.999709
  0
LINE
  8
0
 10
-225.731995
 20
-5.000023
 11
-222.267883
 21
-5.000023
  0
LINE
  8
0
 10
-227.464020
 20
-1.999981
 11
-225.731964
 21
-4.999989
  0
LINE
  8
0
 10
-225.731964
 20
0.999949
 11
-227.464005
 21
-2.000059
  0
LINE
  8
0
 10
-222.267883
 20
1.000015
 11
-225.731995
 21
1.000015
  0
LINE
  8
0
 10
-198.000076
 20
28.000147
 11
-196.000061
 21
30.000145
  0
LINE
  8
0
 62
     4
 10
-246.999939
 20
132.999985
 11
-197.999939
 21
132.999985
  0
LINE
  8
0
 62
     4
 10
-246.999939
 20
132.999985
 11
-246.999939
 21
101.999985
  0
LINE
  8
0
 62
     4
 10
-197.999939
 20
101.999985
 11
-197.999939
 21
132.999985
  0
LINE
  8
0
  6
CENTER
 62
     1
 10
-237.738159
 20
114.999985
 11
-206.688354
 21
114.999985
  0
LINE
  8
0
  6
CENTER
 62
     1
 10
-222.499939
 20
128.611984
 11
-222.499939
 21
102.705780
  0
LINE
  8
0
 10
192.000214
 20
102.000092
 11
241.000214
 21
102.000092
  0
LINE
  8
0
 10
192.000214
 20
102.000092
 11
192.000214
 21
-21.999916
  0
LINE
  8
0
 10
241.000214
 20
102.000092
 11
241.000214
 21
-21.999916
  0
LINE
  8
0
  6
CENTER
 62
     2
 10
188.290680
 20
40.000084
 11
244.189514
 21
40.000084
  0
LINE
  8
0
  6
CENTER
 62
     2
 10
218.000214
 20
104.785339
 11
218.000214
 21
-24.298744
  0
LINE
  8
0
 10
190.000412
 20
49.799839
 11
192.000412
 21
51.799843
  0
LINE
  8
0
  6
CENTER
 62
     2
 10
187.830597
 20
45.500084
 11
196.650177
 21
45.500084
  0
LINE
  8
0
 10
190.000214
 20
47.250084
 11
192.000214
 21
47.250084
  0
LINE
  8
0
 10
190.000214
 20
43.750084
 11
192.000214
 21
43.750084
  0
LINE
  8
0
 10
192.000214
 20
-21.999916
 11
241.000214
 21
-21.999916
  0
LINE
  8
0
 10
190.000031
 20
30.199888
 11
192.000000
 21
28.199905
  0
LINE
  8
0
  6
CENTER
 62
     2
 10
187.972504
 20
34.500084
 11
197.241791
 21
34.500084
  0
LINE
  8
0
 10
190.000214
 20
32.750084
 11
192.000214
 21
32.750084
  0
LINE
  8
0
 10
190.000214
 20
36.250084
 11
192.000214
 21
36.250084
  0
LINE
  8
0
 62
     4
 10
192.000214
 20
133.000092
 11
241.000214
 21
133.000092
  0
LINE
  8
0
 62
     4
 10
192.000214
 20
133.000092
 11
192.000214
 21
102.000092
  0
LINE
  8
0
 62
     4
 10
241.000214
 20
102.000092
 11
241.000214
 21
133.000092
  0
LINE
  8
0
  6
CENTER
 62
     1
 10
200.884048
 20
115.000092
 11
232.311798
 21
115.000092
  0
LINE
  8
0
  6
CENTER
 62
     1
 10
216.500214
 20
128.612091
 11
216.500214
 21
102.705887
  0
LINE
  8
0
  6
CENTER
 62
     2
 10
226.917206
 20
64.000092
 11
210.000214
 21
64.000092
  0
LINE
  8
0
  6
CENTER
 62
     2
 10
227.961731
 20
82.000092
 11
207.539429
 21
82.000092
  0
LINE
  8
0
 10
214.536087
 20
82.000069
 11
216.268143
 21
79.000061
  0
LINE
  8
0
 10
216.268509
 20
84.999870
 11
214.536484
 21
81.999878
  0
LINE
  8
0
 10
219.732269
 20
85.000092
 11
216.268158
 21
85.000092
  0
LINE
  8
0
 10
221.464279
 20
82.000053
 11
219.732208
 21
85.000061
  0
LINE
  8
0
 10
219.732361
 20
79.000198
 11
221.464417
 21
82.000214
  0
LINE
  8
0
 10
216.268158
 20
79.000046
 11
219.732269
 21
79.000046
  0
LINE
  8
0
  6
CENTER
 62
     2
 10
225.566132
 20
16.000086
 11
210.000214
 21
16.000086
  0
LINE
  8
0
  6
CENTER
 62
     2
 10
227.961731
 20
-1.999916
 11
206.365051
 21
-1.999916
  0
LINE
  8
0
 10
214.536179
 20
-2.000007
 11
216.268234
 21
0.999993
  0
LINE
  8
0
 10
216.268143
 20
-4.999918
 11
214.536072
 21
-1.999911
  0
LINE
  8
0
 10
219.732269
 20
-4.999916
 11
216.268158
 21
-4.999916
  0
LINE
  8
0
 10
221.464325
 20
-1.999908
 11
219.732269
 21
-4.999916
  0
LINE
  8
0
 10
219.732452
 20
1.000157
 11
221.464508
 21
-1.999852
  0
LINE
  8
0
 10
216.268158
 20
1.000122
 11
219.732269
 21
1.000122
  0
LINE
  8
0
 10
240.000214
 20
101.000092
 11
240.000214
 21
-20.999916
  0
LINE
  8
0
 10
240.000214
 20
101.000092
 11
196.000214
 21
101.000092
  0
LINE
  8
0
 10
196.000214
 20
101.000092
 11
196.000214
 21
-20.999916
  0
LINE
  8
0
 10
240.000214
 20
-20.999916
 11
196.000214
 21
-20.999916
  0
LINE
  8
0
 10
190.000381
 20
49.799820
 11
190.000381
 21
30.199545
  0
LINE
  8
0
 10
62.000076
 20
-63.999969
 11
62.000076
 21
-114.999969
  0
LINE
  8
0
 10
46.000076
 20
-63.999969
 11
46.000076
 21
-114.999969
  0
LINE
  8
0
 10
-22.999924
 20
-63.999969
 11
-22.999924
 21
-114.999969
  0
LINE
  8
0
 10
-103.999924
 20
-65.999969
 11
-103.999924
 21
-114.999969
  0
LINE
  8
0
 10
-128.999924
 20
-69.999969
 11
-128.999924
 21
-113.999969
  0
LINE
  8
0
 10
-103.999924
 20
-65.999969
 11
-22.999924
 21
-65.999969
  0
LINE
  8
0
 10
-103.999924
 20
-114.999969
 11
-22.999924
 21
-114.999969
  0
LINE
  8
0
  6
CENTER
 62
     2
 10
-144.127533
 20
-91.999969
 11
139.425888
 21
-91.999969
  0
LINE
  8
0
 10
-128.999924
 20
-113.999969
 11
-113.999924
 21
-113.999969
  0
LINE
  8
0
 10
-128.999924
 20
-69.999969
 11
-113.999924
 21
-69.999969
  0
LINE
  8
0
 10
-113.999924
 20
-69.999969
 11
-113.999924
 21
-113.999969
  0
LINE
  8
0
 10
-106.850761
 20
-79.298187
 11
-106.126839
 21
-81.999908
  0
LINE
  8
0
 10
-106.850792
 20
-104.701653
 11
-106.126869
 21
-101.999931
  0
LINE
  8
0
 10
-106.850784
 20
-79.298264
 11
-113.149078
 21
-79.298264
  0
LINE
  8
0
 10
-113.149162
 20
-79.298264
 11
-113.873077
 21
-81.999954
  0
LINE
  8
0
 10
-106.850784
 20
-104.701691
 11
-113.149078
 21
-104.701691
  0
LINE
  8
0
 10
-113.149376
 20
-104.701820
 11
-113.873299
 21
-102.000099
  0
LINE
  8
0
 10
-113.999924
 20
-101.999969
 11
-103.999924
 21
-101.999969
  0
LINE
  8
0
 10
-113.999924
 20
-81.999969
 11
-103.999924
 21
-81.999969
  0
LINE
  8
0
 10
46.000076
 20
-114.999969
 11
76.000076
 21
-114.999969
  0
LINE
  8
0
 10
46.000076
 20
-65.999969
 11
76.000076
 21
-65.999969
  0
LINE
  8
0
 10
-22.999924
 20
-114.799988
 11
46.000076
 21
-114.799988
  0
LINE
  8
0
 10
-22.999924
 20
-66.199982
 11
46.000076
 21
-66.199982
  0
LINE
  8
0
  6
CENTER
 62
     2
 10
-95.999924
 20
-68.397278
 11
-95.999924
 21
-80.096069
  0
LINE
  8
0
  6
CENTER
 62
     2
 10
-30.999924
 20
-67.878235
 11
-30.999924
 21
-80.096069
  0
LINE
  8
0
  6
CENTER
 62
     2
 10
-102.242798
 20
-106.999969
 11
-90.083328
 21
-106.999969
  0
LINE
  8
0
  6
CENTER
 62
     2
 10
54.000076
 20
-67.618713
 11
54.000076
 21
-80.944550
  0
LINE
  8
0
  6
CENTER
 62
     2
 10
-37.599144
 20
-73.999969
 11
-24.447807
 21
-73.999969
  0
LINE
  8
0
  6
CENTER
 62
     2
 10
-95.999924
 20
-100.459427
 11
-95.999924
 21
-113.186523
  0
LINE
  8
0
  6
CENTER
 62
     2
 10
-38.447617
 20
-106.999969
 11
-24.447807
 21
-106.999969
  0
LINE
  8
0
  6
CENTER
 62
     2
 10
-30.999924
 20
-100.035187
 11
-30.999924
 21
-113.186523
  0
LINE
  8
0
  6
CENTER
 62
     2
 10
47.769257
 20
-73.999969
 11
60.735336
 21
-73.999969
  0
LINE
  8
0
  6
CENTER
 62
     2
 10
47.508194
 20
-106.999969
 11
60.735336
 21
-106.999969
  0
LINE
  8
0
  6
CENTER
 62
     2
 10
54.000076
 20
-99.610962
 11
54.000076
 21
-113.610779
  0
LINE
  8
0
  6
CENTER
 62
     2
 10
-101.874062
 20
-73.999969
 11
-89.829163
 21
-73.999969
  0
LINE
  8
0
  6
CENTER
 62
     2
 10
-121.499924
 20
-72.050110
 11
-121.499924
 21
-83.914200
  0
LINE
  8
0
  6
CENTER
 62
     2
 10
-127.193634
 20
-106.499969
 11
-115.234444
 21
-106.499969
  0
LINE
  8
0
  6
CENTER
 62
     2
 10
-127.316544
 20
-77.499969
 11
-115.234444
 21
-77.499969
  0
LINE
  8
0
  6
CENTER
 62
     2
 10
-121.499924
 20
-100.934082
 11
-121.499924
 21
-112.762299
  0
LINE
  8
0
 10
-22.999924
 20
-64.199982
 11
46.000076
 21
-64.199982
  0
LINE
  8
0
 10
46.000076
 20
-63.999969
 11
62.000076
 21
-63.999969
  0
LINE
  8
0
 10
-26.999924
 20
-63.999969
 11
-22.999924
 21
-63.999969
  0
LINE
  8
0
 10
-28.999794
 20
-66.000107
 11
-26.999794
 21
-64.000099
  0
LINE
  8
0
 10
126.000076
 20
-69.999969
 11
126.000076
 21
-113.999969
  0
LINE
  8
0
 10
126.000076
 20
-113.999969
 11
111.000076
 21
-113.999969
  0
LINE
  8
0
 10
126.000076
 20
-69.999969
 11
111.000076
 21
-69.999969
  0
LINE
  8
0
 10
111.000076
 20
-69.999969
 11
111.000076
 21
-113.999969
  0
LINE
  8
0
 10
111.000076
 20
-101.999969
 11
76.000076
 21
-101.999969
  0
LINE
  8
0
 10
111.000076
 20
-81.999969
 11
76.000076
 21
-81.999969
  0
LINE
  8
0
  6
CENTER
 62
     2
 10
118.500076
 20
-71.427704
 11
118.500076
 21
-83.914200
  0
LINE
  8
0
  6
CENTER
 62
     2
 10
124.695511
 20
-106.499969
 11
112.234604
 21
-106.499969
  0
LINE
  8
0
  6
CENTER
 62
     2
 10
124.695511
 20
-77.499969
 11
112.234604
 21
-77.499969
  0
LINE
  8
0
  6
CENTER
 62
     2
 10
118.500076
 20
-99.610962
 11
118.500076
 21
-112.762299
  0
LINE
  8
0
 10
76.000076
 20
-65.999969
 11
76.000076
 21
-114.999969
  0
LINE
  8
0
 62
     4
 10
76.000076
 20
-79.499969
 11
78.000076
 21
-79.499969
  0
LINE
  8
0
 62
     4
 10
78.000084
 20
-79.499954
 11
79.000092
 21
-80.499977
  0
LINE
  8
0
 62
     4
 10
78.000076
 20
-79.499969
 11
78.000076
 21
-81.999969
  0
LINE
  8
0
 62
     4
 10
79.000076
 20
-80.499985
 11
79.000076
 21
-81.999969
  0
LINE
  8
0
 62
     1
 10
76.000076
 20
-80.499969
 11
79.000076
 21
-80.499969
  0
LINE
  8
0
  6
PHANTOM
 62
     3
 10
11.500076
 20
-42.118664
 11
11.500076
 21
-126.896111
  0
LINE
  8
0
  6
PHANTOM
 62
     3
 10
93.500076
 20
-42.118664
 11
93.500076
 21
-126.896111
  0
LINE
  8
0
 10
-281.250000
 20
195.500000
 11
282.099976
 21
195.500000
  0
LINE
  8
0
 10
-281.250000
 20
195.500000
 11
-281.250000
 21
-195.000000
  0
LINE
  8
0
 10
282.099976
 20
195.500000
 11
282.099976
 21
-195.000000
  0
LINE
  8
0
 10
-281.250000
 20
-195.000000
 11
282.099976
 21
-195.000000
  0
LINE
  8
0
 10
162.099976
 20
-175.000000
 11
162.099976
 21
-195.000000
  0
LINE
  8
0
 10
162.099976
 20
-175.000000
 11
282.099976
 21
-175.000000
  0
LINE
  8
0
 10
162.099976
 20
175.500000
 11
282.099976
 21
175.500000
  0
LINE
  8
0
 10
-281.250000
 20
175.500000
 11
-161.250000
 21
175.500000
  0
LINE
  8
0
 10
162.099976
 20
195.500000
 11
162.099976
 21
175.500000
  0
LINE
  8
0
 10
-161.250000
 20
195.500000
 11
-161.250000
 21
175.500000
  0
LINE
  8
0
 10
-271.250000
 20
-145.000000
 11
-271.250000
 21
-185.000000
  0
LINE
  8
0
 10
-221.250000
 20
-169.000000
 11
-221.250000
 21
-185.000000
  0
LINE
  8
0
 10
-177.250000
 20
-145.000000
 11
-177.250000
 21
-185.000000
  0
LINE
  8
0
 10
-155.250000
 20
-145.000000
 11
-155.250000
 21
-185.000000
  0
LINE
  8
0
 10
-133.250000
 20
-145.000000
 11
-133.250000
 21
-185.000000
  0
LINE
  8
0
 10
-111.250000
 20
-145.000000
 11
-111.250000
 21
-185.000000
  0
LINE
  8
0
 10
-45.250000
 20
-145.000000
 11
-45.250000
 21
-185.000000
  0
LINE
  8
0
 10
-199.250000
 20
-145.000000
 11
-199.250000
 21
-185.000000
  0
LINE
  8
0
 10
-221.250000
 20
-168.999985
 11
-271.250000
 21
-144.999985
  0
LINE
  8
0
 10
-249.250000
 20
-153.000000
 11
-208.487595
 21
-153.000000
  0
LINE
  8
0
 10
-199.250015
 20
-168.999969
 11
-208.487610
 21
-152.999954
  0
LINE
  8
0
 10
-249.250061
 20
-153.000198
 11
-271.250061
 21
-145.000198
  0
LINE
  8
0
 10
-89.250000
 20
-145.000000
 11
-89.250000
 21
-185.000000
  0
LINE
  8
0
 10
-67.250000
 20
-145.000000
 11
-67.250000
 21
-185.000000
  0
LINE
  8
0
 10
-271.250000
 20
-169.000000
 11
64.750000
 21
-169.000000
  0
LINE
  8
0
 10
-271.250000
 20
-145.000000
 11
64.750000
 21
-145.000000
  0
LINE
  8
0
 10
-221.250000
 20
-177.000000
 11
64.750000
 21
-177.000000
  0
LINE
  8
0
 10
-271.250000
 20
-185.000000
 11
64.750000
 21
-185.000000
  0
LINE
  8
0
 10
-1.250000
 20
-145.000000
 11
-1.250000
 21
-185.000000
  0
LINE
  8
0
 10
-23.250000
 20
-145.000000
 11
-23.250000
 21
-185.000000
  0
LINE
  8
0
 10
20.750000
 20
-145.000000
 11
20.750000
 21
-185.000000
  0
LINE
  8
0
 10
42.750000
 20
-145.000000
 11
42.750000
 21
-185.000000
  0
LINE
  8
0
 10
64.750000
 20
-145.000000
 11
64.750000
 21
-185.000000
  0
CIRCLE
  8
0
 10
-121.499939
 20
9.999992
 40
3.375000
  0
CIRCLE
  8
0
 10
118.500061
 20
9.999992
 40
3.375000
  0
CIRCLE
  8
0
 10
-94.999939
 20
21.499992
 40
4.500000
  0
CIRCLE
  8
0
 10
118.500061
 20
70.000000
 40
3.375000
  0
CIRCLE
  8
0
 10
-121.499939
 20
70.000000
 40
3.375000
  0
CIRCLE
  8
0
 62
     2
 10
-121.499939
 20
9.999992
 40
4.000000
  0
ARC
  8
0
 10
59.250061
 20
34.499992
 40
1.750000
 50
89.999878
 51
270.000000
  0
CIRCLE
  8
0
 10
-41.499939
 20
21.499992
 40
7.000000
  0
CIRCLE
  8
0
 10
-41.499939
 20
21.499992
 40
4.500000
  0
CIRCLE
  8
0
 10
-94.999939
 20
21.499992
 40
7.000000
  0
CIRCLE
  8
0
 62
     2
 10
69.000061
 20
24.999992
 40
4.850000
  0
ARC
  8
0
 10
24.000061
 20
38.749992
 40
0.500000
 50
0.000000
 51
180.000000
  0
CIRCLE
  8
0
 10
69.000061
 20
24.999992
 40
4.280000
  0
CIRCLE
  8
0
 62
     2
 10
69.000061
 20
54.999992
 40
4.850000
  0
CIRCLE
  8
0
 10
69.000061
 20
54.999992
 40
4.280000
  0
CIRCLE
  8
0
 62
     2
 10
118.500061
 20
70.000000
 40
4.000000
  0
CIRCLE
  8
0
 62
     2
 10
118.500061
 20
9.999992
 40
4.000000
  0
ARC
  8
0
 10
-121.275360
 20
45.499992
 40
15.275417
 50
338.896393
 51
21.103613
  0
ARC
  8
0
 10
-98.724525
 20
45.499992
 40
15.275421
 50
158.896347
 51
201.103592
  0
CIRCLE
  8
0
 62
     2
 10
-121.499939
 20
70.000000
 40
4.000000
  0
CIRCLE
  8
0
 10
-94.999939
 20
58.499992
 40
4.500000
  0
CIRCLE
  8
0
 10
-41.499939
 20
58.499992
 40
4.500000
  0
CIRCLE
  8
0
 10
-41.499939
 20
58.499992
 40
7.000000
  0
CIRCLE
  8
0
 10
-94.999939
 20
58.499992
 40
7.000000
  0
ARC
  8
0
 10
59.250061
 20
45.499992
 40
1.750000
 50
90.000000
 51
270.000000
  0
ARC
  8
0
 10
25.250061
 20
39.999992
 40
1.250000
 50
270.000000
 51
90.000000
  0
ARC
  8
0
 10
22.750061
 20
39.999992
 40
1.250000
 50
90.000000
 51
270.000000
  0
ARC
  8
0
 10
24.000061
 20
41.249992
 40
0.500000
 50
180.000000
 51
0.000000
  0
ARC
  8
0
 10
-121.275360
 20
34.499992
 40
15.275415
 50
338.896332
 51
21.103561
  0
ARC
  8
0
 10
-98.724525
 20
34.499992
 40
15.275421
 50
158.896347
 51
201.103592
  0
CIRCLE
  8
0
 10
-223.999939
 20
15.999977
 40
4.250000
  0
CIRCLE
  8
0
 10
-223.999939
 20
63.999985
 40
4.250000
  0
CIRCLE
  8
0
 62
     2
 10
-223.999939
 20
39.999977
 40
6.000000
  0
CIRCLE
  8
0
 62
     2
 10
-223.999939
 20
15.999977
 40
5.000000
  0
CIRCLE
  8
0
 62
     4
 10
-222.499939
 20
114.999985
 40
11.000000
  0
CIRCLE
  8
0
 10
-223.999939
 20
-2.000023
 40
7.000000
  0
CIRCLE
  8
0
 62
     1
 10
-222.499939
 20
114.999985
 40
10.000000
  0
CIRCLE
  8
0
 10
-223.999939
 20
-2.000023
 40
6.500000
  0
CIRCLE
  8
0
 10
-223.999939
 20
39.999977
 40
16.000000
  0
CIRCLE
  8
0
 10
-223.999939
 20
39.999977
 40
7.000000
  0
CIRCLE
  8
0
 62
     2
 10
-223.999939
 20
63.999985
 40
5.000000
  0
CIRCLE
  8
0
 10
-223.999939
 20
81.999985
 40
7.000000
  0
CIRCLE
  8
0
 10
-223.999939
 20
81.999985
 40
6.500000
  0
CIRCLE
  8
0
 10
218.000214
 20
64.000092
 40
4.250000
  0
CIRCLE
  8
0
 10
218.000214
 20
16.000086
 40
4.250000
  0
CIRCLE
  8
0
 62
     4
 10
216.500214
 20
115.000092
 40
11.000000
  0
ARC
  8
0
 10
192.650208
 20
34.500084
 40
1.749999
 50
111.803543
 51
248.196457
  0
CIRCLE
  8
0
 62
     1
 10
216.500214
 20
115.000092
 40
10.000000
  0
CIRCLE
  8
0
 10
218.000214
 20
-1.999916
 40
6.500000
  0
CIRCLE
  8
0
 10
218.000214
 20
-1.999916
 40
7.000000
  0
CIRCLE
  8
0
 62
     2
 10
218.000214
 20
64.000092
 40
5.000000
  0
CIRCLE
  8
0
 62
     2
 10
218.000214
 20
16.000086
 40
5.000000
  0
CIRCLE
  8
0
 10
218.000214
 20
82.000092
 40
6.500000
  0
CIRCLE
  8
0
 10
218.000214
 20
82.000092
 40
7.000000
  0
ARC
  8
0
 10
192.650208
 20
45.500084
 40
1.749999
 50
111.803543
 51
248.196457
  0
CIRCLE
  8
0
 10
-121.499924
 20
-77.499969
 40
3.375000
  0
CIRCLE
  8
0
 10
54.000076
 20
-106.999969
 40
3.375000
  0
CIRCLE
  8
0
 10
-121.499924
 20
-106.499969
 40
3.375000
  0
CIRCLE
  8
0
 10
-95.999924
 20
-106.999969
 40
3.375000
  0
CIRCLE
  8
0
 10
-30.999924
 20
-73.999969
 40
3.375000
  0
CIRCLE
  8
0
 10
-95.999924
 20
-73.999969
 40
3.375000
  0
CIRCLE
  8
0
 10
-30.999924
 20
-106.999969
 40
3.375000
  0
CIRCLE
  8
0
 62
     2
 10
54.000076
 20
-106.999969
 40
4.000000
  0
CIRCLE
  8
0
 62
     2
 10
-95.999924
 20
-106.999969
 40
4.000000
  0
CIRCLE
  8
0
 62
     2
 10
54.000076
 20
-73.999969
 40
4.000000
  0
CIRCLE
  8
0
 62
     2
 10
-30.999924
 20
-106.999969
 40
4.000000
  0
CIRCLE
  8
0
 62
     2
 10
-121.499924
 20
-106.499969
 40
4.000000
  0
CIRCLE
  8
0
 62
     2
 10
118.500076
 20
-106.499969
 40
4.000000
  0
CIRCLE
  8
0
 62
     2
 10
118.500076
 20
-77.499969
 40
4.000000
  0
CIRCLE
  8
0
 62
     2
 10
-121.499924
 20
-77.499969
 40
4.000000
  0
CIRCLE
  8
0
 62
     2
 10
-95.999924
 20
-73.999969
 40
4.000000
  0
CIRCLE
  8
0
 62
     2
 10
-30.999924
 20
-73.999969
 40
4.000000
  0
CIRCLE
  8
0
 10
118.500076
 20
-77.499969
 40
3.375000
  0
CIRCLE
  8
0
 10
118.500076
 20
-106.499969
 40
3.375000
  0
CIRCLE
  8
0
 10
54.000076
 20
-73.999969
 40
3.375000
  0
TEXT
  8
0
 10
196.250259
 20
180.830002
 40
6.300000
  1
Ver. 2.0
 50
0.000000
 41
1.052632
 51
0.000000
  7
STANDARD
  0
TEXT
  8
0
 10
167.564667
 20
-192.100006
 40
9.000000
  1
KOGANEI CORP.
 50
0.000000
 41
1.052632
 51
0.000000
  7
STANDARD
  0
TEXT
  8
0
 10
-262.849731
 20
180.830002
 40
6.300000
  1
AXIS CYLINDER
 50
0.000000
 41
1.052632
 51
0.000000
  7
STANDARD
  0
TEXT
  8
0
 10
-270.049988
 20
155.830002
 40
6.300000
  1
MODEL:XDADQ40*ST(25)-SSL
 50
0.000000
 41
1.052632
 51
0.000000
  7
STANDARD
  0
TEXT
  8
0
 62
     3
 10
72.882767
 20
143.320816
 40
6.300000
  1
STRETCH LINE B
 50
0.000000
 41
1.052632
 51
0.000000
  7
STANDARD
  0
TEXT
  8
0
 10
44.357143
 20
-144.050003
 40
4.500000
  1
(mm)
 50
0.000000
 41
1.052632
 51
0.000000
  7
STANDARD
  0
TEXT
  8
0
 10
-193.142853
 20
-160.050003
 40
4.500000
  1
25
 50
0.000000
 41
1.052632
 51
0.000000
  7
STANDARD
  0
TEXT
  8
0
 10
-171.142853
 20
-160.050003
 40
4.500000
  1
50
 50
0.000000
 41
1.052632
 51
0.000000
  7
STANDARD
  0
TEXT
  8
0
 10
-149.142853
 20
-160.050003
 40
4.500000
  1
75
 50
0.000000
 41
1.052632
 51
0.000000
  7
STANDARD
  0
TEXT
  8
0
 10
-129.392853
 20
-160.050003
 40
4.500000
  1
100
 50
0.000000
 41
1.052632
 51
0.000000
  7
STANDARD
  0
TEXT
  8
0
 10
-107.392853
 20
-160.050003
 40
4.500000
  1
125
 50
0.000000
 41
1.052632
 51
0.000000
  7
STANDARD
  0
TEXT
  8
0
 10
-242.761658
 20
-152.050003
 40
4.500000
  1
STROKE
 50
0.000000
 41
1.052632
 51
0.000000
  7
STANDARD
  0
TEXT
  8
0
 10
-265.408447
 20
-168.050003
 40
4.500000
  1
TYPE
 50
0.000000
 41
1.052632
 51
0.000000
  7
STANDARD
  0
TEXT
  8
0
 10
-130.642853
 20
-143.050003
 40
4.500000
  1
STRETCH LIST
 50
0.000000
 41
1.052632
 51
0.000000
  7
STANDARD
  0
TEXT
  8
0
 10
-264.000000
 20
-178.699997
 40
4.500000
  1
XDAD40
 50
0.000000
 41
1.052632
 51
0.000000
  7
STANDARD
  0
TEXT
  8
0
 10
-190.892853
 20
-176.050003
 40
4.500000
  1
0
 50
0.000000
 41
1.052632
 51
0.000000
  7
STANDARD
  0
TEXT
  8
0
 10
-171.142853
 20
-176.050003
 40
4.500000
  1
25
 50
0.000000
 41
1.052632
 51
0.000000
  7
STANDARD
  0
TEXT
  8
0
 10
-149.142853
 20
-176.050003
 40
4.500000
  1
50
 50
0.000000
 41
1.052632
 51
0.000000
  7
STANDARD
  0
TEXT
  8
0
 10
-127.142853
 20
-176.050003
 40
4.500000
  1
75
 50
0.000000
 41
1.052632
 51
0.000000
  7
STANDARD
  0
TEXT
  8
0
 10
-190.892853
 20
-184.050003
 40
4.500000
  1
0
 50
0.000000
 41
1.052632
 51
0.000000
  7
STANDARD
  0
TEXT
  8
0
 10
-171.142853
 20
-184.050003
 40
4.500000
  1
25
 50
0.000000
 41
1.052632
 51
0.000000
  7
STANDARD
  0
TEXT
  8
0
 10
-149.142853
 20
-184.050003
 40
4.500000
  1
50
 50
0.000000
 41
1.052632
 51
0.000000
  7
STANDARD
  0
TEXT
  8
0
 10
-127.142853
 20
-184.050003
 40
4.500000
  1
75
 50
0.000000
 41
1.052632
 51
0.000000
  7
STANDARD
  0
TEXT
  8
0
 10
-19.392857
 20
-184.050003
 40
4.500000
  1
200
 50
0.000000
 41
1.052632
 51
0.000000
  7
STANDARD
  0
TEXT
  8
0
 10
-212.892654
 20
-176.050003
 40
4.500000
  1
A
 50
0.000000
 41
1.052632
 51
0.000000
  7
STANDARD
  0
TEXT
  8
0
 10
-212.892654
 20
-184.050003
 40
4.500000
  1
B
 50
0.000000
 41
1.052632
 51
0.000000
  7
STANDARD
  0
TEXT
  8
0
 10
-241.877258
 20
-157.324997
 40
4.500000
  1
STRETCH
 50
0.000000
 41
1.052632
 51
0.000000
  7
STANDARD
  0
TEXT
  8
0
 10
-241.877258
 20
-164.074997
 40
4.500000
  1
   PLACE
 50
0.000000
 41
1.052632
 51
0.000000
  7
STANDARD
  0
TEXT
  8
0
 10
-107.392853
 20
-176.050003
 40
4.500000
  1
100
 50
0.000000
 41
1.052632
 51
0.000000
  7
STANDARD
  0
TEXT
  8
0
 10
-107.392853
 20
-184.050003
 40
4.500000
  1
100
 50
0.000000
 41
1.052632
 51
0.000000
  7
STANDARD
  0
TEXT
  8
0
 10
-85.392853
 20
-176.050003
 40
4.500000
  1
125
 50
0.000000
 41
1.052632
 51
0.000000
  7
STANDARD
  0
TEXT
  8
0
 10
-85.392853
 20
-184.050003
 40
4.500000
  1
125
 50
0.000000
 41
1.052632
 51
0.000000
  7
STANDARD
  0
TEXT
  8
0
 10
-85.392654
 20
-160.050003
 40
4.500000
  1
150
 50
0.000000
 41
1.052632
 51
0.000000
  7
STANDARD
  0
TEXT
  8
0
 10
-63.392658
 20
-160.050003
 40
4.500000
  1
175
 50
0.000000
 41
1.052632
 51
0.000000
  7
STANDARD
  0
TEXT
  8
0
 10
-63.392857
 20
-184.050003
 40
4.500000
  1
150
 50
0.000000
 41
1.052632
 51
0.000000
  7
STANDARD
  0
TEXT
  8
0
 10
-63.392857
 20
-176.050003
 40
4.500000
  1
150
 50
0.000000
 41
1.052632
 51
0.000000
  7
STANDARD
  0
TEXT
  8
0
 10
-41.392658
 20
-160.050003
 40
4.500000
  1
200
 50
0.000000
 41
1.052632
 51
0.000000
  7
STANDARD
  0
TEXT
  8
0
 10
-41.392857
 20
-184.050003
 40
4.500000
  1
150
 50
0.000000
 41
1.052632
 51
0.000000
  7
STANDARD
  0
TEXT
  8
0
 10
-41.392857
 20
-176.050003
 40
4.500000
  1
150
 50
0.000000
 41
1.052632
 51
0.000000
  7
STANDARD
  0
TEXT
  8
0
 10
-19.392656
 20
-160.050003
 40
4.500000
  1
225
 50
0.000000
 41
1.052632
 51
0.000000
  7
STANDARD
  0
TEXT
  8
0
 10
-19.392857
 20
-176.050003
 40
4.500000
  1
200
 50
0.000000
 41
1.052632
 51
0.000000
  7
STANDARD
  0
TEXT
  8
0
 10
2.607343
 20
-160.050003
 40
4.500000
  1
250
 50
0.000000
 41
1.052632
 51
0.000000
  7
STANDARD
  0
TEXT
  8
0
 10
24.607344
 20
-160.050003
 40
4.500000
  1
275
 50
0.000000
 41
1.052632
 51
0.000000
  7
STANDARD
  0
TEXT
  8
0
 10
46.607342
 20
-160.050003
 40
4.500000
  1
300
 50
0.000000
 41
1.052632
 51
0.000000
  7
STANDARD
  0
TEXT
  8
0
 10
2.607143
 20
-176.050003
 40
4.500000
  1
225
 50
0.000000
 41
1.052632
 51
0.000000
  7
STANDARD
  0
TEXT
  8
0
 10
24.607143
 20
-176.050003
 40
4.500000
  1
250
 50
0.000000
 41
1.052632
 51
0.000000
  7
STANDARD
  0
TEXT
  8
0
 10
46.607143
 20
-176.050003
 40
4.500000
  1
275
 50
0.000000
 41
1.052632
 51
0.000000
  7
STANDARD
  0
TEXT
  8
0
 10
2.607143
 20
-184.050003
 40
4.500000
  1
225
 50
0.000000
 41
1.052632
 51
0.000000
  7
STANDARD
  0
TEXT
  8
0
 10
24.607143
 20
-184.050003
 40
4.500000
  1
250
 50
0.000000
 41
1.052632
 51
0.000000
  7
STANDARD
  0
TEXT
  8
0
 10
46.607143
 20
-184.050003
 40
4.500000
  1
275
 50
0.000000
 41
1.052632
 51
0.000000
  7
STANDARD
  0
TEXT
  8
0
 62
     3
 10
-34.117237
 20
153.320816
 40
6.300000
  1
STRETCH LINE A
 50
0.000000
 41
1.052632
 51
0.000000
  7
STANDARD
  0
ENDSEC
  0
EOF
