  0
SECTION
  2
HEADER
  0
ENDSEC
  0
SECTION
  2
TABLES
  0
TABLE
  2
LTYPE
 70
     4
  0
LTYPE
  2
CONTINUOUS
 70
    64
  3
Solid line
 72
    65
 73
     0
 40
0.000000
  0
LTYPE
  2
DASHED
 70
    64
  3
__ __ __ __ __ __ __ __ __ __ __ __ __ __ __
 72
    65
 73
     2
 40
3.500000
 49
2.000000
 49
-1.500000
  0
LTYPE
  2
CENTER
 70
    64
  3
____ _ ____ _ ____ _ ____ _ ____ _ ____ _ ____
 72
    65
 73
     4
 40
17.500000
 49
13.000000
 49
-1.500000
 49
1.500000
 49
-1.500000
  0
LTYPE
  2
PHANTOM
 70
    64
  3
_____ _ _ _____ _ _ _____ _ _ _____ _ _ ____  
 72
    65
 73
     6
 40
15.500000
 49
8.000000
 49
-1.500000
 49
1.500000
 49
-1.500000
 49
1.500000
 49
-1.500000
  0
LTYPE
  2
DASHED1
 70
    64
  3
__ __ __ __ __ __ __ __ __ __ __ __ __ __ __
 72
    65
 73
     2
 40
1.500000
 49
1.000000
 49
-0.500000
  0
LTYPE
  2
DASHED2
 70
    64
  3
__ __ __ __ __ __ __ __ __ __ __ __ __ __ __
 72
    65
 73
     2
 40
3.500000
 49
2.500000
 49
-1.000000
  0
LTYPE
  2
DASHED3
 70
    64
  3
__ __ __ __ __ __ __ __ __ __ __ __ __ __ __
 72
    65
 73
     2
 40
6.000000
 49
4.000000
 49
-2.000000
  0
LTYPE
  2
DASHED4
 70
    64
  3
__ __ __ __ __ __ __ __ __ __ __ __ __ __ __
 72
    65
 73
     2
 40
12.000000
 49
10.000000
 49
-2.000000
  0
LTYPE
  2
DASHED5
 70
    64
  3
__ __ __ __ __ __ __ __ __ __ __ __ __ __ __
 72
    65
 73
     2
 40
17.000000
 49
15.000000
 49
-2.000000
  0
LTYPE
  2
DASHED6
 70
    64
  3
__ __ __ __ __ __ __ __ __ __ __ __ __ __ __
 72
    65
 73
     2
 40
29.000000
 49
27.000000
 49
-2.000000
  0
LTYPE
  2
PHANTOM1
 70
    64
  3
_____ _ _ _____ _ _ _____ _ _ _____ _ _ ____  
 72
    65
 73
     6
 40
31.000000
 49
25.000000
 49
-1.500000
 49
1.000000
 49
-1.000000
 49
1.000000
 49
-1.500000
  0
LTYPE
  2
PHANTOM2
 70
    64
  3
_____ _ _ _____ _ _ _____ _ _ _____ _ _ ____  
 72
    65
 73
     6
 40
36.000000
 49
27.000000
 49
-1.500000
 49
2.500000
 49
-1.000000
 49
2.500000
 49
-1.500000
  0
LTYPE
  2
PHANTOM3
 70
    64
  3
_____ _ _ _____ _ _ _____ _ _ _____ _ _ ____  
 72
    65
 73
     6
 40
78.000000
 49
64.000000
 49
-2.000000
 49
4.000000
 49
-2.000000
 49
4.000000
 49
-2.000000
  0
LTYPE
  2
CENTER1
 70
    64
  3
____ _ ____ _ ____ _ ____ _ ____ _ ____ _ ____
 72
    65
 73
     4
 40
19.000000
 49
14.000000
 49
-1.000000
 49
3.000000
 49
-1.000000
  0
LTYPE
  2
CENTER2
 70
    64
  3
____ _ ____ _ ____ _ ____ _ ____ _ ____ _ ____
 72
    65
 73
     4
 40
28.500000
 49
25.000000
 49
-1.000000
 49
1.500000
 49
-1.000000
  0
LTYPE
  2
CENTER3
 70
    64
  3
____ _ ____ _ ____ _ ____ _ ____ _ ____ _ ____
 72
    65
 73
     4
 40
31.500000
 49
27.000000
 49
-1.000000
 49
2.500000
 49
-1.000000
  0
LTYPE
  2
CENTER4
 70
    64
  3
____ _ ____ _ ____ _ ____ _ ____ _ ____ _ ____
 72
    65
 73
     4
 40
50.000000
 49
45.000000
 49
-1.000000
 49
3.000000
 49
-1.000000
  0
LTYPE
  2
CENTER5
 70
    64
  3
____ _ ____ _ ____ _ ____ _ ____ _ ____ _ ____
 72
    65
 73
     4
 40
100.000000
 49
92.000000
 49
-2.000000
 49
4.000000
 49
-2.000000
  0
LTYPE
  2
SBK1
 70
    64
  3
______ _ _ _ ______ _ _ _ ______ _ _ _ _____  
 72
    65
 73
     8
 40
60.500000
 49
45.000000
 49
-2.000000
 49
2.500000
 49
-2.000000
 49
2.500000
 49
-2.000000
 49
2.500000
 49
-2.000000
  0
LTYPE
  2
SBK2
 70
    64
  3
______ _ _ _ ______ _ _ _ ______ _ _ _ _____  
 72
    65
 73
     8
 40
84.000000
 49
64.000000
 49
-2.000000
 49
4.000000
 49
-2.000000
 49
4.000000
 49
-2.000000
 49
4.000000
 49
-2.000000
  0
LTYPE
  2
STCH
 70
    64
  3
__ __ __ __ __ __ __ __ __ __ __ __ __ __ __
 72
    65
 73
     2
 40
3.000000
 49
1.000000
 49
-2.000000
  0
LTYPE
  2
MTCH
 70
    64
  3
_____ _ _ _____ _ _ _____ _ _ _____ _ _ ____  
 72
    65
 73
     6
 40
80.000000
 49
66.000000
 49
-2.000000
 49
4.000000
 49
-2.000000
 49
4.000000
 49
-2.000000
  0
ENDTAB
  0
TABLE
  2
LAYER
 70
     1
  0
LAYER
  2
0
 70
     0
 62
     7
  6
CONTINUOUS
  0
ENDTAB
  0
TABLE
  2
STYLE
 70
     1
  0
STYLE
  2
STANDARD
 70
     0
 40
0.000000
 41
1.000000
 50
0.000000
 71
     0
 42
0.200000
  3
txt
  4
BIGFONT
  0
ENDTAB
  0
TABLE
  2
VIEW
 70
     0
  0
ENDTAB
  0
ENDSEC
  0
SECTION
  2
BLOCKS
  0
ENDSEC
  0
SECTION
  2
ENTITIES
  0
LINE
  8
0
  6
CENTER
 62
     2
 10
-94.268677
 20
40.000000
 11
95.842003
 21
40.000000
  0
LINE
  8
0
 10
92.000008
 20
71.000000
 11
92.000008
 21
8.999998
  0
LINE
  8
0
 10
-88.999992
 20
71.000000
 11
-88.999992
 21
8.999998
  0
LINE
  8
0
 10
-74.999992
 20
72.000000
 11
-28.999992
 21
72.000000
  0
LINE
  8
0
 10
-88.999992
 20
71.000000
 11
-80.999992
 21
71.000000
  0
LINE
  8
0
 10
-88.999992
 20
8.999998
 11
-80.999992
 21
8.999998
  0
LINE
  8
0
 10
-74.999992
 20
8.000000
 11
-28.999992
 21
8.000000
  0
LINE
  8
0
 10
-80.999992
 20
71.000000
 11
-80.999992
 21
8.999998
  0
LINE
  8
0
 10
-74.999992
 20
71.996490
 11
-74.999992
 21
8.000000
  0
LINE
  8
0
  6
CENTER
 62
     2
 10
-84.999992
 20
59.428444
 11
-84.999992
 21
52.373024
  0
LINE
  8
0
  6
CENTER
 62
     2
 10
-88.127258
 20
56.000000
 11
-81.667389
 21
56.000000
  0
LINE
  8
0
  6
CENTER
 62
     2
 10
-84.999992
 20
27.696089
 11
-84.999992
 21
20.167532
  0
LINE
  8
0
  6
CENTER
 62
     2
 10
-88.309830
 20
23.999998
 11
-81.876511
 21
23.999998
  0
LINE
  8
0
 10
-80.999992
 20
57.500000
 11
-74.999992
 21
57.500000
  0
LINE
  8
0
 10
-80.999992
 20
65.500000
 11
-74.999992
 21
65.500000
  0
LINE
  8
0
 10
-80.999992
 20
14.499998
 11
-74.999992
 21
14.499998
  0
LINE
  8
0
 10
-80.999992
 20
22.499998
 11
-74.999992
 21
22.499998
  0
LINE
  8
0
  6
CENTER
 62
     2
 10
-82.338760
 20
61.500000
 11
-72.598991
 21
61.500000
  0
LINE
  8
0
  6
CENTER
 62
     2
 10
-82.338760
 20
18.499998
 11
-72.598991
 21
18.499998
  0
LINE
  8
0
  6
CENTER
 62
     2
 10
-39.499992
 20
54.028297
 11
-39.499992
 21
44.458496
  0
LINE
  8
0
  6
CENTER
 62
     2
 10
-69.499992
 20
55.509926
 11
-69.499992
 21
43.798836
  0
LINE
  8
0
  6
CENTER
 62
     2
 10
-73.832115
 20
49.500000
 11
-64.475975
 21
49.500000
  0
LINE
  8
0
  6
CENTER
 62
     2
 10
-74.277649
 20
30.499998
 11
-63.287888
 21
30.499998
  0
LINE
  8
0
  6
CENTER
 62
     2
 10
-69.499992
 20
35.852028
 11
-69.499992
 21
24.977442
  0
LINE
  8
0
  6
CENTER
 62
     2
 10
-39.499992
 20
35.852028
 11
-39.499992
 21
25.186571
  0
LINE
  8
0
 10
-34.999992
 20
52.000000
 11
-34.999992
 21
27.999998
  0
LINE
  8
0
 10
-34.999992
 20
27.999998
 11
43.000008
 21
27.999998
  0
LINE
  8
0
 10
-34.999992
 20
52.000000
 11
43.000008
 21
52.000000
  0
LINE
  8
0
 10
-32.999992
 20
50.000000
 11
43.000008
 21
50.000000
  0
LINE
  8
0
 10
-32.999992
 20
29.999998
 11
43.000008
 21
29.999998
  0
LINE
  8
0
 10
-32.999992
 20
50.000000
 11
-32.999992
 21
29.999998
  0
LINE
  8
0
 10
-35.000000
 20
51.999992
 11
-33.000000
 21
49.999992
  0
LINE
  8
0
 10
-34.999989
 20
27.999996
 11
-32.999992
 21
29.999994
  0
LINE
  8
0
 10
32.000008
 20
72.000000
 11
53.000008
 21
72.000000
  0
LINE
  8
0
 10
32.000008
 20
8.000000
 11
53.000008
 21
8.000000
  0
LINE
  8
0
 10
-28.999992
 20
8.199999
 11
32.000008
 21
8.199999
  0
LINE
  8
0
 10
-28.999992
 20
71.800003
 11
32.000008
 21
71.800003
  0
LINE
  8
0
 10
-28.999992
 20
38.500000
 11
32.000008
 21
38.500000
  0
LINE
  8
0
 10
-28.999992
 20
41.500000
 11
32.000008
 21
41.500000
  0
LINE
  8
0
 10
-28.999992
 20
43.375000
 11
32.000008
 21
43.375000
  0
LINE
  8
0
 10
-28.999992
 20
36.625000
 11
32.000008
 21
36.625000
  0
LINE
  8
0
 10
-28.999992
 20
32.375000
 11
32.000008
 21
32.375000
  0
LINE
  8
0
 10
-28.999992
 20
47.625000
 11
32.000008
 21
47.625000
  0
LINE
  8
0
 10
12.250008
 20
41.250000
 11
13.000008
 21
41.250000
  0
LINE
  8
0
 10
14.000008
 20
41.250000
 11
14.750008
 21
41.250000
  0
LINE
  8
0
 10
12.250008
 20
38.750000
 11
13.000008
 21
38.750000
  0
LINE
  8
0
 10
14.000008
 20
38.750000
 11
14.750008
 21
38.750000
  0
LINE
  8
0
 10
-76.999992
 20
46.000000
 11
-76.999992
 21
34.000000
  0
LINE
  8
0
 10
-78.464096
 20
40.000000
 11
-77.535896
 21
40.000000
  0
LINE
  8
0
 10
40.250008
 20
47.250000
 11
43.000008
 21
47.250000
  0
LINE
  8
0
 10
40.250008
 20
43.750000
 11
43.000008
 21
43.750000
  0
LINE
  8
0
 10
40.250008
 20
36.250000
 11
43.000008
 21
36.250000
  0
LINE
  8
0
 10
40.250008
 20
32.750000
 11
43.000008
 21
32.750000
  0
LINE
  8
0
  6
CENTER
 62
     2
 10
44.111641
 20
48.000000
 11
51.674232
 21
48.000000
  0
LINE
  8
0
  6
CENTER
 62
     2
 10
48.000008
 20
51.160767
 11
48.000008
 21
44.249680
  0
LINE
  8
0
 10
-80.999992
 20
46.000000
 11
-76.999992
 21
46.000000
  0
LINE
  8
0
 10
-80.999992
 20
34.000000
 11
-76.999992
 21
34.000000
  0
LINE
  8
0
 10
-80.464096
 20
40.000000
 11
-77.535896
 21
40.000000
  0
LINE
  8
0
 10
-76.999992
 20
37.500000
 11
-74.999992
 21
37.500000
  0
LINE
  8
0
 10
-76.999992
 20
42.499992
 11
-74.999992
 21
42.499992
  0
LINE
  8
0
  6
CENTER
 62
     2
 10
37.350761
 20
45.500000
 11
45.867104
 21
45.500000
  0
LINE
  8
0
  6
CENTER
 62
     2
 10
36.998131
 20
34.500000
 11
45.867104
 21
34.500000
  0
LINE
  8
0
 62
     4
 10
-28.999992
 20
90.800003
 11
32.000008
 21
90.800003
  0
LINE
  8
0
 62
     4
 10
32.000008
 20
91.000000
 11
43.000008
 21
91.000000
  0
LINE
  8
0
 10
-28.999992
 20
8.000000
 11
-28.999992
 21
72.000000
  0
LINE
  8
0
 62
     4
 10
32.000008
 20
91.000000
 11
32.000008
 21
72.000000
  0
LINE
  8
0
 62
     4
 10
43.000008
 20
91.000000
 11
43.000008
 21
72.000000
  0
LINE
  8
0
  6
CENTER
 62
     1
 10
-49.777592
 20
79.500000
 11
49.011330
 21
79.500000
  0
LINE
  8
0
 62
     1
 10
43.000008
 20
74.500000
 11
44.000008
 21
74.500000
  0
LINE
  8
0
 62
     1
 10
43.000008
 20
84.500000
 11
44.000008
 21
84.500000
  0
LINE
  8
0
 62
     4
 10
44.000008
 20
84.500000
 11
44.000008
 21
74.500000
  0
LINE
  8
0
 62
     4
 10
42.999950
 20
85.499947
 11
43.999950
 21
84.499939
  0
LINE
  8
0
 62
     4
 10
44.000000
 20
74.500015
 11
42.999992
 21
73.500000
  0
LINE
  8
0
 62
     2
 10
-77.000000
 20
42.100010
 11
-76.307182
 21
42.500008
  0
LINE
  8
0
 62
     2
 10
-76.999985
 20
37.899982
 11
-76.307175
 21
37.499985
  0
LINE
  8
0
  6
CENTER
 62
     2
 10
-45.301182
 20
49.500000
 11
-34.974220
 21
49.500000
  0
LINE
  8
0
  6
CENTER
 62
     2
 10
-45.301182
 20
30.499998
 11
-34.806290
 21
30.499998
  0
LINE
  8
0
 10
53.000008
 20
71.800003
 11
53.000008
 21
8.000000
  0
LINE
  8
0
 10
92.000008
 20
71.000000
 11
84.000008
 21
71.000000
  0
LINE
  8
0
 10
92.000008
 20
8.999998
 11
84.000008
 21
8.999998
  0
LINE
  8
0
 10
84.000008
 20
71.000000
 11
84.000008
 21
8.999998
  0
LINE
  8
0
  6
CENTER
 62
     2
 10
88.000008
 20
59.428444
 11
88.000008
 21
52.373024
  0
LINE
  8
0
  6
CENTER
 62
     2
 10
91.127266
 20
56.000000
 11
84.667397
 21
56.000000
  0
LINE
  8
0
  6
CENTER
 62
     2
 10
88.000008
 20
27.696089
 11
88.000008
 21
20.167532
  0
LINE
  8
0
  6
CENTER
 62
     2
 10
90.544502
 20
23.999998
 11
84.876534
 21
23.999998
  0
LINE
  8
0
 10
84.000008
 20
57.500000
 11
53.000008
 21
57.500000
  0
LINE
  8
0
 10
84.000008
 20
65.500000
 11
53.000008
 21
65.500000
  0
LINE
  8
0
 10
84.000008
 20
14.499998
 11
53.000008
 21
14.499998
  0
LINE
  8
0
 10
84.000008
 20
22.499998
 11
53.000008
 21
22.499998
  0
LINE
  8
0
  6
CENTER
 62
     2
 10
85.338783
 20
61.500000
 11
51.843712
 21
61.500000
  0
LINE
  8
0
  6
CENTER
 62
     2
 10
85.338783
 20
18.499998
 11
50.219963
 21
18.499998
  0
LINE
  8
0
  6
CENTER
 62
     2
 10
48.000008
 20
35.160767
 11
48.000008
 21
28.249676
  0
LINE
  8
0
  6
CENTER
 62
     2
 10
44.111641
 20
31.999998
 11
51.674232
 21
31.999998
  0
LINE
  8
0
  6
CENTER
 62
     2
 10
40.250008
 20
48.432060
 11
40.250008
 21
31.769957
  0
LINE
  8
0
 62
     4
 10
-28.999992
 20
72.000000
 11
-28.999992
 21
91.000000
  0
LINE
  8
0
 10
32.000008
 20
72.000000
 11
32.000008
 21
8.000000
  0
LINE
  8
0
 10
43.000008
 20
72.000000
 11
43.000008
 21
8.000000
  0
LINE
  8
0
 62
     4
 10
-28.999992
 20
91.000000
 11
-39.999992
 21
91.000000
  0
LINE
  8
0
 62
     4
 10
-39.999992
 20
91.000000
 11
-39.999992
 21
72.000000
  0
LINE
  8
0
 62
     4
 10
-40.999989
 20
74.500008
 11
-39.999981
 21
73.499992
  0
LINE
  8
0
 62
     1
 10
-39.999992
 20
74.500000
 11
-40.999992
 21
74.500000
  0
LINE
  8
0
 62
     1
 10
-39.999992
 20
84.500000
 11
-40.999992
 21
84.500000
  0
LINE
  8
0
 62
     4
 10
-40.999992
 20
84.500000
 11
-40.999992
 21
74.500000
  0
LINE
  8
0
 62
     4
 10
-39.999950
 20
85.499962
 11
-40.999947
 21
84.499962
  0
LINE
  8
0
  6
PHANTOM
 62
     3
 10
1.500008
 20
-30.280731
 11
1.500008
 21
111.691399
  0
LINE
  8
0
  6
PHANTOM
 62
     3
 10
68.500008
 20
-30.280731
 11
68.500008
 21
101.691399
  0
LINE
  8
0
  6
CENTER
 62
     2
 10
-191.054764
 20
40.000008
 11
-159.645767
 21
40.000008
  0
LINE
  8
0
 10
-188.999954
 20
8.000008
 11
-163.999954
 21
8.000008
  0
LINE
  8
0
 10
-188.999954
 20
72.000008
 11
-163.999954
 21
72.000008
  0
LINE
  8
0
 10
-188.999954
 20
72.000008
 11
-188.999954
 21
8.000008
  0
LINE
  8
0
  6
CENTER
 62
     2
 10
-177.999954
 20
72.000008
 11
-177.999954
 21
6.635509
  0
LINE
  8
0
 10
-167.999954
 20
71.000008
 11
-167.999954
 21
9.000008
  0
LINE
  8
0
 10
-187.999954
 20
71.000008
 11
-187.999954
 21
9.000008
  0
LINE
  8
0
 10
-187.999954
 20
9.000008
 11
-167.999954
 21
9.000008
  0
LINE
  8
0
 10
-187.999954
 20
71.000008
 11
-167.999954
 21
71.000008
  0
LINE
  8
0
 10
-163.999954
 20
72.000008
 11
-163.999954
 21
8.000008
  0
LINE
  8
0
 10
-174.524872
 20
46.018936
 11
-171.049881
 21
40.000057
  0
LINE
  8
0
 10
-171.049988
 20
40.000042
 11
-174.524994
 21
33.981167
  0
LINE
  8
0
 10
-174.524948
 20
33.981045
 11
-181.474960
 21
33.981045
  0
LINE
  8
0
 10
-181.475037
 20
33.981098
 11
-184.950027
 21
39.999977
  0
LINE
  8
0
 10
-184.949951
 20
40.000015
 11
-181.474991
 21
46.018883
  0
LINE
  8
0
 10
-181.474960
 20
46.018883
 11
-174.524948
 21
46.018883
  0
LINE
  8
0
  6
CENTER
 62
     2
 10
-182.111343
 20
27.500008
 11
-173.919479
 21
27.500008
  0
LINE
  8
0
  6
CENTER
 62
     2
 10
-181.762192
 20
52.500008
 11
-173.705521
 21
52.500008
  0
LINE
  8
0
  6
CENTER
 62
     2
 10
-183.760208
 20
18.500008
 11
-172.115341
 21
18.500008
  0
LINE
  8
0
  6
CENTER
 62
     2
 10
-183.974197
 20
61.500008
 11
-172.231735
 21
61.500008
  0
LINE
  8
0
 10
-177.100037
 20
63.058784
 11
-176.200027
 21
61.499939
  0
LINE
  8
0
 10
-176.200027
 20
61.500057
 11
-177.100052
 21
59.941208
  0
LINE
  8
0
 10
-177.099960
 20
59.941162
 11
-178.899948
 21
59.941162
  0
LINE
  8
0
 10
-178.900040
 20
59.941120
 11
-179.800049
 21
61.499981
  0
LINE
  8
0
 10
-179.800079
 20
61.500088
 11
-178.900055
 21
63.058941
  0
LINE
  8
0
 10
-178.899948
 20
63.058853
 11
-177.099960
 21
63.058853
  0
LINE
  8
0
 10
-177.099838
 20
20.058882
 11
-176.199829
 21
18.500044
  0
LINE
  8
0
 10
-176.200195
 20
18.500172
 11
-177.100204
 21
16.941328
  0
LINE
  8
0
 10
-177.099960
 20
16.941162
 11
-178.899948
 21
16.941162
  0
LINE
  8
0
 10
-178.899979
 20
16.941093
 11
-179.799988
 21
18.499937
  0
LINE
  8
0
 10
-179.800049
 20
18.500019
 11
-178.900040
 21
20.058882
  0
LINE
  8
0
 10
-178.899948
 20
20.058853
 11
-177.099960
 21
20.058853
  0
LINE
  8
0
 10
-163.999908
 20
52.000038
 11
-161.999908
 21
50.000038
  0
LINE
  8
0
 10
-161.999954
 20
50.000008
 11
-161.999954
 21
30.000008
  0
LINE
  8
0
 10
-163.999878
 20
27.999985
 11
-161.999893
 21
29.999979
  0
LINE
  8
0
 62
     4
 10
-188.999954
 20
91.000008
 11
-163.999954
 21
91.000008
  0
LINE
  8
0
 62
     4
 10
-188.999954
 20
72.000008
 11
-188.999954
 21
91.000008
  0
LINE
  8
0
 62
     4
 10
-163.999954
 20
91.000008
 11
-163.999954
 21
72.000008
  0
LINE
  8
0
  6
CENTER
 62
     1
 10
-183.679214
 20
79.500008
 11
-169.133041
 21
79.500008
  0
LINE
  8
0
  6
CENTER
 62
     1
 10
-176.499954
 20
86.729874
 11
-176.499954
 21
72.334450
  0
LINE
  8
0
 10
194.000000
 20
71.999985
 11
194.000000
 21
7.999985
  0
LINE
  8
0
 10
169.000000
 20
71.999985
 11
169.000000
 21
7.999985
  0
LINE
  8
0
 10
169.000000
 20
71.999985
 11
194.000000
 21
71.999985
  0
LINE
  8
0
 10
169.000000
 20
7.999985
 11
194.000000
 21
7.999985
  0
LINE
  8
0
  6
CENTER
 62
     2
 10
183.000000
 20
74.443985
 11
183.000000
 21
6.397446
  0
LINE
  8
0
 10
168.999969
 20
51.899998
 11
166.999969
 21
49.899994
  0
LINE
  8
0
 10
167.000000
 20
49.899986
 11
167.000000
 21
30.099985
  0
LINE
  8
0
 10
166.999954
 20
30.099953
 11
168.999969
 21
28.099951
  0
LINE
  8
0
  6
CENTER
 62
     2
 10
165.992981
 20
34.599983
 11
172.535522
 21
34.599983
  0
LINE
  8
0
  6
CENTER
 62
     2
 10
165.846680
 20
45.599983
 11
172.535522
 21
45.599983
  0
LINE
  8
0
 10
167.000000
 20
47.349983
 11
169.000000
 21
47.349983
  0
LINE
  8
0
 10
167.000000
 20
43.849983
 11
169.000000
 21
43.849983
  0
LINE
  8
0
 10
167.000000
 20
36.349983
 11
169.000000
 21
36.349983
  0
LINE
  8
0
 10
167.000000
 20
32.849983
 11
169.000000
 21
32.849983
  0
LINE
  8
0
 62
     4
 10
169.000000
 20
90.999985
 11
194.000000
 21
90.999985
  0
LINE
  8
0
 62
     4
 10
169.000000
 20
71.999985
 11
169.000000
 21
90.999985
  0
LINE
  8
0
 62
     4
 10
194.000000
 20
90.999985
 11
194.000000
 21
71.999985
  0
LINE
  8
0
  6
CENTER
 62
     1
 10
174.320740
 20
79.499985
 11
188.866913
 21
79.499985
  0
LINE
  8
0
  6
CENTER
 62
     1
 10
181.500000
 20
86.729858
 11
181.500000
 21
72.334427
  0
LINE
  8
0
  6
CENTER
 62
     2
 10
187.694809
 20
27.499987
 11
178.687637
 21
27.499987
  0
LINE
  8
0
  6
CENTER
 62
     2
 10
189.293381
 20
18.499987
 11
176.650009
 21
18.499987
  0
LINE
  8
0
 10
182.100037
 20
63.058830
 11
181.200027
 21
61.500004
  0
LINE
  8
0
 10
181.200027
 20
61.500031
 11
182.100037
 21
59.941185
  0
LINE
  8
0
 10
182.100006
 20
59.941139
 11
183.899994
 21
59.941139
  0
LINE
  8
0
 10
183.900040
 20
59.941124
 11
184.800079
 21
61.499985
  0
LINE
  8
0
 10
184.800064
 20
61.499992
 11
183.900055
 21
63.058846
  0
LINE
  8
0
 10
183.899994
 20
63.058830
 11
182.100006
 21
63.058830
  0
LINE
  8
0
 10
182.100082
 20
20.058767
 11
181.200073
 21
18.499924
  0
LINE
  8
0
 10
181.200150
 20
18.500103
 11
182.100159
 21
16.941259
  0
LINE
  8
0
 10
182.100006
 20
16.941141
 11
183.899994
 21
16.941141
  0
LINE
  8
0
 10
183.900131
 20
16.941055
 11
184.800140
 21
18.499899
  0
LINE
  8
0
 10
184.800049
 20
18.499998
 11
183.900040
 21
20.058842
  0
LINE
  8
0
 10
183.899994
 20
20.058832
 11
182.100006
 21
20.058832
  0
LINE
  8
0
 10
193.000000
 20
70.999985
 11
193.000000
 21
8.999987
  0
LINE
  8
0
 10
193.000000
 20
70.999985
 11
173.000000
 21
70.999985
  0
LINE
  8
0
 10
173.000000
 20
70.999985
 11
173.000000
 21
8.999987
  0
LINE
  8
0
 10
193.000000
 20
8.999987
 11
173.000000
 21
8.999987
  0
LINE
  8
0
  6
CENTER
 62
     2
 10
165.640564
 20
39.999985
 11
197.392761
 21
39.999985
  0
LINE
  8
0
  6
CENTER
 62
     2
 10
187.694809
 20
52.499985
 11
178.687637
 21
52.499985
  0
LINE
  8
0
  6
CENTER
 62
     2
 10
189.293381
 20
61.499985
 11
176.650009
 21
61.499985
  0
LINE
  8
0
 10
31.999977
 20
-71.000038
 11
52.999977
 21
-71.000038
  0
LINE
  8
0
 10
-89.000023
 20
-75.000038
 11
-81.000023
 21
-75.000038
  0
LINE
  8
0
  6
CENTER
 62
     2
 10
-92.797501
 20
-85.000038
 11
95.841972
 21
-85.000038
  0
LINE
  8
0
 10
-75.000023
 20
-96.000038
 11
-29.000023
 21
-96.000038
  0
LINE
  8
0
 10
31.999977
 20
-96.000038
 11
52.999977
 21
-96.000038
  0
LINE
  8
0
 10
-29.000023
 20
-95.800041
 11
31.999977
 21
-95.800041
  0
LINE
  8
0
 10
-75.000023
 20
-71.000038
 11
-29.000023
 21
-71.000038
  0
LINE
  8
0
 10
-33.000023
 20
-69.000038
 11
-29.000023
 21
-69.000038
  0
LINE
  8
0
 10
-35.000031
 20
-71.000023
 11
-33.000027
 21
-69.000023
  0
LINE
  8
0
 10
-75.000023
 20
-71.000038
 11
-75.000023
 21
-96.000038
  0
LINE
  8
0
 10
-29.000023
 20
-69.000038
 11
-29.000023
 21
-96.000038
  0
LINE
  8
0
 10
31.999977
 20
-69.000038
 11
31.999977
 21
-96.000038
  0
LINE
  8
0
 10
42.999977
 20
-69.000038
 11
42.999977
 21
-96.000038
  0
LINE
  8
0
 10
91.999977
 20
-95.000038
 11
83.999977
 21
-95.000038
  0
LINE
  8
0
 10
91.999977
 20
-75.000038
 11
83.999977
 21
-75.000038
  0
LINE
  8
0
 10
83.999977
 20
-75.000038
 11
83.999977
 21
-95.000038
  0
LINE
  8
0
 10
91.999977
 20
-75.000038
 11
91.999977
 21
-95.000038
  0
LINE
  8
0
  6
CENTER
 62
     2
 10
34.387077
 20
-92.000038
 11
40.413795
 21
-92.000038
  0
LINE
  8
0
  6
CENTER
 62
     2
 10
34.298454
 20
-75.000038
 11
40.325172
 21
-75.000038
  0
LINE
  8
0
  6
CENTER
 62
     2
 10
37.499977
 20
-72.163368
 11
37.499977
 21
-78.246353
  0
LINE
  8
0
  6
CENTER
 62
     2
 10
-34.500023
 20
-72.000038
 11
-34.500023
 21
-77.992149
  0
LINE
  8
0
  6
CENTER
 62
     2
 10
-69.500023
 20
-71.730240
 11
-69.500023
 21
-78.111473
  0
LINE
  8
0
  6
CENTER
 62
     2
 10
-38.173801
 20
-75.000038
 11
-30.997375
 21
-75.000038
  0
LINE
  8
0
  6
CENTER
 62
     2
 10
-69.500023
 20
-88.773766
 11
-69.500023
 21
-95.053131
  0
LINE
  8
0
  6
CENTER
 62
     2
 10
-34.500023
 20
-88.635750
 11
-34.500023
 21
-95.260147
  0
LINE
  8
0
  6
CENTER
 62
     2
 10
-37.897785
 20
-92.000038
 11
-31.066380
 21
-92.000038
  0
LINE
  8
0
  6
CENTER
 62
     2
 10
37.499977
 20
-88.492012
 11
37.499977
 21
-95.382889
  0
LINE
  8
0
  6
CENTER
 62
     2
 10
87.999977
 20
-76.000038
 11
87.999977
 21
-82.563393
  0
LINE
  8
0
  6
CENTER
 62
     2
 10
87.999977
 20
-87.738701
 11
87.999977
 21
-94.363091
  0
LINE
  8
0
 10
-77.000023
 20
-79.803886
 11
-77.000023
 21
-81.000038
  0
LINE
  8
0
 10
-77.000061
 20
-79.803894
 11
-77.470001
 21
-78.050064
  0
LINE
  8
0
 10
-77.000015
 20
-90.196182
 11
-77.469948
 21
-91.950020
  0
LINE
  8
0
 10
-77.000023
 20
-90.196190
 11
-77.000023
 21
-89.000038
  0
LINE
  8
0
 10
83.999977
 20
-89.000038
 11
52.999977
 21
-89.000038
  0
LINE
  8
0
 10
83.999977
 20
-81.000038
 11
52.999977
 21
-81.000038
  0
LINE
  8
0
 10
-77.000023
 20
-81.000038
 11
-77.000023
 21
-79.803886
  0
LINE
  8
0
 10
-77.000023
 20
-89.000038
 11
-77.000023
 21
-90.196175
  0
LINE
  8
0
 10
-29.000023
 20
-71.200035
 11
31.999977
 21
-71.200035
  0
LINE
  8
0
 10
-29.000023
 20
-69.200035
 11
31.999977
 21
-69.200035
  0
LINE
  8
0
 10
31.999977
 20
-69.000038
 11
42.999977
 21
-69.000038
  0
LINE
  8
0
  6
CENTER
 62
     2
 10
91.552284
 20
-91.000038
 11
84.577339
 21
-91.000038
  0
LINE
  8
0
  6
CENTER
 62
     2
 10
91.286400
 20
-79.000038
 11
84.370323
 21
-79.000038
  0
LINE
  8
0
  6
CENTER
 62
     2
 10
-73.000023
 20
-75.000038
 11
-66.000023
 21
-75.000038
  0
LINE
  8
0
  6
CENTER
 62
     2
 10
-73.000023
 20
-92.000038
 11
-66.000023
 21
-92.000038
  0
LINE
  8
0
 10
-89.000023
 20
-95.000038
 11
-81.000023
 21
-95.000038
  0
LINE
  8
0
 10
-81.000023
 20
-75.000038
 11
-81.000023
 21
-95.000038
  0
LINE
  8
0
 10
-89.000023
 20
-75.000038
 11
-89.000023
 21
-95.000038
  0
LINE
  8
0
  6
CENTER
 62
     2
 10
-85.000023
 20
-76.000038
 11
-85.000023
 21
-82.563393
  0
LINE
  8
0
  6
CENTER
 62
     2
 10
-85.000023
 20
-87.738701
 11
-85.000023
 21
-94.363091
  0
LINE
  8
0
 10
-80.530083
 20
-91.950035
 11
-77.469963
 21
-91.950035
  0
LINE
  8
0
 10
-80.530083
 20
-78.050041
 11
-77.469963
 21
-78.050041
  0
LINE
  8
0
 10
-80.530083
 20
-91.950035
 11
-77.469963
 21
-91.950035
  0
LINE
  8
0
 10
-80.999992
 20
-79.803879
 11
-80.530052
 21
-78.050034
  0
LINE
  8
0
 10
-77.469963
 20
-78.050041
 11
-80.530083
 21
-78.050041
  0
LINE
  8
0
 10
-80.999992
 20
-90.196198
 11
-80.530060
 21
-91.950058
  0
LINE
  8
0
 10
-77.469963
 20
-91.950035
 11
-80.530083
 21
-91.950035
  0
LINE
  8
0
 10
-81.000023
 20
-89.000038
 11
-75.000023
 21
-89.000038
  0
LINE
  8
0
 10
-81.000023
 20
-81.000038
 11
-75.000023
 21
-81.000038
  0
LINE
  8
0
  6
CENTER
 62
     2
 10
-88.015717
 20
-91.000038
 11
-81.761909
 21
-91.000038
  0
LINE
  8
0
  6
CENTER
 62
     2
 10
-88.015717
 20
-79.000038
 11
-81.596298
 21
-79.000038
  0
LINE
  8
0
 10
52.999977
 20
-71.000038
 11
52.999977
 21
-96.000038
  0
LINE
  8
0
  6
PHANTOM
 62
     3
 10
1.499977
 20
-30.297932
 11
1.499977
 21
-106.186981
  0
LINE
  8
0
  6
PHANTOM
 62
     3
 10
68.499977
 20
-30.297932
 11
68.499977
 21
-106.186981
  0
LINE
  8
0
 10
-281.250000
 20
195.500000
 11
282.099976
 21
195.500000
  0
LINE
  8
0
 10
-281.250000
 20
195.500000
 11
-281.250000
 21
-195.000000
  0
LINE
  8
0
 10
282.099976
 20
195.500000
 11
282.099976
 21
-195.000000
  0
LINE
  8
0
 10
-281.250000
 20
-195.000000
 11
282.099976
 21
-195.000000
  0
LINE
  8
0
 10
162.099976
 20
-175.000000
 11
162.099976
 21
-195.000000
  0
LINE
  8
0
 10
162.099976
 20
-175.000000
 11
282.099976
 21
-175.000000
  0
LINE
  8
0
 10
162.099976
 20
175.500000
 11
282.099976
 21
175.500000
  0
LINE
  8
0
 10
-281.250000
 20
175.500000
 11
-161.250000
 21
175.500000
  0
LINE
  8
0
 10
162.099976
 20
195.500000
 11
162.099976
 21
175.500000
  0
LINE
  8
0
 10
-161.250000
 20
195.500000
 11
-161.250000
 21
175.500000
  0
LINE
  8
0
 10
-271.250000
 20
-169.000000
 11
-89.250000
 21
-169.000000
  0
LINE
  8
0
 10
-271.250000
 20
-145.000000
 11
-271.250000
 21
-185.000000
  0
LINE
  8
0
 10
-221.250000
 20
-169.000000
 11
-221.250000
 21
-185.000000
  0
LINE
  8
0
 10
-177.250000
 20
-145.000000
 11
-177.250000
 21
-185.000000
  0
LINE
  8
0
 10
-155.250000
 20
-145.000000
 11
-155.250000
 21
-185.000000
  0
LINE
  8
0
 10
-133.250000
 20
-145.000000
 11
-133.250000
 21
-185.000000
  0
LINE
  8
0
 10
-111.250000
 20
-145.000000
 11
-111.250000
 21
-185.000000
  0
LINE
  8
0
 10
-89.250000
 20
-145.000000
 11
-89.250000
 21
-185.000000
  0
LINE
  8
0
 10
-271.250000
 20
-145.000000
 11
-89.250000
 21
-145.000000
  0
LINE
  8
0
 10
-221.250000
 20
-177.000000
 11
-89.250000
 21
-177.000000
  0
LINE
  8
0
 10
-271.250000
 20
-185.000000
 11
-89.250000
 21
-185.000000
  0
LINE
  8
0
 10
-199.250000
 20
-145.000000
 11
-199.250000
 21
-185.000000
  0
LINE
  8
0
 10
-221.250000
 20
-168.999985
 11
-271.250000
 21
-144.999985
  0
LINE
  8
0
 10
-249.250000
 20
-153.000000
 11
-208.487595
 21
-153.000000
  0
LINE
  8
0
 10
-199.249969
 20
-168.999985
 11
-208.487564
 21
-152.999985
  0
LINE
  8
0
 10
-249.250046
 20
-153.000107
 11
-271.250031
 21
-145.000092
  0
CIRCLE
  8
0
 10
88.000008
 20
23.999998
 40
1.650000
  0
CIRCLE
  8
0
 10
-84.999992
 20
56.000000
 40
1.650000
  0
ARC
  8
0
 10
-85.665031
 20
37.000000
 40
8.665035
 50
339.743774
 51
20.256163
  0
CIRCLE
  8
0
 10
48.000008
 20
48.000000
 40
2.100000
  0
CIRCLE
  8
0
 10
-84.999992
 20
23.999998
 40
1.650000
  0
CIRCLE
  8
0
 10
88.000008
 20
56.000000
 40
1.650000
  0
CIRCLE
  8
0
 10
48.000008
 20
31.999998
 40
2.100000
  0
CIRCLE
  8
0
 10
-39.499992
 20
30.499998
 40
4.000000
  0
CIRCLE
  8
0
 10
-69.499992
 20
49.500000
 40
4.000000
  0
CIRCLE
  8
0
 10
-69.499992
 20
30.499998
 40
4.000000
  0
CIRCLE
  8
0
 10
-39.499992
 20
49.500000
 40
4.000000
  0
CIRCLE
  8
0
 62
     2
 10
48.000008
 20
31.999998
 40
2.500000
  0
CIRCLE
  8
0
 62
     2
 10
88.000008
 20
23.999998
 40
2.000000
  0
CIRCLE
  8
0
 62
     2
 10
88.000008
 20
56.000000
 40
2.000000
  0
ARC
  8
0
 10
40.250008
 20
34.500000
 40
1.749999
 50
88.565804
 51
271.359222
  0
CIRCLE
  8
0
 62
     2
 10
48.000008
 20
48.000000
 40
2.500000
  0
ARC
  8
0
 10
40.250008
 20
45.500000
 40
1.749998
 50
85.733139
 51
270.000000
  0
CIRCLE
  8
0
 62
     2
 10
-84.999992
 20
56.000000
 40
2.000000
  0
CIRCLE
  8
0
 62
     2
 10
-84.999992
 20
23.999998
 40
2.000000
  0
CIRCLE
  8
0
 10
-69.499992
 20
49.500000
 40
2.250000
  0
CIRCLE
  8
0
 10
-39.499992
 20
49.500000
 40
2.250000
  0
CIRCLE
  8
0
 10
-69.499992
 20
30.499998
 40
2.250000
  0
CIRCLE
  8
0
 10
-39.499992
 20
30.499998
 40
2.250000
  0
ARC
  8
0
 10
12.250008
 20
40.000000
 40
1.249999
 50
87.337433
 51
272.663452
  0
ARC
  8
0
 10
13.500008
 20
41.250000
 40
0.500000
 50
180.000000
 51
0.000000
  0
ARC
  8
0
 10
13.500008
 20
38.750000
 40
0.500000
 50
0.000000
 51
180.000000
  0
ARC
  8
0
 10
14.750008
 20
40.000000
 40
1.250000
 50
270.000000
 51
90.000000
  0
ARC
  8
0
 10
-72.334953
 20
43.000000
 40
8.665034
 50
159.743790
 51
200.256210
  0
ARC
  8
0
 10
-85.665031
 20
43.000000
 40
8.665035
 50
339.743774
 51
20.256163
  0
ARC
  8
0
 10
-72.334953
 20
37.000000
 40
8.665037
 50
159.743744
 51
200.256134
  0
CIRCLE
  8
0
 10
-177.999954
 20
61.500008
 40
3.500000
  0
CIRCLE
  8
0
 10
-177.999954
 20
27.500008
 40
2.100000
  0
CIRCLE
  8
0
 62
     2
 10
-177.999954
 20
40.000008
 40
2.100000
  0
CIRCLE
  8
0
 10
-177.999954
 20
18.500008
 40
4.000000
  0
CIRCLE
  8
0
 10
-177.999954
 20
52.500008
 40
2.100000
  0
CIRCLE
  8
0
 62
     4
 10
-176.499954
 20
79.500008
 40
6.000000
  0
CIRCLE
  8
0
 10
-177.999954
 20
18.500008
 40
3.500000
  0
CIRCLE
  8
0
 62
     1
 10
-176.499954
 20
79.500008
 40
5.000000
  0
CIRCLE
  8
0
 10
-177.999954
 20
40.000008
 40
2.500000
  0
CIRCLE
  8
0
 10
-177.999954
 20
40.000008
 40
9.000000
  0
CIRCLE
  8
0
 62
     2
 10
-177.999954
 20
52.500008
 40
2.500000
  0
CIRCLE
  8
0
 62
     2
 10
-177.999954
 20
27.500008
 40
2.500000
  0
CIRCLE
  8
0
 10
-177.999954
 20
61.500008
 40
4.000000
  0
CIRCLE
  8
0
 10
183.000000
 20
18.499987
 40
3.500000
  0
CIRCLE
  8
0
 10
183.000000
 20
52.499985
 40
2.100000
  0
ARC
  8
0
 10
169.649994
 20
45.599983
 40
1.749999
 50
111.803543
 51
248.196457
  0
CIRCLE
  8
0
 62
     2
 10
183.000000
 20
27.499987
 40
2.500000
  0
CIRCLE
  8
0
 10
183.000000
 20
27.499987
 40
2.100000
  0
CIRCLE
  8
0
 62
     1
 10
181.500000
 20
79.499985
 40
5.000000
  0
ARC
  8
0
 10
169.649994
 20
34.599983
 40
1.749999
 50
111.803543
 51
248.196457
  0
CIRCLE
  8
0
 62
     4
 10
181.500000
 20
79.499985
 40
6.000000
  0
CIRCLE
  8
0
 62
     2
 10
183.000000
 20
52.499985
 40
2.500000
  0
CIRCLE
  8
0
 10
183.000000
 20
61.499985
 40
4.000000
  0
CIRCLE
  8
0
 10
183.000000
 20
18.499987
 40
4.000000
  0
CIRCLE
  8
0
 10
183.000000
 20
61.499985
 40
3.500000
  0
CIRCLE
  8
0
 10
87.999977
 20
-79.000038
 40
1.650000
  0
CIRCLE
  8
0
 10
87.999977
 20
-91.000038
 40
1.650000
  0
CIRCLE
  8
0
 10
-69.500023
 20
-92.000038
 40
1.650000
  0
CIRCLE
  8
0
 10
37.499977
 20
-92.000038
 40
1.650000
  0
CIRCLE
  8
0
 10
37.499977
 20
-75.000038
 40
1.650000
  0
CIRCLE
  8
0
 10
-34.500023
 20
-75.000038
 40
1.650000
  0
CIRCLE
  8
0
 10
-34.500023
 20
-92.000038
 40
1.650000
  0
CIRCLE
  8
0
 62
     2
 10
87.999977
 20
-91.000038
 40
2.000000
  0
ARC
  8
0
 10
-80.467056
 20
-90.207085
 40
3.467056
 50
0.000000
 51
20.374065
  0
CIRCLE
  8
0
 62
     2
 10
87.999977
 20
-79.000038
 40
2.000000
  0
ARC
  8
0
 10
-77.532982
 20
-79.792992
 40
3.467056
 50
180.000000
 51
200.374069
  0
CIRCLE
  8
0
 62
     2
 10
-85.000023
 20
-91.000038
 40
2.000000
  0
CIRCLE
  8
0
 62
     2
 10
-85.000023
 20
-79.000038
 40
2.000000
  0
ARC
  8
0
 10
-77.532982
 20
-90.207085
 40
3.467052
 50
159.625931
 51
180.000000
  0
CIRCLE
  8
0
 62
     2
 10
37.499977
 20
-75.000038
 40
2.000000
  0
CIRCLE
  8
0
 62
     2
 10
37.499977
 20
-92.000038
 40
2.000000
  0
CIRCLE
  8
0
 62
     2
 10
-34.500023
 20
-75.000038
 40
2.000000
  0
CIRCLE
  8
0
 62
     2
 10
-69.500023
 20
-75.000038
 40
2.000000
  0
CIRCLE
  8
0
 62
     2
 10
-69.500023
 20
-92.000038
 40
2.000000
  0
CIRCLE
  8
0
 62
     2
 10
-34.500023
 20
-92.000038
 40
2.000000
  0
ARC
  8
0
 10
-80.467056
 20
-79.792992
 40
3.467055
 50
339.625824
 51
0.000000
  0
CIRCLE
  8
0
 10
-85.000023
 20
-79.000038
 40
1.650000
  0
CIRCLE
  8
0
 10
-85.000023
 20
-91.000038
 40
1.650000
  0
CIRCLE
  8
0
 10
-69.500023
 20
-75.000038
 40
1.650000
  0
TEXT
  8
0
 10
196.250259
 20
180.830002
 40
6.300000
  1
Ver. 2.0
 50
0.000000
 41
1.052632
 51
0.000000
  7
STANDARD
  0
TEXT
  8
0
 10
167.564667
 20
-192.100006
 40
9.000000
  1
KOGANEI CORP.
 50
0.000000
 41
1.052632
 51
0.000000
  7
STANDARD
  0
TEXT
  8
0
 10
-262.849731
 20
180.830002
 40
6.300000
  1
AXIS CYLINDER
 50
0.000000
 41
1.052632
 51
0.000000
  7
STANDARD
  0
TEXT
  8
0
 10
-270.049988
 20
155.830002
 40
6.300000
  1
MODEL:XDADQ16*ST(25)-SSL
 50
0.000000
 41
1.052632
 51
0.000000
  7
STANDARD
  0
TEXT
  8
0
 62
     3
 10
48.787762
 20
104.179527
 40
6.300000
  1
STRETCH LINE B
 50
0.000000
 41
1.052632
 51
0.000000
  7
STANDARD
  0
TEXT
  8
0
 10
-109.642860
 20
-144.050003
 40
4.500000
  1
(mm)
 50
0.000000
 41
1.052632
 51
0.000000
  7
STANDARD
  0
TEXT
  8
0
 10
-193.142853
 20
-160.050003
 40
4.500000
  1
25
 50
0.000000
 41
1.052632
 51
0.000000
  7
STANDARD
  0
TEXT
  8
0
 10
-171.142853
 20
-160.050003
 40
4.500000
  1
50
 50
0.000000
 41
1.052632
 51
0.000000
  7
STANDARD
  0
TEXT
  8
0
 10
-149.142853
 20
-160.050003
 40
4.500000
  1
75
 50
0.000000
 41
1.052632
 51
0.000000
  7
STANDARD
  0
TEXT
  8
0
 10
-129.392853
 20
-160.050003
 40
4.500000
  1
100
 50
0.000000
 41
1.052632
 51
0.000000
  7
STANDARD
  0
TEXT
  8
0
 10
-107.392853
 20
-160.050003
 40
4.500000
  1
125
 50
0.000000
 41
1.052632
 51
0.000000
  7
STANDARD
  0
TEXT
  8
0
 10
-242.761658
 20
-152.050003
 40
4.500000
  1
STROKE
 50
0.000000
 41
1.052632
 51
0.000000
  7
STANDARD
  0
TEXT
  8
0
 10
-265.408447
 20
-168.050003
 40
4.500000
  1
TYPE
 50
0.000000
 41
1.052632
 51
0.000000
  7
STANDARD
  0
TEXT
  8
0
 10
-196.642853
 20
-143.050003
 40
4.500000
  1
STRETCH LIST
 50
0.000000
 41
1.052632
 51
0.000000
  7
STANDARD
  0
TEXT
  8
0
 10
-264.000000
 20
-178.699997
 40
4.500000
  1
XDADQ16
 50
0.000000
 41
1.052632
 51
0.000000
  7
STANDARD
  0
TEXT
  8
0
 10
-190.892853
 20
-176.050003
 40
4.500000
  1
0
 50
0.000000
 41
1.052632
 51
0.000000
  7
STANDARD
  0
TEXT
  8
0
 10
-171.142853
 20
-176.050003
 40
4.500000
  1
25
 50
0.000000
 41
1.052632
 51
0.000000
  7
STANDARD
  0
TEXT
  8
0
 10
-149.142853
 20
-176.050003
 40
4.500000
  1
50
 50
0.000000
 41
1.052632
 51
0.000000
  7
STANDARD
  0
TEXT
  8
0
 10
-127.142853
 20
-176.050003
 40
4.500000
  1
75
 50
0.000000
 41
1.052632
 51
0.000000
  7
STANDARD
  0
TEXT
  8
0
 10
-107.392853
 20
-176.050003
 40
4.500000
  1
100
 50
0.000000
 41
1.052632
 51
0.000000
  7
STANDARD
  0
TEXT
  8
0
 10
-190.892853
 20
-184.050003
 40
4.500000
  1
0
 50
0.000000
 41
1.052632
 51
0.000000
  7
STANDARD
  0
TEXT
  8
0
 10
-171.142853
 20
-184.050003
 40
4.500000
  1
25
 50
0.000000
 41
1.052632
 51
0.000000
  7
STANDARD
  0
TEXT
  8
0
 10
-149.142853
 20
-184.050003
 40
4.500000
  1
50
 50
0.000000
 41
1.052632
 51
0.000000
  7
STANDARD
  0
TEXT
  8
0
 10
-127.142853
 20
-184.050003
 40
4.500000
  1
75
 50
0.000000
 41
1.052632
 51
0.000000
  7
STANDARD
  0
TEXT
  8
0
 10
-107.392853
 20
-184.050003
 40
4.500000
  1
100
 50
0.000000
 41
1.052632
 51
0.000000
  7
STANDARD
  0
TEXT
  8
0
 10
-212.892654
 20
-176.050003
 40
4.500000
  1
A
 50
0.000000
 41
1.052632
 51
0.000000
  7
STANDARD
  0
TEXT
  8
0
 10
-212.892654
 20
-184.050003
 40
4.500000
  1
B
 50
0.000000
 41
1.052632
 51
0.000000
  7
STANDARD
  0
TEXT
  8
0
 10
-241.877258
 20
-157.324997
 40
4.500000
  1
STRETCH
 50
0.000000
 41
1.052632
 51
0.000000
  7
STANDARD
  0
TEXT
  8
0
 10
-241.877258
 20
-164.074997
 40
4.500000
  1
   PLACE
 50
0.000000
 41
1.052632
 51
0.000000
  7
STANDARD
  0
TEXT
  8
0
 62
     3
 10
-43.212242
 20
114.179527
 40
6.300000
  1
STRETCH LINE A
 50
0.000000
 41
1.052632
 51
0.000000
  7
STANDARD
  0
ENDSEC
  0
EOF
