  0
SECTION
  2
HEADER
  0
ENDSEC
  0
SECTION
  2
TABLES
  0
TABLE
  2
LTYPE
 70
     4
  0
LTYPE
  2
CONTINUOUS
 70
    64
  3
Solid line
 72
    65
 73
     0
 40
0.000000
  0
LTYPE
  2
DASHED
 70
    64
  3
__ __ __ __ __ __ __ __ __ __ __ __ __ __ __
 72
    65
 73
     2
 40
3.500000
 49
2.000000
 49
-1.500000
  0
LTYPE
  2
CENTER
 70
    64
  3
____ _ ____ _ ____ _ ____ _ ____ _ ____ _ ____
 72
    65
 73
     4
 40
17.500000
 49
13.000000
 49
-1.500000
 49
1.500000
 49
-1.500000
  0
LTYPE
  2
PHANTOM
 70
    64
  3
_____ _ _ _____ _ _ _____ _ _ _____ _ _ ____  
 72
    65
 73
     6
 40
15.500000
 49
8.000000
 49
-1.500000
 49
1.500000
 49
-1.500000
 49
1.500000
 49
-1.500000
  0
LTYPE
  2
DASHED1
 70
    64
  3
__ __ __ __ __ __ __ __ __ __ __ __ __ __ __
 72
    65
 73
     2
 40
1.500000
 49
1.000000
 49
-0.500000
  0
LTYPE
  2
DASHED2
 70
    64
  3
__ __ __ __ __ __ __ __ __ __ __ __ __ __ __
 72
    65
 73
     2
 40
3.500000
 49
2.500000
 49
-1.000000
  0
LTYPE
  2
DASHED3
 70
    64
  3
__ __ __ __ __ __ __ __ __ __ __ __ __ __ __
 72
    65
 73
     2
 40
6.000000
 49
4.000000
 49
-2.000000
  0
LTYPE
  2
DASHED4
 70
    64
  3
__ __ __ __ __ __ __ __ __ __ __ __ __ __ __
 72
    65
 73
     2
 40
12.000000
 49
10.000000
 49
-2.000000
  0
LTYPE
  2
DASHED5
 70
    64
  3
__ __ __ __ __ __ __ __ __ __ __ __ __ __ __
 72
    65
 73
     2
 40
17.000000
 49
15.000000
 49
-2.000000
  0
LTYPE
  2
DASHED6
 70
    64
  3
__ __ __ __ __ __ __ __ __ __ __ __ __ __ __
 72
    65
 73
     2
 40
29.000000
 49
27.000000
 49
-2.000000
  0
LTYPE
  2
PHANTOM1
 70
    64
  3
_____ _ _ _____ _ _ _____ _ _ _____ _ _ ____  
 72
    65
 73
     6
 40
31.000000
 49
25.000000
 49
-1.500000
 49
1.000000
 49
-1.000000
 49
1.000000
 49
-1.500000
  0
LTYPE
  2
PHANTOM2
 70
    64
  3
_____ _ _ _____ _ _ _____ _ _ _____ _ _ ____  
 72
    65
 73
     6
 40
36.000000
 49
27.000000
 49
-1.500000
 49
2.500000
 49
-1.000000
 49
2.500000
 49
-1.500000
  0
LTYPE
  2
PHANTOM3
 70
    64
  3
_____ _ _ _____ _ _ _____ _ _ _____ _ _ ____  
 72
    65
 73
     6
 40
78.000000
 49
64.000000
 49
-2.000000
 49
4.000000
 49
-2.000000
 49
4.000000
 49
-2.000000
  0
LTYPE
  2
CENTER1
 70
    64
  3
____ _ ____ _ ____ _ ____ _ ____ _ ____ _ ____
 72
    65
 73
     4
 40
19.000000
 49
14.000000
 49
-1.000000
 49
3.000000
 49
-1.000000
  0
LTYPE
  2
CENTER2
 70
    64
  3
____ _ ____ _ ____ _ ____ _ ____ _ ____ _ ____
 72
    65
 73
     4
 40
28.500000
 49
25.000000
 49
-1.000000
 49
1.500000
 49
-1.000000
  0
LTYPE
  2
CENTER3
 70
    64
  3
____ _ ____ _ ____ _ ____ _ ____ _ ____ _ ____
 72
    65
 73
     4
 40
31.500000
 49
27.000000
 49
-1.000000
 49
2.500000
 49
-1.000000
  0
LTYPE
  2
CENTER4
 70
    64
  3
____ _ ____ _ ____ _ ____ _ ____ _ ____ _ ____
 72
    65
 73
     4
 40
50.000000
 49
45.000000
 49
-1.000000
 49
3.000000
 49
-1.000000
  0
LTYPE
  2
CENTER5
 70
    64
  3
____ _ ____ _ ____ _ ____ _ ____ _ ____ _ ____
 72
    65
 73
     4
 40
100.000000
 49
92.000000
 49
-2.000000
 49
4.000000
 49
-2.000000
  0
LTYPE
  2
SBK1
 70
    64
  3
______ _ _ _ ______ _ _ _ ______ _ _ _ _____  
 72
    65
 73
     8
 40
60.500000
 49
45.000000
 49
-2.000000
 49
2.500000
 49
-2.000000
 49
2.500000
 49
-2.000000
 49
2.500000
 49
-2.000000
  0
LTYPE
  2
SBK2
 70
    64
  3
______ _ _ _ ______ _ _ _ ______ _ _ _ _____  
 72
    65
 73
     8
 40
84.000000
 49
64.000000
 49
-2.000000
 49
4.000000
 49
-2.000000
 49
4.000000
 49
-2.000000
 49
4.000000
 49
-2.000000
  0
LTYPE
  2
STCH
 70
    64
  3
__ __ __ __ __ __ __ __ __ __ __ __ __ __ __
 72
    65
 73
     2
 40
3.000000
 49
1.000000
 49
-2.000000
  0
LTYPE
  2
MTCH
 70
    64
  3
_____ _ _ _____ _ _ _____ _ _ _____ _ _ ____  
 72
    65
 73
     6
 40
80.000000
 49
66.000000
 49
-2.000000
 49
4.000000
 49
-2.000000
 49
4.000000
 49
-2.000000
  0
ENDTAB
  0
TABLE
  2
LAYER
 70
     1
  0
LAYER
  2
0
 70
     0
 62
     7
  6
CONTINUOUS
  0
ENDTAB
  0
TABLE
  2
STYLE
 70
     1
  0
STYLE
  2
STANDARD
 70
     0
 40
0.000000
 41
1.000000
 50
0.000000
 71
     0
 42
0.200000
  3
txt
  4
BIGFONT
  0
ENDTAB
  0
TABLE
  2
VIEW
 70
     0
  0
ENDTAB
  0
ENDSEC
  0
SECTION
  2
BLOCKS
  0
ENDSEC
  0
SECTION
  2
ENTITIES
  0
LINE
  8
0
 10
-98.999947
 20
104.000000
 11
-98.999947
 21
-18.000011
  0
LINE
  8
0
 10
-113.999947
 20
104.000000
 11
-113.999947
 21
-18.000011
  0
LINE
  8
0
 10
23.000053
 20
105.000000
 11
53.000053
 21
105.000000
  0
LINE
  8
0
 10
-45.999947
 20
104.799988
 11
23.000053
 21
104.799988
  0
LINE
  8
0
 10
-88.999947
 20
105.000000
 11
-45.999947
 21
105.000000
  0
LINE
  8
0
 10
-113.999947
 20
104.000000
 11
-98.999947
 21
104.000000
  0
LINE
  8
0
 10
-90.999947
 20
53.999985
 11
-98.999947
 21
53.999985
  0
LINE
  8
0
 10
-90.999947
 20
49.999985
 11
-88.999947
 21
49.999985
  0
LINE
  8
0
 62
     2
 10
-90.999954
 20
49.000080
 11
-89.267914
 21
50.000080
  0
LINE
  8
0
  6
CENTER
 62
     2
 10
-113.629066
 20
72.999992
 11
-99.694603
 21
72.999992
  0
LINE
  8
0
  6
CENTER
 62
     2
 10
-79.999954
 20
71.999985
 11
-79.999954
 21
51.618591
  0
LINE
  8
0
  6
CENTER
 62
     2
 10
-64.499954
 20
72.108513
 11
-64.499954
 21
51.618591
  0
LINE
  8
0
  6
CENTER
 62
     2
 10
-90.989311
 20
61.499985
 11
-53.945007
 21
61.499985
  0
LINE
  8
0
 10
-51.999950
 20
54.999985
 11
39.000053
 21
54.999985
  0
LINE
  8
0
 10
-49.999950
 20
52.999985
 11
39.000053
 21
52.999985
  0
LINE
  8
0
 10
-49.999950
 20
52.999985
 11
-49.999950
 21
32.999985
  0
LINE
  8
0
 10
-51.999962
 20
54.999977
 11
-49.999966
 21
52.999981
  0
LINE
  8
0
  6
CENTER
 62
     2
 10
-101.594902
 20
84.999992
 11
-86.010338
 21
84.999992
  0
LINE
  8
0
 10
-98.999947
 20
94.999992
 11
-88.999947
 21
94.999992
  0
LINE
  8
0
 10
-98.999947
 20
74.999992
 11
-88.999947
 21
74.999992
  0
LINE
  8
0
 10
-45.999947
 20
44.499985
 11
23.000053
 21
44.499985
  0
LINE
  8
0
 10
-45.999947
 20
46.374985
 11
23.000053
 21
46.374985
  0
LINE
  8
0
 10
-45.999947
 20
50.624985
 11
23.000053
 21
50.624985
  0
LINE
  8
0
  6
CENTER
 62
     2
 10
32.747841
 20
48.499985
 11
39.719673
 21
48.499985
  0
LINE
  8
0
 10
36.250053
 20
50.249985
 11
39.000053
 21
50.249985
  0
LINE
  8
0
 10
36.250053
 20
46.749985
 11
39.000053
 21
46.749985
  0
LINE
  8
0
 10
9.750053
 20
44.249985
 11
10.500053
 21
44.249985
  0
LINE
  8
0
 10
11.500053
 20
44.249985
 11
12.250053
 21
44.249985
  0
LINE
  8
0
  6
CENTER
 62
     2
 10
-125.004295
 20
42.999985
 11
116.327110
 21
42.999985
  0
LINE
  8
0
 10
23.000053
 20
-19.000015
 11
53.000053
 21
-19.000015
  0
LINE
  8
0
 10
-45.999947
 20
-18.800014
 11
23.000053
 21
-18.800014
  0
LINE
  8
0
 10
-88.999947
 20
-19.000015
 11
-45.999947
 21
-19.000015
  0
LINE
  8
0
 10
-113.999947
 20
-18.000011
 11
-98.999947
 21
-18.000011
  0
LINE
  8
0
 10
-90.999947
 20
31.999987
 11
-90.999947
 21
53.999985
  0
LINE
  8
0
 10
-90.999947
 20
31.999987
 11
-98.999947
 21
31.999987
  0
LINE
  8
0
 10
-90.999947
 20
35.999985
 11
-88.999947
 21
35.999985
  0
LINE
  8
0
 62
     2
 10
-90.999947
 20
37.000004
 11
-89.267899
 21
36.000008
  0
LINE
  8
0
  6
CENTER
 62
     2
 10
-113.970512
 20
12.999987
 11
-99.039917
 21
12.999987
  0
LINE
  8
0
  6
CENTER
 62
     2
 10
-106.499947
 20
6.915813
 11
-106.499947
 21
19.290285
  0
LINE
  8
0
  6
CENTER
 62
     2
 10
-79.999954
 20
14.495176
 11
-79.999954
 21
34.139648
  0
LINE
  8
0
  6
CENTER
 62
     2
 10
-64.499954
 20
14.649855
 11
-64.499954
 21
34.294327
  0
LINE
  8
0
  6
CENTER
 62
     2
 10
-90.568596
 20
24.499987
 11
-53.171600
 21
24.499987
  0
LINE
  8
0
 10
-51.999950
 20
30.999987
 11
39.000053
 21
30.999987
  0
LINE
  8
0
 10
-49.999950
 20
32.999985
 11
39.000053
 21
32.999985
  0
LINE
  8
0
 10
-51.999943
 20
30.999985
 11
-49.999943
 21
32.999985
  0
LINE
  8
0
  6
CENTER
 62
     2
 10
-101.594902
 20
0.999989
 11
-86.010338
 21
0.999989
  0
LINE
  8
0
 10
-98.999947
 20
-9.000011
 11
-88.999947
 21
-9.000011
  0
LINE
  8
0
 10
-98.999947
 20
10.999987
 11
-88.999947
 21
10.999987
  0
LINE
  8
0
 10
-45.999947
 20
41.499985
 11
23.000053
 21
41.499985
  0
LINE
  8
0
 10
-45.999947
 20
39.624985
 11
23.000053
 21
39.624985
  0
LINE
  8
0
 10
-45.999947
 20
35.374985
 11
23.000053
 21
35.374985
  0
LINE
  8
0
  6
CENTER
 62
     2
 10
33.058403
 20
37.499985
 11
39.719673
 21
37.499985
  0
LINE
  8
0
  6
CENTER
 62
     2
 10
36.250053
 20
34.419830
 11
36.250053
 21
51.517174
  0
LINE
  8
0
 10
36.250053
 20
35.749985
 11
39.000053
 21
35.749985
  0
LINE
  8
0
 10
36.250053
 20
39.249985
 11
39.000053
 21
39.249985
  0
LINE
  8
0
 10
9.750053
 20
41.749985
 11
10.500053
 21
41.749985
  0
LINE
  8
0
 10
11.500053
 20
41.749985
 11
12.250053
 21
41.749985
  0
LINE
  8
0
  6
CENTER
 62
     2
 10
39.701530
 20
57.999985
 11
51.621727
 21
57.999985
  0
LINE
  8
0
  6
CENTER
 62
     2
 10
46.000053
 20
51.888855
 11
46.000053
 21
64.154343
  0
LINE
  8
0
 10
-92.024460
 20
42.999985
 11
-97.975441
 21
42.999985
  0
LINE
  8
0
 62
     4
 10
-45.999947
 20
135.799988
 11
23.000053
 21
135.799988
  0
LINE
  8
0
 62
     4
 10
23.000053
 20
136.000000
 11
39.000053
 21
136.000000
  0
LINE
  8
0
 10
-88.999947
 20
105.000000
 11
-88.999947
 21
-19.000015
  0
LINE
  8
0
 62
     4
 10
-45.999947
 20
136.000000
 11
-45.999947
 21
105.000000
  0
LINE
  8
0
 62
     4
 10
39.000053
 20
136.000000
 11
39.000053
 21
105.000000
  0
LINE
  8
0
 62
     4
 10
23.000053
 20
136.000000
 11
23.000053
 21
105.000000
  0
LINE
  8
0
  6
CENTER
 62
     1
 10
-88.887184
 20
118.000000
 11
66.915611
 21
118.000000
  0
LINE
  8
0
 62
     4
 10
39.000053
 20
107.000000
 11
55.000053
 21
107.000000
  0
LINE
  8
0
 62
     4
 10
39.000053
 20
129.000000
 11
55.000053
 21
129.000000
  0
LINE
  8
0
 62
     1
 10
39.000053
 20
108.000000
 11
56.000053
 21
108.000000
  0
LINE
  8
0
 62
     1
 10
39.000053
 20
128.000000
 11
56.000053
 21
128.000000
  0
LINE
  8
0
 62
     4
 10
56.000053
 20
128.000015
 11
56.000053
 21
108.000000
  0
LINE
  8
0
 62
     4
 10
54.999874
 20
128.999802
 11
55.999874
 21
127.999825
  0
LINE
  8
0
  6
PHANTOM
 62
     4
 10
56.000027
 20
107.999977
 11
55.000031
 21
106.999977
  0
LINE
  8
0
 62
     4
 10
55.000053
 20
107.000000
 11
55.000053
 21
129.000000
  0
LINE
  8
0
 10
-51.999950
 20
54.999985
 11
-51.999950
 21
30.999987
  0
LINE
  8
0
  6
CENTER
 62
     2
 10
-106.499947
 20
80.075821
 11
-106.499947
 21
66.526840
  0
LINE
  8
0
 10
53.000053
 20
-19.000015
 11
53.000053
 21
105.000000
  0
LINE
  8
0
  6
CENTER
 62
     2
 10
39.608604
 20
27.999987
 11
52.338692
 21
27.999987
  0
LINE
  8
0
  6
CENTER
 62
     2
 10
46.000053
 20
20.946379
 11
46.000053
 21
34.605671
  0
LINE
  8
0
 10
88.000053
 20
104.000000
 11
88.000053
 21
-18.000011
  0
LINE
  8
0
 10
103.000053
 20
104.000000
 11
103.000053
 21
-18.000011
  0
LINE
  8
0
 10
103.000053
 20
104.000000
 11
88.000053
 21
104.000000
  0
LINE
  8
0
  6
CENTER
 62
     2
 10
103.129173
 20
72.999992
 11
89.194710
 21
72.999992
  0
LINE
  8
0
  6
CENTER
 62
     2
 10
90.595009
 20
84.999992
 11
48.509956
 21
84.999992
  0
LINE
  8
0
 10
88.000053
 20
94.999992
 11
53.000053
 21
94.999992
  0
LINE
  8
0
 10
88.000053
 20
74.999992
 11
53.000053
 21
74.999992
  0
LINE
  8
0
 10
103.000053
 20
-18.000011
 11
88.000053
 21
-18.000011
  0
LINE
  8
0
  6
CENTER
 62
     2
 10
103.970604
 20
12.999987
 11
89.040031
 21
12.999987
  0
LINE
  8
0
  6
CENTER
 62
     2
 10
95.500053
 20
6.915813
 11
95.500053
 21
19.290285
  0
LINE
  8
0
  6
CENTER
 62
     2
 10
90.595009
 20
0.999989
 11
48.934196
 21
0.999989
  0
LINE
  8
0
 10
88.000053
 20
-9.000011
 11
53.000053
 21
-9.000011
  0
LINE
  8
0
 10
88.000053
 20
10.999987
 11
53.000053
 21
10.999987
  0
LINE
  8
0
  6
CENTER
 62
     2
 10
95.500053
 20
80.075821
 11
95.500053
 21
66.526840
  0
LINE
  8
0
 10
-45.999947
 20
105.000000
 11
-45.999947
 21
-19.000015
  0
LINE
  8
0
 10
23.000053
 20
105.000000
 11
23.000053
 21
-19.000015
  0
LINE
  8
0
 10
39.000053
 20
105.000000
 11
39.000053
 21
-19.000015
  0
LINE
  8
0
 62
     4
 10
-45.999947
 20
136.000000
 11
-61.999947
 21
136.000000
  0
LINE
  8
0
 62
     4
 10
-61.999947
 20
136.000000
 11
-61.999947
 21
105.000000
  0
LINE
  8
0
 62
     4
 10
-77.999947
 20
107.000000
 11
-77.999947
 21
129.000000
  0
LINE
  8
0
 62
     4
 10
-61.999947
 20
107.000000
 11
-77.999947
 21
107.000000
  0
LINE
  8
0
 62
     4
 10
-61.999947
 20
129.000000
 11
-77.999947
 21
129.000000
  0
LINE
  8
0
 62
     1
 10
-61.999947
 20
108.000000
 11
-78.999947
 21
108.000000
  0
LINE
  8
0
 62
     1
 10
-61.999947
 20
128.000000
 11
-78.999947
 21
128.000000
  0
LINE
  8
0
 62
     4
 10
-78.999947
 20
128.000015
 11
-78.999947
 21
108.000000
  0
LINE
  8
0
 62
     4
 10
-77.999748
 20
128.999802
 11
-78.999748
 21
127.999825
  0
LINE
  8
0
  6
PHANTOM
 62
     4
 10
-78.999924
 20
107.999969
 11
-77.999939
 21
106.999977
  0
LINE
  8
0
  6
PHANTOM
 62
     3
 10
-11.499947
 20
158.296707
 11
-11.499947
 21
-37.385777
  0
LINE
  8
0
  6
PHANTOM
 62
     3
 10
70.500053
 20
148.296707
 11
70.500053
 21
-37.385777
  0
LINE
  8
0
  6
CENTER
 62
     2
 10
-245.494629
 20
42.999981
 11
-186.168777
 21
42.999981
  0
LINE
  8
0
 10
-241.999939
 20
104.999992
 11
-192.999954
 21
104.999992
  0
LINE
  8
0
 10
-241.999939
 20
104.999992
 11
-241.999939
 21
-19.000019
  0
LINE
  8
0
 10
-240.999939
 20
103.999992
 11
-196.999954
 21
103.999992
  0
LINE
  8
0
  6
CENTER
 62
     2
 10
-218.999954
 20
112.713440
 11
-218.999954
 21
-24.335331
  0
LINE
  8
0
 10
-240.999939
 20
103.999992
 11
-240.999939
 21
-18.000019
  0
LINE
  8
0
 10
-196.999954
 20
103.999992
 11
-196.999954
 21
-18.000019
  0
LINE
  8
0
 10
-212.649170
 20
53.999950
 11
-206.298325
 21
42.999966
  0
LINE
  8
0
 10
-231.701813
 20
43.000038
 11
-225.350952
 21
54.000050
  0
LINE
  8
0
 10
-225.350815
 20
53.999981
 11
-212.649094
 21
53.999981
  0
LINE
  8
0
  6
CENTER
 62
     2
 10
-226.916931
 20
66.999985
 11
-210.727066
 21
66.999985
  0
LINE
  8
0
  6
CENTER
 62
     2
 10
-230.101746
 20
84.999985
 11
-208.539169
 21
84.999985
  0
LINE
  8
0
 10
-215.535980
 20
85.000038
 11
-217.268036
 21
82.000031
  0
LINE
  8
0
 10
-217.268036
 20
87.999947
 11
-215.535995
 21
84.999962
  0
LINE
  8
0
 10
-220.732010
 20
87.999985
 11
-217.267899
 21
87.999985
  0
LINE
  8
0
 10
-222.464157
 20
85.000076
 11
-220.732101
 21
88.000092
  0
LINE
  8
0
 10
-220.732346
 20
81.999802
 11
-222.464401
 21
84.999809
  0
LINE
  8
0
 10
-217.267899
 20
81.999939
 11
-220.732010
 21
81.999939
  0
LINE
  8
0
 10
-193.000061
 20
54.999924
 11
-191.000046
 21
52.999912
  0
LINE
  8
0
 10
-241.999939
 20
-19.000019
 11
-192.999954
 21
-19.000019
  0
LINE
  8
0
 10
-192.999954
 20
-19.000019
 11
-192.999954
 21
104.999992
  0
LINE
  8
0
 10
-240.999939
 20
-18.000019
 11
-196.999954
 21
-18.000019
  0
LINE
  8
0
 10
-212.648956
 20
31.999912
 11
-206.298126
 21
42.999889
  0
LINE
  8
0
 10
-231.701553
 20
43.000004
 11
-225.350708
 21
31.999998
  0
LINE
  8
0
 10
-225.350815
 20
31.999981
 11
-212.649094
 21
31.999981
  0
LINE
  8
0
  6
CENTER
 62
     2
 10
-226.501892
 20
18.999981
 11
-210.727066
 21
18.999981
  0
LINE
  8
0
  6
CENTER
 62
     2
 10
-230.266174
 20
0.999981
 11
-207.364792
 21
0.999981
  0
LINE
  8
0
 10
-215.535828
 20
1.000008
 11
-217.267883
 21
4.000016
  0
LINE
  8
0
 10
-217.268478
 20
-1.999700
 11
-215.536423
 21
1.000308
  0
LINE
  8
0
 10
-220.732010
 20
-2.000019
 11
-217.267899
 21
-2.000019
  0
LINE
  8
0
 10
-222.464066
 20
1.000013
 11
-220.732010
 21
-1.999994
  0
LINE
  8
0
 10
-220.732040
 20
3.999962
 11
-222.464096
 21
0.999954
  0
LINE
  8
0
 10
-217.267899
 20
4.000019
 11
-220.732010
 21
4.000019
  0
LINE
  8
0
 10
-193.000122
 20
31.000111
 11
-191.000076
 21
33.000134
  0
LINE
  8
0
 10
-190.999954
 20
52.999973
 11
-190.999954
 21
32.999989
  0
LINE
  8
0
 62
     4
 10
-241.999939
 20
136.000000
 11
-192.999939
 21
136.000000
  0
LINE
  8
0
 62
     4
 10
-241.999939
 20
136.000000
 11
-241.999939
 21
104.999992
  0
LINE
  8
0
 62
     4
 10
-192.999939
 20
136.000000
 11
-192.999939
 21
104.999992
  0
LINE
  8
0
  6
CENTER
 62
     1
 10
-231.359558
 20
118.000000
 11
-203.464874
 21
118.000000
  0
LINE
  8
0
  6
CENTER
 62
     1
 10
-217.499954
 20
131.289871
 11
-217.499954
 21
105.631454
  0
LINE
  8
0
 10
190.000122
 20
52.800045
 11
190.000122
 21
33.200039
  0
LINE
  8
0
 10
192.000122
 20
105.000053
 11
241.000122
 21
105.000053
  0
LINE
  8
0
 10
192.000122
 20
105.000053
 11
192.000122
 21
-18.999958
  0
LINE
  8
0
 10
241.000122
 20
105.000053
 11
241.000122
 21
-18.999958
  0
LINE
  8
0
  6
CENTER
 62
     2
 10
186.366180
 20
43.000042
 11
244.189423
 21
43.000042
  0
LINE
  8
0
  6
CENTER
 62
     2
 10
218.000122
 20
108.127640
 11
218.000122
 21
-21.298786
  0
LINE
  8
0
 10
190.000229
 20
52.799999
 11
192.000229
 21
54.800003
  0
LINE
  8
0
 10
190.000229
 20
52.799999
 11
192.000229
 21
54.800003
  0
LINE
  8
0
  6
CENTER
 62
     2
 10
188.164062
 20
48.500042
 11
195.077789
 21
48.500042
  0
LINE
  8
0
 10
190.000122
 20
50.250042
 11
192.000122
 21
50.250042
  0
LINE
  8
0
 10
190.000122
 20
46.750042
 11
192.000122
 21
46.750042
  0
LINE
  8
0
 10
192.000122
 20
-18.999958
 11
241.000122
 21
-18.999958
  0
LINE
  8
0
 10
189.999985
 20
33.199974
 11
191.999969
 21
31.199995
  0
LINE
  8
0
 10
189.999985
 20
33.199974
 11
191.999969
 21
31.199995
  0
LINE
  8
0
  6
CENTER
 62
     2
 10
188.010101
 20
37.500042
 11
195.077789
 21
37.500042
  0
LINE
  8
0
 10
190.000122
 20
35.750042
 11
192.000122
 21
35.750042
  0
LINE
  8
0
 10
190.000122
 20
39.250042
 11
192.000122
 21
39.250042
  0
LINE
  8
0
 62
     4
 10
192.000122
 20
136.000046
 11
241.000122
 21
136.000046
  0
LINE
  8
0
 62
     4
 10
192.000122
 20
136.000046
 11
192.000122
 21
105.000053
  0
LINE
  8
0
 62
     4
 10
241.000122
 20
136.000046
 11
241.000122
 21
105.000053
  0
LINE
  8
0
  6
CENTER
 62
     1
 10
202.640503
 20
118.000046
 11
230.535187
 21
118.000046
  0
LINE
  8
0
  6
CENTER
 62
     1
 10
216.500122
 20
131.289917
 11
216.500122
 21
105.631516
  0
LINE
  8
0
 10
196.000122
 20
-17.999958
 11
196.000122
 21
104.000053
  0
LINE
  8
0
 10
240.000122
 20
104.000053
 11
196.000122
 21
104.000053
  0
LINE
  8
0
  6
CENTER
 62
     2
 10
226.917114
 20
67.000046
 11
210.727234
 21
67.000046
  0
LINE
  8
0
  6
CENTER
 62
     2
 10
229.101929
 20
85.000046
 11
207.539337
 21
85.000046
  0
LINE
  8
0
 10
214.536087
 20
85.000023
 11
216.268143
 21
82.000023
  0
LINE
  8
0
 10
216.268295
 20
87.999916
 11
214.536255
 21
84.999924
  0
LINE
  8
0
 10
219.732178
 20
88.000046
 11
216.268066
 21
88.000046
  0
LINE
  8
0
 10
221.464249
 20
85.000053
 11
219.732193
 21
88.000053
  0
LINE
  8
0
 10
219.732376
 20
81.999992
 11
221.464447
 21
85.000015
  0
LINE
  8
0
 10
216.268066
 20
82.000000
 11
219.732178
 21
82.000000
  0
LINE
  8
0
  6
CENTER
 62
     2
 10
226.502045
 20
19.000042
 11
210.727234
 21
19.000042
  0
LINE
  8
0
  6
CENTER
 62
     2
 10
229.266327
 20
1.000042
 11
206.364960
 21
1.000042
  0
LINE
  8
0
 10
214.536057
 20
0.999994
 11
216.268112
 21
4.000002
  0
LINE
  8
0
 10
216.268326
 20
-1.999820
 11
214.536270
 21
1.000181
  0
LINE
  8
0
 10
219.732178
 20
-1.999958
 11
216.268066
 21
-1.999958
  0
LINE
  8
0
 10
221.464325
 20
0.999963
 11
219.732269
 21
-2.000045
  0
LINE
  8
0
 10
219.732132
 20
4.000001
 11
221.464188
 21
0.999993
  0
LINE
  8
0
 10
216.268066
 20
4.000080
 11
219.732178
 21
4.000080
  0
LINE
  8
0
 10
240.000122
 20
-17.999958
 11
196.000122
 21
-17.999958
  0
LINE
  8
0
 10
240.000122
 20
104.000053
 11
240.000122
 21
-17.999958
  0
LINE
  8
0
 10
39.000069
 20
-46.999985
 11
39.000069
 21
-97.999985
  0
LINE
  8
0
 10
23.000069
 20
-46.999985
 11
23.000069
 21
-97.999985
  0
LINE
  8
0
 10
-45.999931
 20
-46.999985
 11
-45.999931
 21
-97.999985
  0
LINE
  8
0
 10
-88.999931
 20
-48.999985
 11
-88.999931
 21
-97.999985
  0
LINE
  8
0
 10
-113.999931
 20
-52.999985
 11
-113.999931
 21
-96.999985
  0
LINE
  8
0
 10
-88.999931
 20
-48.999985
 11
-45.999931
 21
-48.999985
  0
LINE
  8
0
 10
-88.999931
 20
-97.999985
 11
-45.999931
 21
-97.999985
  0
LINE
  8
0
  6
CENTER
 62
     2
 10
-123.756615
 20
-74.999985
 11
112.145485
 21
-74.999985
  0
LINE
  8
0
 10
-113.999931
 20
-96.999985
 11
-98.999931
 21
-96.999985
  0
LINE
  8
0
 10
-113.999931
 20
-52.999985
 11
-98.999931
 21
-52.999985
  0
LINE
  8
0
 10
-98.999931
 20
-52.999985
 11
-98.999931
 21
-96.999985
  0
LINE
  8
0
 10
-91.850777
 20
-62.298275
 11
-91.126862
 21
-64.999962
  0
LINE
  8
0
 10
-91.850845
 20
-87.701729
 11
-91.126923
 21
-85.000008
  0
LINE
  8
0
 10
-91.850792
 20
-62.298279
 11
-98.149086
 21
-62.298279
  0
LINE
  8
0
 10
-98.149185
 20
-62.298286
 11
-98.873100
 21
-64.999977
  0
LINE
  8
0
 10
-91.850792
 20
-87.701706
 11
-98.149086
 21
-87.701706
  0
LINE
  8
0
 10
-98.149391
 20
-87.701775
 11
-98.873314
 21
-85.000053
  0
LINE
  8
0
 10
-98.999931
 20
-84.999985
 11
-88.999931
 21
-84.999985
  0
LINE
  8
0
 10
-98.999931
 20
-64.999985
 11
-88.999931
 21
-64.999985
  0
LINE
  8
0
 10
23.000069
 20
-97.999985
 11
53.000069
 21
-97.999985
  0
LINE
  8
0
 10
23.000069
 20
-48.999985
 11
53.000069
 21
-48.999985
  0
LINE
  8
0
 10
-45.999931
 20
-97.800003
 11
23.000069
 21
-97.800003
  0
LINE
  8
0
 10
-45.999931
 20
-49.199997
 11
23.000069
 21
-49.199997
  0
LINE
  8
0
  6
CENTER
 62
     2
 10
-80.999931
 20
-49.754639
 11
-80.999931
 21
-62.798904
  0
LINE
  8
0
  6
CENTER
 62
     2
 10
-53.999935
 20
-50.162582
 11
-53.999935
 21
-62.536819
  0
LINE
  8
0
  6
CENTER
 62
     2
 10
-86.301956
 20
-89.999985
 11
-75.381523
 21
-89.999985
  0
LINE
  8
0
  6
CENTER
 62
     2
 10
31.000069
 20
-51.182465
 11
31.000069
 21
-63.389740
  0
LINE
  8
0
  6
CENTER
 62
     2
 10
-59.830826
 20
-56.999985
 11
-48.211487
 21
-56.999985
  0
LINE
  8
0
  6
CENTER
 62
     2
 10
-80.999931
 20
-84.202957
 11
-80.999931
 21
-95.647568
  0
LINE
  8
0
  6
CENTER
 62
     2
 10
-59.918190
 20
-89.999985
 11
-48.036758
 21
-89.999985
  0
LINE
  8
0
  6
CENTER
 62
     2
 10
-53.999935
 20
-84.465042
 11
-53.999935
 21
-95.560196
  0
LINE
  8
0
  6
CENTER
 62
     2
 10
24.601936
 20
-56.999985
 11
36.678230
 21
-56.999985
  0
LINE
  8
0
  6
CENTER
 62
     2
 10
24.381233
 20
-89.999985
 11
37.494148
 21
-89.999985
  0
LINE
  8
0
  6
CENTER
 62
     2
 10
31.000069
 20
-83.253433
 11
31.000069
 21
-96.164841
  0
LINE
  8
0
  6
CENTER
 62
     2
 10
-87.338715
 20
-56.999985
 11
-75.206795
 21
-56.999985
  0
LINE
  8
0
  6
CENTER
 62
     2
 10
-106.499931
 20
-53.834152
 11
-106.499931
 21
-66.380798
  0
LINE
  8
0
  6
CENTER
 62
     2
 10
-112.835625
 20
-89.499985
 11
-100.804298
 21
-89.499985
  0
LINE
  8
0
  6
CENTER
 62
     2
 10
-112.835625
 20
-60.499985
 11
-100.454842
 21
-60.499985
  0
LINE
  8
0
  6
CENTER
 62
     2
 10
-106.499931
 20
-83.678757
 11
-106.499931
 21
-94.948654
  0
LINE
  8
0
 10
-45.999931
 20
-47.199997
 11
23.000069
 21
-47.199997
  0
LINE
  8
0
 10
23.000069
 20
-46.999985
 11
39.000069
 21
-46.999985
  0
LINE
  8
0
 10
-49.999935
 20
-46.999985
 11
-45.999931
 21
-46.999985
  0
LINE
  8
0
 10
-51.999851
 20
-49.000050
 11
-49.999859
 21
-47.000057
  0
LINE
  8
0
 10
103.000069
 20
-52.999985
 11
103.000069
 21
-96.999985
  0
LINE
  8
0
 10
103.000084
 20
-96.999985
 11
88.000069
 21
-96.999985
  0
LINE
  8
0
 10
103.000084
 20
-52.999985
 11
88.000069
 21
-52.999985
  0
LINE
  8
0
 10
88.000069
 20
-52.999985
 11
88.000069
 21
-96.999985
  0
LINE
  8
0
 10
88.000069
 20
-84.999985
 11
53.000069
 21
-84.999985
  0
LINE
  8
0
 10
88.000069
 20
-64.999985
 11
53.000069
 21
-64.999985
  0
LINE
  8
0
  6
CENTER
 62
     2
 10
95.500069
 20
-53.834152
 11
95.500069
 21
-66.380798
  0
LINE
  8
0
  6
CENTER
 62
     2
 10
101.835777
 20
-89.499985
 11
89.804436
 21
-89.499985
  0
LINE
  8
0
  6
CENTER
 62
     2
 10
101.835777
 20
-60.499985
 11
89.454979
 21
-60.499985
  0
LINE
  8
0
  6
CENTER
 62
     2
 10
95.500069
 20
-83.678757
 11
95.500069
 21
-94.948654
  0
LINE
  8
0
 10
53.000069
 20
-48.999985
 11
53.000069
 21
-97.999985
  0
LINE
  8
0
 62
     4
 10
53.000069
 20
-62.499985
 11
55.000069
 21
-62.499985
  0
LINE
  8
0
 62
     4
 10
55.000019
 20
-62.500011
 11
56.000019
 21
-63.500011
  0
LINE
  8
0
 62
     4
 10
55.000069
 20
-62.499985
 11
55.000069
 21
-64.999985
  0
LINE
  8
0
 62
     4
 10
56.000069
 20
-63.500000
 11
56.000069
 21
-64.999985
  0
LINE
  8
0
 62
     1
 10
53.000069
 20
-63.499985
 11
56.000069
 21
-63.499985
  0
LINE
  8
0
  6
PHANTOM
 62
     3
 10
-11.499931
 20
-37.386101
 11
-11.499931
 21
-115.504433
  0
LINE
  8
0
  6
PHANTOM
 62
     3
 10
70.500069
 20
-37.386101
 11
70.500069
 21
-115.504433
  0
LINE
  8
0
 10
-281.250000
 20
195.500000
 11
282.099976
 21
195.500000
  0
LINE
  8
0
 10
-281.250000
 20
195.500000
 11
-281.250000
 21
-195.000000
  0
LINE
  8
0
 10
282.099976
 20
195.500000
 11
282.099976
 21
-195.000000
  0
LINE
  8
0
 10
-281.250000
 20
-195.000000
 11
282.099976
 21
-195.000000
  0
LINE
  8
0
 10
162.099976
 20
-175.000000
 11
162.099976
 21
-195.000000
  0
LINE
  8
0
 10
162.099976
 20
-175.000000
 11
282.099976
 21
-175.000000
  0
LINE
  8
0
 10
162.099976
 20
175.500000
 11
282.099976
 21
175.500000
  0
LINE
  8
0
 10
-281.250000
 20
175.500000
 11
-161.250000
 21
175.500000
  0
LINE
  8
0
 10
162.099976
 20
195.500000
 11
162.099976
 21
175.500000
  0
LINE
  8
0
 10
-161.250000
 20
195.500000
 11
-161.250000
 21
175.500000
  0
LINE
  8
0
 10
-271.250000
 20
-129.000000
 11
-271.250000
 21
-185.000000
  0
LINE
  8
0
 10
-221.250000
 20
-153.000000
 11
-221.250000
 21
-185.000000
  0
LINE
  8
0
 10
-177.250000
 20
-129.000000
 11
-177.250000
 21
-185.000000
  0
LINE
  8
0
 10
-155.250000
 20
-129.000000
 11
-155.250000
 21
-185.000000
  0
LINE
  8
0
 10
-133.250000
 20
-129.000000
 11
-133.250000
 21
-185.000000
  0
LINE
  8
0
 10
-111.250000
 20
-129.000000
 11
-111.250000
 21
-185.000000
  0
LINE
  8
0
 10
-45.250000
 20
-129.000000
 11
-45.250000
 21
-185.000000
  0
LINE
  8
0
 10
-199.250000
 20
-129.000000
 11
-199.250000
 21
-185.000000
  0
LINE
  8
0
 10
-221.250015
 20
-153.000000
 11
-271.250000
 21
-129.000000
  0
LINE
  8
0
 10
-249.250000
 20
-137.000000
 11
-208.487595
 21
-137.000000
  0
LINE
  8
0
 10
-199.249985
 20
-152.999954
 11
-208.487579
 21
-136.999954
  0
LINE
  8
0
 10
-249.250061
 20
-137.000168
 11
-271.250061
 21
-129.000168
  0
LINE
  8
0
 10
-89.250000
 20
-129.000000
 11
-89.250000
 21
-185.000000
  0
LINE
  8
0
 10
-67.250000
 20
-129.000000
 11
-67.250000
 21
-185.000000
  0
LINE
  8
0
 10
-271.250000
 20
-185.000000
 11
64.750000
 21
-185.000000
  0
LINE
  8
0
 10
-271.250000
 20
-153.000000
 11
64.750000
 21
-153.000000
  0
LINE
  8
0
 10
-271.250000
 20
-129.000000
 11
64.750000
 21
-129.000000
  0
LINE
  8
0
 10
-221.250000
 20
-177.000000
 11
64.750000
 21
-177.000000
  0
LINE
  8
0
 10
-221.250000
 20
-161.000000
 11
64.750000
 21
-161.000000
  0
LINE
  8
0
 10
-271.250000
 20
-169.000000
 11
64.750000
 21
-169.000000
  0
LINE
  8
0
 10
-1.250000
 20
-129.000000
 11
-1.250000
 21
-185.000000
  0
LINE
  8
0
 10
-23.250000
 20
-129.000000
 11
-23.250000
 21
-185.000000
  0
LINE
  8
0
 10
20.750000
 20
-129.000000
 11
20.750000
 21
-185.000000
  0
LINE
  8
0
 10
42.750000
 20
-129.000000
 11
42.750000
 21
-185.000000
  0
LINE
  8
0
 10
64.750000
 20
-129.000000
 11
64.750000
 21
-185.000000
  0
CIRCLE
  8
0
 10
95.500053
 20
72.999992
 40
3.375000
  0
CIRCLE
  8
0
 10
95.500053
 20
12.999987
 40
3.375000
  0
ARC
  8
0
 10
36.250053
 20
37.499985
 40
1.750000
 50
89.999878
 51
270.000000
  0
CIRCLE
  8
0
 10
-106.499947
 20
12.999987
 40
3.375000
  0
CIRCLE
  8
0
 10
-106.499947
 20
72.999992
 40
3.375000
  0
CIRCLE
  8
0
 10
-79.999954
 20
24.499987
 40
7.000000
  0
CIRCLE
  8
0
 10
46.000053
 20
57.999985
 40
4.283000
  0
CIRCLE
  8
0
 62
     2
 10
46.000053
 20
27.999987
 40
4.864000
  0
CIRCLE
  8
0
 10
46.000053
 20
27.999987
 40
4.283000
  0
CIRCLE
  8
0
 62
     2
 10
46.000053
 20
57.999985
 40
4.864000
  0
ARC
  8
0
 10
11.000053
 20
41.749985
 40
0.500000
 50
0.000000
 51
180.000000
  0
CIRCLE
  8
0
 62
     2
 10
95.500053
 20
12.999987
 40
4.000000
  0
CIRCLE
  8
0
 62
     2
 10
95.500053
 20
72.999992
 40
4.000000
  0
ARC
  8
0
 10
-106.275368
 20
48.499985
 40
15.275417
 50
338.896393
 51
21.103613
  0
ARC
  8
0
 10
-83.724533
 20
48.499985
 40
15.275421
 50
158.896347
 51
201.103592
  0
CIRCLE
  8
0
 62
     2
 10
-106.499947
 20
72.999992
 40
4.000000
  0
CIRCLE
  8
0
 10
-79.999954
 20
61.499985
 40
4.500000
  0
CIRCLE
  8
0
 10
-64.499954
 20
61.499985
 40
4.500000
  0
CIRCLE
  8
0
 10
-64.499954
 20
61.499985
 40
7.000000
  0
CIRCLE
  8
0
 10
-79.999954
 20
61.499985
 40
7.000000
  0
ARC
  8
0
 10
36.250053
 20
48.499985
 40
1.750000
 50
90.000000
 51
270.000000
  0
ARC
  8
0
 10
12.250053
 20
42.999985
 40
1.250000
 50
270.000000
 51
90.000000
  0
ARC
  8
0
 10
9.750053
 20
42.999985
 40
1.250000
 50
90.000000
 51
270.000000
  0
ARC
  8
0
 10
11.000053
 20
44.249985
 40
0.500000
 50
180.000000
 51
0.000000
  0
ARC
  8
0
 10
-106.275368
 20
37.499985
 40
15.275415
 50
338.896332
 51
21.103561
  0
ARC
  8
0
 10
-83.724533
 20
37.499985
 40
15.275421
 50
158.896347
 51
201.103592
  0
CIRCLE
  8
0
 62
     2
 10
-106.499947
 20
12.999987
 40
4.000000
  0
CIRCLE
  8
0
 10
-79.999954
 20
24.499987
 40
4.500000
  0
CIRCLE
  8
0
 10
-64.499954
 20
24.499987
 40
4.500000
  0
CIRCLE
  8
0
 10
-64.499954
 20
24.499987
 40
7.000000
  0
CIRCLE
  8
0
 10
-218.999954
 20
18.999981
 40
4.250000
  0
CIRCLE
  8
0
 10
-218.999954
 20
66.999985
 40
4.250000
  0
CIRCLE
  8
0
 62
     2
 10
-218.999954
 20
42.999981
 40
6.000000
  0
CIRCLE
  8
0
 10
-218.999954
 20
84.999985
 40
7.000000
  0
CIRCLE
  8
0
 62
     4
 10
-217.499954
 20
118.000000
 40
11.000000
  0
CIRCLE
  8
0
 10
-218.999954
 20
84.999985
 40
6.500000
  0
CIRCLE
  8
0
 62
     1
 10
-217.499954
 20
118.000000
 40
10.000000
  0
CIRCLE
  8
0
 62
     2
 10
-218.999954
 20
18.999981
 40
5.000000
  0
CIRCLE
  8
0
 10
-218.999954
 20
0.999981
 40
6.500000
  0
CIRCLE
  8
0
 10
-218.999954
 20
0.999981
 40
7.000000
  0
CIRCLE
  8
0
 10
-218.999954
 20
42.999981
 40
16.000000
  0
CIRCLE
  8
0
 10
-218.999954
 20
42.999981
 40
7.000000
  0
CIRCLE
  8
0
 62
     2
 10
-218.999954
 20
66.999985
 40
5.000000
  0
ARC
  8
0
 10
192.650116
 20
37.500042
 40
1.749999
 50
111.803543
 51
248.196457
  0
CIRCLE
  8
0
 10
218.000122
 20
67.000046
 40
4.250000
  0
ARC
  8
0
 10
192.650116
 20
48.500042
 40
1.749999
 50
111.803543
 51
248.196457
  0
CIRCLE
  8
0
 10
218.000122
 20
19.000042
 40
4.250000
  0
CIRCLE
  8
0
 62
     2
 10
218.000122
 20
67.000046
 40
5.000000
  0
CIRCLE
  8
0
 62
     1
 10
216.500122
 20
118.000046
 40
10.000000
  0
CIRCLE
  8
0
 62
     4
 10
216.500122
 20
118.000046
 40
11.000000
  0
CIRCLE
  8
0
 10
218.000122
 20
1.000042
 40
6.500000
  0
CIRCLE
  8
0
 10
218.000122
 20
85.000046
 40
7.000000
  0
CIRCLE
  8
0
 62
     2
 10
218.000122
 20
19.000042
 40
5.000000
  0
CIRCLE
  8
0
 10
218.000122
 20
85.000046
 40
6.500000
  0
CIRCLE
  8
0
 10
218.000122
 20
1.000042
 40
7.000000
  0
CIRCLE
  8
0
 10
95.500069
 20
-60.499985
 40
3.375000
  0
CIRCLE
  8
0
 10
-80.999931
 20
-89.999985
 40
3.375000
  0
CIRCLE
  8
0
 10
95.500069
 20
-89.499985
 40
3.375000
  0
CIRCLE
  8
0
 10
31.000069
 20
-89.999985
 40
3.375000
  0
CIRCLE
  8
0
 10
-53.999935
 20
-56.999985
 40
3.375000
  0
CIRCLE
  8
0
 10
31.000069
 20
-56.999985
 40
3.375000
  0
CIRCLE
  8
0
 10
-53.999935
 20
-89.999985
 40
3.375000
  0
CIRCLE
  8
0
 62
     2
 10
31.000069
 20
-89.999985
 40
4.000000
  0
CIRCLE
  8
0
 62
     2
 10
-80.999931
 20
-89.999985
 40
4.000000
  0
CIRCLE
  8
0
 62
     2
 10
31.000069
 20
-56.999985
 40
4.000000
  0
CIRCLE
  8
0
 62
     2
 10
-53.999935
 20
-89.999985
 40
4.000000
  0
CIRCLE
  8
0
 62
     2
 10
-106.499931
 20
-89.499985
 40
4.000000
  0
CIRCLE
  8
0
 62
     2
 10
95.500069
 20
-60.499985
 40
4.000000
  0
CIRCLE
  8
0
 62
     2
 10
95.500069
 20
-89.499985
 40
4.000000
  0
CIRCLE
  8
0
 62
     2
 10
-106.499931
 20
-60.499985
 40
4.000000
  0
CIRCLE
  8
0
 62
     2
 10
-80.999931
 20
-56.999985
 40
4.000000
  0
CIRCLE
  8
0
 62
     2
 10
-53.999935
 20
-56.999985
 40
4.000000
  0
CIRCLE
  8
0
 10
-106.499931
 20
-60.499985
 40
3.375000
  0
CIRCLE
  8
0
 10
-106.499931
 20
-89.499985
 40
3.375000
  0
CIRCLE
  8
0
 10
-80.999931
 20
-56.999985
 40
3.375000
  0
TEXT
  8
0
 10
196.250259
 20
180.830002
 40
6.300000
  1
Ver. 2.0
 50
0.000000
 41
1.052632
 51
0.000000
  7
STANDARD
  0
TEXT
  8
0
 10
167.564667
 20
-192.100006
 40
9.000000
  1
KOGANEI CORP.
 50
0.000000
 41
1.052632
 51
0.000000
  7
STANDARD
  0
TEXT
  8
0
 10
-262.849731
 20
180.830002
 40
6.300000
  1
AXIS CYLINDER
 50
0.000000
 41
1.052632
 51
0.000000
  7
STANDARD
  0
TEXT
  8
0
 10
-232.550003
 20
145.830002
 40
6.300000
  1
XDAAD40*ST(25)-SSL
 50
0.000000
 41
1.052632
 51
0.000000
  7
STANDARD
  0
TEXT
  8
0
 10
-270.049988
 20
155.830002
 40
6.300000
  1
MODEL:XDAD40*ST(25)-SSL
 50
0.000000
 41
1.052632
 51
0.000000
  7
STANDARD
  0
TEXT
  8
0
 62
     3
 10
50.380077
 20
151.041214
 40
6.300000
  1
STRETCH LINE B
 50
0.000000
 41
1.052632
 51
0.000000
  7
STANDARD
  0
TEXT
  8
0
 10
44.357143
 20
-128.050003
 40
4.500000
  1
(mm)
 50
0.000000
 41
1.052632
 51
0.000000
  7
STANDARD
  0
TEXT
  8
0
 10
-193.142853
 20
-144.050003
 40
4.500000
  1
25
 50
0.000000
 41
1.052632
 51
0.000000
  7
STANDARD
  0
TEXT
  8
0
 10
-171.142853
 20
-144.050003
 40
4.500000
  1
50
 50
0.000000
 41
1.052632
 51
0.000000
  7
STANDARD
  0
TEXT
  8
0
 10
-149.142853
 20
-144.050003
 40
4.500000
  1
75
 50
0.000000
 41
1.052632
 51
0.000000
  7
STANDARD
  0
TEXT
  8
0
 10
-129.392853
 20
-144.050003
 40
4.500000
  1
100
 50
0.000000
 41
1.052632
 51
0.000000
  7
STANDARD
  0
TEXT
  8
0
 10
-107.392853
 20
-144.050003
 40
4.500000
  1
125
 50
0.000000
 41
1.052632
 51
0.000000
  7
STANDARD
  0
TEXT
  8
0
 10
-190.892853
 20
-184.050003
 40
4.500000
  1
0
 50
0.000000
 41
1.052632
 51
0.000000
  7
STANDARD
  0
TEXT
  8
0
 10
-171.142853
 20
-184.050003
 40
4.500000
  1
25
 50
0.000000
 41
1.052632
 51
0.000000
  7
STANDARD
  0
TEXT
  8
0
 10
-149.142853
 20
-184.050003
 40
4.500000
  1
50
 50
0.000000
 41
1.052632
 51
0.000000
  7
STANDARD
  0
TEXT
  8
0
 10
-127.142853
 20
-184.050003
 40
4.500000
  1
75
 50
0.000000
 41
1.052632
 51
0.000000
  7
STANDARD
  0
TEXT
  8
0
 10
-19.392857
 20
-184.050003
 40
4.500000
  1
200
 50
0.000000
 41
1.052632
 51
0.000000
  7
STANDARD
  0
TEXT
  8
0
 10
-242.761658
 20
-136.050003
 40
4.500000
  1
STROKE
 50
0.000000
 41
1.052632
 51
0.000000
  7
STANDARD
  0
TEXT
  8
0
 10
-265.408447
 20
-152.050003
 40
4.500000
  1
TYPE
 50
0.000000
 41
1.052632
 51
0.000000
  7
STANDARD
  0
TEXT
  8
0
 10
-264.000000
 20
-178.699997
 40
4.500000
  1
XDAAD40
 50
0.000000
 41
1.052632
 51
0.000000
  7
STANDARD
  0
TEXT
  8
0
 10
-130.642853
 20
-127.050003
 40
4.500000
  1
STRETCH LIST
 50
0.000000
 41
1.052632
 51
0.000000
  7
STANDARD
  0
TEXT
  8
0
 10
-264.000000
 20
-162.699997
 40
4.500000
  1
XDAD40
 50
0.000000
 41
1.052632
 51
0.000000
  7
STANDARD
  0
TEXT
  8
0
 10
-190.892853
 20
-176.050003
 40
4.500000
  1
0
 50
0.000000
 41
1.052632
 51
0.000000
  7
STANDARD
  0
TEXT
  8
0
 10
-171.142853
 20
-176.050003
 40
4.500000
  1
25
 50
0.000000
 41
1.052632
 51
0.000000
  7
STANDARD
  0
TEXT
  8
0
 10
-149.142853
 20
-176.050003
 40
4.500000
  1
50
 50
0.000000
 41
1.052632
 51
0.000000
  7
STANDARD
  0
TEXT
  8
0
 10
-127.142853
 20
-176.050003
 40
4.500000
  1
75
 50
0.000000
 41
1.052632
 51
0.000000
  7
STANDARD
  0
TEXT
  8
0
 10
-19.392857
 20
-176.050003
 40
4.500000
  1
200
 50
0.000000
 41
1.052632
 51
0.000000
  7
STANDARD
  0
TEXT
  8
0
 10
-190.892853
 20
-160.050003
 40
4.500000
  1
0
 50
0.000000
 41
1.052632
 51
0.000000
  7
STANDARD
  0
TEXT
  8
0
 10
-171.142853
 20
-160.050003
 40
4.500000
  1
25
 50
0.000000
 41
1.052632
 51
0.000000
  7
STANDARD
  0
TEXT
  8
0
 10
-149.142853
 20
-160.050003
 40
4.500000
  1
50
 50
0.000000
 41
1.052632
 51
0.000000
  7
STANDARD
  0
TEXT
  8
0
 10
-127.142853
 20
-160.050003
 40
4.500000
  1
75
 50
0.000000
 41
1.052632
 51
0.000000
  7
STANDARD
  0
TEXT
  8
0
 10
-190.892853
 20
-168.050003
 40
4.500000
  1
0
 50
0.000000
 41
1.052632
 51
0.000000
  7
STANDARD
  0
TEXT
  8
0
 10
-171.142853
 20
-168.050003
 40
4.500000
  1
25
 50
0.000000
 41
1.052632
 51
0.000000
  7
STANDARD
  0
TEXT
  8
0
 10
-149.142853
 20
-168.050003
 40
4.500000
  1
50
 50
0.000000
 41
1.052632
 51
0.000000
  7
STANDARD
  0
TEXT
  8
0
 10
-127.142853
 20
-168.050003
 40
4.500000
  1
75
 50
0.000000
 41
1.052632
 51
0.000000
  7
STANDARD
  0
TEXT
  8
0
 10
-19.392857
 20
-168.050003
 40
4.500000
  1
200
 50
0.000000
 41
1.052632
 51
0.000000
  7
STANDARD
  0
TEXT
  8
0
 10
-212.892654
 20
-184.050003
 40
4.500000
  1
B
 50
0.000000
 41
1.052632
 51
0.000000
  7
STANDARD
  0
TEXT
  8
0
 10
-212.892654
 20
-160.050003
 40
4.500000
  1
A
 50
0.000000
 41
1.052632
 51
0.000000
  7
STANDARD
  0
TEXT
  8
0
 10
-212.892654
 20
-168.050003
 40
4.500000
  1
B
 50
0.000000
 41
1.052632
 51
0.000000
  7
STANDARD
  0
TEXT
  8
0
 10
-212.892654
 20
-176.050003
 40
4.500000
  1
A
 50
0.000000
 41
1.052632
 51
0.000000
  7
STANDARD
  0
TEXT
  8
0
 10
-241.877258
 20
-141.324997
 40
4.500000
  1
STRETCH
 50
0.000000
 41
1.052632
 51
0.000000
  7
STANDARD
  0
TEXT
  8
0
 10
-241.877258
 20
-148.074997
 40
4.500000
  1
   PLACE
 50
0.000000
 41
1.052632
 51
0.000000
  7
STANDARD
  0
TEXT
  8
0
 10
-107.392853
 20
-160.050003
 40
4.500000
  1
100
 50
0.000000
 41
1.052632
 51
0.000000
  7
STANDARD
  0
TEXT
  8
0
 10
-107.392853
 20
-168.050003
 40
4.500000
  1
100
 50
0.000000
 41
1.052632
 51
0.000000
  7
STANDARD
  0
TEXT
  8
0
 10
-107.392853
 20
-176.050003
 40
4.500000
  1
100
 50
0.000000
 41
1.052632
 51
0.000000
  7
STANDARD
  0
TEXT
  8
0
 10
-107.392853
 20
-184.050003
 40
4.500000
  1
100
 50
0.000000
 41
1.052632
 51
0.000000
  7
STANDARD
  0
TEXT
  8
0
 10
-85.392853
 20
-184.050003
 40
4.500000
  1
125
 50
0.000000
 41
1.052632
 51
0.000000
  7
STANDARD
  0
TEXT
  8
0
 10
-85.392853
 20
-176.050003
 40
4.500000
  1
125
 50
0.000000
 41
1.052632
 51
0.000000
  7
STANDARD
  0
TEXT
  8
0
 10
-85.392853
 20
-160.050003
 40
4.500000
  1
125
 50
0.000000
 41
1.052632
 51
0.000000
  7
STANDARD
  0
TEXT
  8
0
 10
-85.392853
 20
-168.050003
 40
4.500000
  1
125
 50
0.000000
 41
1.052632
 51
0.000000
  7
STANDARD
  0
TEXT
  8
0
 10
-85.392654
 20
-144.050003
 40
4.500000
  1
150
 50
0.000000
 41
1.052632
 51
0.000000
  7
STANDARD
  0
TEXT
  8
0
 10
-63.392658
 20
-144.050003
 40
4.500000
  1
175
 50
0.000000
 41
1.052632
 51
0.000000
  7
STANDARD
  0
TEXT
  8
0
 10
-63.392857
 20
-168.050003
 40
4.500000
  1
150
 50
0.000000
 41
1.052632
 51
0.000000
  7
STANDARD
  0
TEXT
  8
0
 10
-63.392857
 20
-160.050003
 40
4.500000
  1
150
 50
0.000000
 41
1.052632
 51
0.000000
  7
STANDARD
  0
TEXT
  8
0
 10
-63.392857
 20
-176.050003
 40
4.500000
  1
150
 50
0.000000
 41
1.052632
 51
0.000000
  7
STANDARD
  0
TEXT
  8
0
 10
-63.392857
 20
-184.050003
 40
4.500000
  1
150
 50
0.000000
 41
1.052632
 51
0.000000
  7
STANDARD
  0
TEXT
  8
0
 10
-41.392658
 20
-144.050003
 40
4.500000
  1
200
 50
0.000000
 41
1.052632
 51
0.000000
  7
STANDARD
  0
TEXT
  8
0
 10
-41.392857
 20
-168.050003
 40
4.500000
  1
150
 50
0.000000
 41
1.052632
 51
0.000000
  7
STANDARD
  0
TEXT
  8
0
 10
-41.392857
 20
-160.050003
 40
4.500000
  1
150
 50
0.000000
 41
1.052632
 51
0.000000
  7
STANDARD
  0
TEXT
  8
0
 10
-41.392857
 20
-176.050003
 40
4.500000
  1
150
 50
0.000000
 41
1.052632
 51
0.000000
  7
STANDARD
  0
TEXT
  8
0
 10
-41.392857
 20
-184.050003
 40
4.500000
  1
150
 50
0.000000
 41
1.052632
 51
0.000000
  7
STANDARD
  0
TEXT
  8
0
 10
-19.392656
 20
-144.050003
 40
4.500000
  1
225
 50
0.000000
 41
1.052632
 51
0.000000
  7
STANDARD
  0
TEXT
  8
0
 10
-19.392857
 20
-160.050003
 40
4.500000
  1
200
 50
0.000000
 41
1.052632
 51
0.000000
  7
STANDARD
  0
TEXT
  8
0
 10
2.607343
 20
-144.050003
 40
4.500000
  1
250
 50
0.000000
 41
1.052632
 51
0.000000
  7
STANDARD
  0
TEXT
  8
0
 10
2.607143
 20
-184.050003
 40
4.500000
  1
225
 50
0.000000
 41
1.052632
 51
0.000000
  7
STANDARD
  0
TEXT
  8
0
 10
24.607344
 20
-144.050003
 40
4.500000
  1
275
 50
0.000000
 41
1.052632
 51
0.000000
  7
STANDARD
  0
TEXT
  8
0
 10
24.607143
 20
-184.050003
 40
4.500000
  1
250
 50
0.000000
 41
1.052632
 51
0.000000
  7
STANDARD
  0
TEXT
  8
0
 10
46.607342
 20
-144.050003
 40
4.500000
  1
300
 50
0.000000
 41
1.052632
 51
0.000000
  7
STANDARD
  0
TEXT
  8
0
 10
46.607143
 20
-184.050003
 40
4.500000
  1
275
 50
0.000000
 41
1.052632
 51
0.000000
  7
STANDARD
  0
TEXT
  8
0
 10
2.607143
 20
-160.050003
 40
4.500000
  1
225
 50
0.000000
 41
1.052632
 51
0.000000
  7
STANDARD
  0
TEXT
  8
0
 10
24.607143
 20
-160.050003
 40
4.500000
  1
250
 50
0.000000
 41
1.052632
 51
0.000000
  7
STANDARD
  0
TEXT
  8
0
 10
46.607143
 20
-160.050003
 40
4.500000
  1
275
 50
0.000000
 41
1.052632
 51
0.000000
  7
STANDARD
  0
TEXT
  8
0
 10
2.607143
 20
-168.050003
 40
4.500000
  1
225
 50
0.000000
 41
1.052632
 51
0.000000
  7
STANDARD
  0
TEXT
  8
0
 10
24.607143
 20
-168.050003
 40
4.500000
  1
250
 50
0.000000
 41
1.052632
 51
0.000000
  7
STANDARD
  0
TEXT
  8
0
 10
46.607143
 20
-168.050003
 40
4.500000
  1
275
 50
0.000000
 41
1.052632
 51
0.000000
  7
STANDARD
  0
TEXT
  8
0
 10
2.607143
 20
-176.050003
 40
4.500000
  1
225
 50
0.000000
 41
1.052632
 51
0.000000
  7
STANDARD
  0
TEXT
  8
0
 10
24.607143
 20
-176.050003
 40
4.500000
  1
250
 50
0.000000
 41
1.052632
 51
0.000000
  7
STANDARD
  0
TEXT
  8
0
 10
46.607143
 20
-176.050003
 40
4.500000
  1
275
 50
0.000000
 41
1.052632
 51
0.000000
  7
STANDARD
  0
TEXT
  8
0
 62
     3
 10
-56.619919
 20
161.041214
 40
6.300000
  1
STRETCH LINE A
 50
0.000000
 41
1.052632
 51
0.000000
  7
STANDARD
  0
ENDSEC
  0
EOF
