  0
SECTION
  2
HEADER
  0
ENDSEC
  0
SECTION
  2
TABLES
  0
TABLE
  2
LTYPE
 70
     4
  0
LTYPE
  2
CONTINUOUS
 70
    64
  3
Solid line
 72
    65
 73
     0
 40
0.000000
  0
LTYPE
  2
DASHED
 70
    64
  3
__ __ __ __ __ __ __ __ __ __ __ __ __ __ __
 72
    65
 73
     2
 40
3.500000
 49
2.000000
 49
-1.500000
  0
LTYPE
  2
CENTER
 70
    64
  3
____ _ ____ _ ____ _ ____ _ ____ _ ____ _ ____
 72
    65
 73
     4
 40
17.500000
 49
13.000000
 49
-1.500000
 49
1.500000
 49
-1.500000
  0
LTYPE
  2
PHANTOM
 70
    64
  3
_____ _ _ _____ _ _ _____ _ _ _____ _ _ ____  
 72
    65
 73
     6
 40
15.500000
 49
8.000000
 49
-1.500000
 49
1.500000
 49
-1.500000
 49
1.500000
 49
-1.500000
  0
LTYPE
  2
DASHED1
 70
    64
  3
__ __ __ __ __ __ __ __ __ __ __ __ __ __ __
 72
    65
 73
     2
 40
1.500000
 49
1.000000
 49
-0.500000
  0
LTYPE
  2
DASHED2
 70
    64
  3
__ __ __ __ __ __ __ __ __ __ __ __ __ __ __
 72
    65
 73
     2
 40
3.500000
 49
2.500000
 49
-1.000000
  0
LTYPE
  2
DASHED3
 70
    64
  3
__ __ __ __ __ __ __ __ __ __ __ __ __ __ __
 72
    65
 73
     2
 40
6.000000
 49
4.000000
 49
-2.000000
  0
LTYPE
  2
DASHED4
 70
    64
  3
__ __ __ __ __ __ __ __ __ __ __ __ __ __ __
 72
    65
 73
     2
 40
12.000000
 49
10.000000
 49
-2.000000
  0
LTYPE
  2
DASHED5
 70
    64
  3
__ __ __ __ __ __ __ __ __ __ __ __ __ __ __
 72
    65
 73
     2
 40
17.000000
 49
15.000000
 49
-2.000000
  0
LTYPE
  2
DASHED6
 70
    64
  3
__ __ __ __ __ __ __ __ __ __ __ __ __ __ __
 72
    65
 73
     2
 40
29.000000
 49
27.000000
 49
-2.000000
  0
LTYPE
  2
PHANTOM1
 70
    64
  3
_____ _ _ _____ _ _ _____ _ _ _____ _ _ ____  
 72
    65
 73
     6
 40
31.000000
 49
25.000000
 49
-1.500000
 49
1.000000
 49
-1.000000
 49
1.000000
 49
-1.500000
  0
LTYPE
  2
PHANTOM2
 70
    64
  3
_____ _ _ _____ _ _ _____ _ _ _____ _ _ ____  
 72
    65
 73
     6
 40
36.000000
 49
27.000000
 49
-1.500000
 49
2.500000
 49
-1.000000
 49
2.500000
 49
-1.500000
  0
LTYPE
  2
PHANTOM3
 70
    64
  3
_____ _ _ _____ _ _ _____ _ _ _____ _ _ ____  
 72
    65
 73
     6
 40
78.000000
 49
64.000000
 49
-2.000000
 49
4.000000
 49
-2.000000
 49
4.000000
 49
-2.000000
  0
LTYPE
  2
CENTER1
 70
    64
  3
____ _ ____ _ ____ _ ____ _ ____ _ ____ _ ____
 72
    65
 73
     4
 40
19.000000
 49
14.000000
 49
-1.000000
 49
3.000000
 49
-1.000000
  0
LTYPE
  2
CENTER2
 70
    64
  3
____ _ ____ _ ____ _ ____ _ ____ _ ____ _ ____
 72
    65
 73
     4
 40
28.500000
 49
25.000000
 49
-1.000000
 49
1.500000
 49
-1.000000
  0
LTYPE
  2
CENTER3
 70
    64
  3
____ _ ____ _ ____ _ ____ _ ____ _ ____ _ ____
 72
    65
 73
     4
 40
31.500000
 49
27.000000
 49
-1.000000
 49
2.500000
 49
-1.000000
  0
LTYPE
  2
CENTER4
 70
    64
  3
____ _ ____ _ ____ _ ____ _ ____ _ ____ _ ____
 72
    65
 73
     4
 40
50.000000
 49
45.000000
 49
-1.000000
 49
3.000000
 49
-1.000000
  0
LTYPE
  2
CENTER5
 70
    64
  3
____ _ ____ _ ____ _ ____ _ ____ _ ____ _ ____
 72
    65
 73
     4
 40
100.000000
 49
92.000000
 49
-2.000000
 49
4.000000
 49
-2.000000
  0
LTYPE
  2
SBK1
 70
    64
  3
______ _ _ _ ______ _ _ _ ______ _ _ _ _____  
 72
    65
 73
     8
 40
60.500000
 49
45.000000
 49
-2.000000
 49
2.500000
 49
-2.000000
 49
2.500000
 49
-2.000000
 49
2.500000
 49
-2.000000
  0
LTYPE
  2
SBK2
 70
    64
  3
______ _ _ _ ______ _ _ _ ______ _ _ _ _____  
 72
    65
 73
     8
 40
84.000000
 49
64.000000
 49
-2.000000
 49
4.000000
 49
-2.000000
 49
4.000000
 49
-2.000000
 49
4.000000
 49
-2.000000
  0
LTYPE
  2
STCH
 70
    64
  3
__ __ __ __ __ __ __ __ __ __ __ __ __ __ __
 72
    65
 73
     2
 40
3.000000
 49
1.000000
 49
-2.000000
  0
LTYPE
  2
MTCH
 70
    64
  3
_____ _ _ _____ _ _ _____ _ _ _____ _ _ ____  
 72
    65
 73
     6
 40
80.000000
 49
66.000000
 49
-2.000000
 49
4.000000
 49
-2.000000
 49
4.000000
 49
-2.000000
  0
ENDTAB
  0
TABLE
  2
LAYER
 70
     1
  0
LAYER
  2
0
 70
     0
 62
     7
  6
CONTINUOUS
  0
ENDTAB
  0
TABLE
  2
STYLE
 70
     1
  0
STYLE
  2
STANDARD
 70
     0
 40
0.000000
 41
1.000000
 50
0.000000
 71
     0
 42
0.200000
  3
txt
  4
BIGFONT
  0
ENDTAB
  0
TABLE
  2
VIEW
 70
     0
  0
ENDTAB
  0
ENDSEC
  0
SECTION
  2
BLOCKS
  0
ENDSEC
  0
SECTION
  2
ENTITIES
  0
LINE
  8
0
 10
80.998566
 20
71.000000
 11
80.998566
 21
-10.999992
  0
LINE
  8
0
 10
-78.000031
 20
72.000000
 11
-47.000034
 21
72.000000
  0
LINE
  8
0
 10
-47.000034
 20
71.799988
 11
17.998413
 21
71.799988
  0
LINE
  8
0
 10
17.995438
 20
72.000000
 11
38.998535
 21
72.000000
  0
LINE
  8
0
 10
-95.000031
 20
71.000000
 11
-95.000031
 21
-10.999992
  0
LINE
  8
0
 10
-95.000031
 20
71.000000
 11
-85.000038
 21
71.000000
  0
LINE
  8
0
 10
-80.518181
 20
30.000002
 11
-84.467110
 21
30.000002
  0
LINE
  8
0
 10
-80.000031
 20
34.000000
 11
-78.000031
 21
34.000000
  0
LINE
  8
0
 62
     2
 10
-80.000046
 20
33.500042
 11
-79.134018
 21
34.000042
  0
LINE
  8
0
  6
CENTER
 62
     2
 10
-86.710716
 20
58.500000
 11
-75.022293
 21
58.500000
  0
LINE
  8
0
 10
-85.000038
 20
64.500000
 11
-78.000031
 21
64.500000
  0
LINE
  8
0
 10
-85.000038
 20
52.500000
 11
-78.000031
 21
52.500000
  0
LINE
  8
0
  6
CENTER
 62
     2
 10
-93.683250
 20
51.000000
 11
-86.247322
 21
51.000000
  0
LINE
  8
0
  6
CENTER
 62
     2
 10
-71.500031
 20
49.474865
 11
-71.500031
 21
35.579086
  0
LINE
  8
0
  6
CENTER
 62
     2
 10
-60.000034
 20
49.793591
 11
-60.000034
 21
35.439728
  0
LINE
  8
0
  6
CENTER
 62
     2
 10
-79.270905
 20
42.499992
 11
-53.143955
 21
42.499992
  0
LINE
  8
0
 10
-53.000042
 20
41.999996
 11
28.998474
 21
41.999996
  0
LINE
  8
0
 10
-51.000038
 20
40.000000
 11
28.998474
 21
40.000000
  0
LINE
  8
0
 10
-51.000034
 20
40.000000
 11
-51.000034
 21
20.000002
  0
LINE
  8
0
 10
-51.000042
 20
39.999992
 11
-53.000046
 21
41.999996
  0
LINE
  8
0
 10
-47.000034
 20
31.499992
 11
17.998413
 21
31.499992
  0
LINE
  8
0
 10
-47.000034
 20
33.374996
 11
17.998413
 21
33.374996
  0
LINE
  8
0
 10
-47.000034
 20
37.625000
 11
17.998413
 21
37.625000
  0
LINE
  8
0
 10
-3.208138
 20
31.249996
 11
-2.458153
 21
31.249996
  0
LINE
  8
0
 10
-1.458145
 20
31.249996
 11
-0.708145
 21
31.249996
  0
LINE
  8
0
  6
CENTER
 62
     2
 10
22.983490
 20
35.500000
 11
32.526917
 21
35.500000
  0
LINE
  8
0
 10
26.249435
 20
37.250004
 11
28.998474
 21
37.250004
  0
LINE
  8
0
 10
26.249435
 20
33.750004
 11
28.998474
 21
33.750004
  0
LINE
  8
0
 10
-78.000031
 20
-11.999992
 11
-47.000034
 21
-11.999992
  0
LINE
  8
0
 10
-47.000034
 20
-11.799992
 11
17.998413
 21
-11.799992
  0
LINE
  8
0
 10
17.995438
 20
-11.999992
 11
38.998535
 21
-11.999992
  0
LINE
  8
0
 10
-95.000031
 20
-10.999992
 11
-85.000038
 21
-10.999992
  0
LINE
  8
0
 10
-80.000031
 20
26.000002
 11
-78.000031
 21
26.000002
  0
LINE
  8
0
 62
     2
 10
-80.000008
 20
26.500036
 11
-79.133987
 21
26.000036
  0
LINE
  8
0
  6
CENTER
 62
     2
 10
-86.710716
 20
1.500008
 11
-75.022293
 21
1.500008
  0
LINE
  8
0
 10
-85.000038
 20
-4.499989
 11
-78.000031
 21
-4.499989
  0
LINE
  8
0
 10
-85.000038
 20
7.500006
 11
-78.000031
 21
7.500006
  0
LINE
  8
0
  6
CENTER
 62
     2
 10
-94.096359
 20
9.000002
 11
-86.247322
 21
9.000002
  0
LINE
  8
0
  6
CENTER
 62
     2
 10
-90.000038
 20
4.200476
 11
-90.000038
 21
13.849852
  0
LINE
  8
0
  6
CENTER
 62
     2
 10
-71.500031
 20
10.634024
 11
-71.500031
 21
24.430454
  0
LINE
  8
0
  6
CENTER
 62
     2
 10
-60.000034
 20
10.076590
 11
-60.000034
 21
24.430454
  0
LINE
  8
0
  6
CENTER
 62
     2
 10
-79.098129
 20
17.500006
 11
-53.143955
 21
17.500006
  0
LINE
  8
0
 10
-53.000038
 20
18.000004
 11
28.998474
 21
18.000004
  0
LINE
  8
0
 10
-51.000038
 20
20.000004
 11
28.998474
 21
20.000004
  0
LINE
  8
0
 10
-51.000023
 20
19.999987
 11
-53.000019
 21
17.999990
  0
LINE
  8
0
 10
-47.000034
 20
28.500002
 11
17.998413
 21
28.500002
  0
LINE
  8
0
 10
-47.000034
 20
26.624996
 11
17.998413
 21
26.624996
  0
LINE
  8
0
 10
-47.000034
 20
22.374998
 11
17.998413
 21
22.374998
  0
LINE
  8
0
 10
-3.208138
 20
28.749996
 11
-2.458153
 21
28.749996
  0
LINE
  8
0
 10
-1.458145
 20
28.749996
 11
-0.708145
 21
28.749996
  0
LINE
  8
0
  6
CENTER
 62
     2
 10
22.983490
 20
24.500002
 11
34.066925
 21
24.500002
  0
LINE
  8
0
 10
26.249435
 20
22.750008
 11
28.998474
 21
22.750008
  0
LINE
  8
0
 10
26.249435
 20
26.250000
 11
28.998474
 21
26.250000
  0
LINE
  8
0
  6
CENTER
 62
     2
 10
29.684814
 20
40.000099
 11
38.466919
 21
40.000099
  0
LINE
  8
0
  6
CENTER
 62
     2
 10
33.996979
 20
36.234619
 11
33.996979
 21
44.376369
  0
LINE
  8
0
 10
-80.000031
 20
38.499996
 11
-80.000031
 21
21.500002
  0
LINE
  8
0
 10
-80.000031
 20
38.499996
 11
-85.000038
 21
38.499996
  0
LINE
  8
0
 10
-85.000038
 20
71.000000
 11
-85.000038
 21
-10.999992
  0
LINE
  8
0
 10
-80.000031
 20
21.500002
 11
-85.000038
 21
21.500002
  0
LINE
  8
0
 62
     4
 10
-47.000034
 20
94.800110
 11
17.998413
 21
94.800110
  0
LINE
  8
0
 62
     4
 10
17.998444
 20
95.000122
 11
28.998474
 21
95.000122
  0
LINE
  8
0
 10
-78.000031
 20
72.000000
 11
-78.000031
 21
-11.999992
  0
LINE
  8
0
 10
-47.000034
 20
-11.999992
 11
-47.000034
 21
72.000000
  0
LINE
  8
0
 10
17.998436
 20
-11.999992
 11
17.998436
 21
72.000000
  0
LINE
  8
0
 62
     4
 10
28.998474
 20
95.000122
 11
28.998474
 21
72.000000
  0
LINE
  8
0
  6
CENTER
 62
     1
 10
-77.675034
 20
80.999985
 11
45.473999
 21
80.999985
  0
LINE
  8
0
 10
17.995064
 20
72.000000
 11
17.995064
 21
71.800003
  0
LINE
  8
0
  6
CENTER
 62
     2
 10
-97.627525
 20
29.999998
 11
83.721268
 21
29.999998
  0
LINE
  8
0
 10
38.998535
 20
72.000000
 11
38.998535
 21
-11.999992
  0
LINE
  8
0
  6
CENTER
 62
     2
 10
29.684814
 20
19.999897
 11
38.466919
 21
19.999897
  0
LINE
  8
0
  6
CENTER
 62
     2
 10
33.996979
 20
16.234417
 11
33.996979
 21
24.376165
  0
LINE
  8
0
 10
80.998566
 20
71.000000
 11
70.998566
 21
71.000000
  0
LINE
  8
0
  6
CENTER
 62
     2
 10
72.709259
 20
58.500000
 11
34.891296
 21
58.500000
  0
LINE
  8
0
 10
70.998566
 20
64.500000
 11
38.998535
 21
64.500000
  0
LINE
  8
0
 10
70.998566
 20
52.500000
 11
38.998535
 21
52.500000
  0
LINE
  8
0
  6
CENTER
 62
     2
 10
80.998566
 20
51.000000
 11
71.566620
 21
51.000000
  0
LINE
  8
0
 10
80.998566
 20
-10.999992
 11
70.998566
 21
-10.999992
  0
LINE
  8
0
  6
CENTER
 62
     2
 10
72.709259
 20
1.500008
 11
35.081284
 21
1.500008
  0
LINE
  8
0
 10
70.998566
 20
-4.499989
 11
38.998535
 21
-4.499989
  0
LINE
  8
0
 10
70.998566
 20
7.500006
 11
38.998535
 21
7.500006
  0
LINE
  8
0
  6
CENTER
 62
     2
 10
81.156235
 20
9.000002
 11
71.433258
 21
9.000002
  0
LINE
  8
0
  6
CENTER
 62
     2
 10
75.998566
 20
4.200476
 11
75.998566
 21
14.603585
  0
LINE
  8
0
 10
70.998581
 20
71.000000
 11
70.998581
 21
-10.999992
  0
LINE
  8
0
  6
CENTER
 62
     2
 10
75.998566
 20
56.001553
 11
75.998566
 21
45.998451
  0
LINE
  8
0
  6
CENTER
 62
     2
 10
-90.000038
 20
55.001244
 11
-90.000038
 21
46.998760
  0
LINE
  8
0
  6
CENTER
 62
     2
 10
26.248581
 20
38.906891
 11
26.248581
 21
21.377855
  0
LINE
  8
0
 10
-53.000042
 20
41.999996
 11
-53.000042
 21
18.000004
  0
LINE
  8
0
 62
     4
 10
39.998474
 20
87.999992
 11
39.998474
 21
73.999985
  0
LINE
  8
0
 62
     4
 10
28.998474
 20
88.999992
 11
38.998474
 21
88.999992
  0
LINE
  8
0
 62
     1
 10
28.998474
 20
87.999992
 11
39.998474
 21
87.999992
  0
LINE
  8
0
 62
     4
 10
39.998409
 20
87.999947
 11
38.998409
 21
88.999947
  0
LINE
  8
0
 62
     4
 10
28.998474
 20
72.999985
 11
38.998474
 21
72.999985
  0
LINE
  8
0
 62
     1
 10
28.998474
 20
73.999985
 11
39.998474
 21
73.999985
  0
LINE
  8
0
 62
     4
 10
39.998470
 20
73.999985
 11
38.998474
 21
72.999992
  0
LINE
  8
0
 62
     4
 10
38.998474
 20
88.999992
 11
38.998474
 21
72.999985
  0
LINE
  8
0
 62
     4
 10
-47.000034
 20
72.000000
 11
-47.000034
 21
95.000122
  0
LINE
  8
0
 62
     4
 10
17.998436
 20
72.000000
 11
17.998436
 21
95.000122
  0
LINE
  8
0
 10
28.998474
 20
72.000000
 11
28.998474
 21
-11.999992
  0
LINE
  8
0
 62
     4
 10
-47.000046
 20
95.000122
 11
-58.000076
 21
95.000122
  0
LINE
  8
0
 62
     4
 10
-58.000076
 20
95.000122
 11
-58.000076
 21
72.000000
  0
LINE
  8
0
 62
     4
 10
-68.000076
 20
88.999992
 11
-68.000076
 21
72.999985
  0
LINE
  8
0
 62
     4
 10
-69.000076
 20
87.999992
 11
-69.000076
 21
73.999985
  0
LINE
  8
0
 62
     4
 10
-58.000076
 20
88.999992
 11
-68.000076
 21
88.999992
  0
LINE
  8
0
 62
     1
 10
-58.000076
 20
87.999992
 11
-69.000076
 21
87.999992
  0
LINE
  8
0
 62
     4
 10
-69.000031
 20
87.999931
 11
-68.000031
 21
88.999931
  0
LINE
  8
0
 62
     4
 10
-58.000076
 20
72.999985
 11
-68.000076
 21
72.999985
  0
LINE
  8
0
 62
     1
 10
-58.000076
 20
73.999985
 11
-69.000076
 21
73.999985
  0
LINE
  8
0
 62
     4
 10
-69.000069
 20
73.999985
 11
-68.000069
 21
72.999985
  0
LINE
  8
0
  6
PHANTOM
 62
     3
 10
-14.500801
 20
-51.575657
 11
-14.500801
 21
115.400604
  0
LINE
  8
0
  6
PHANTOM
 62
     3
 10
54.998550
 20
-51.575657
 11
54.998550
 21
105.400604
  0
LINE
  8
0
 10
-213.528824
 20
72.000008
 11
-213.528824
 21
-11.999981
  0
LINE
  8
0
 10
-213.528824
 20
72.000008
 11
-179.528854
 21
72.000008
  0
LINE
  8
0
 10
-183.528854
 20
71.000008
 11
-183.528854
 21
-10.999985
  0
LINE
  8
0
 10
-212.528824
 20
71.000008
 11
-212.528824
 21
-10.999985
  0
LINE
  8
0
 10
-212.528824
 20
71.000015
 11
-183.528854
 21
71.000015
  0
LINE
  8
0
 10
-177.528854
 20
40.000008
 11
-177.528854
 21
20.000015
  0
LINE
  8
0
 10
-179.528885
 20
41.999844
 11
-177.528915
 21
39.999866
  0
LINE
  8
0
  6
CENTER
 62
     2
 10
-203.780701
 20
47.000011
 11
-193.007309
 21
47.000011
  0
LINE
  8
0
  6
CENTER
 62
     2
 10
-205.759857
 20
58.500008
 11
-189.936600
 21
58.500008
  0
LINE
  8
0
 10
-195.719559
 20
58.500031
 11
-196.874252
 21
56.500034
  0
LINE
  8
0
 10
-196.874207
 20
60.499947
 11
-195.719513
 21
58.499962
  0
LINE
  8
0
 10
-199.183533
 20
60.500004
 11
-196.874130
 21
60.500004
  0
LINE
  8
0
 10
-200.338394
 20
58.500065
 11
-199.183701
 21
60.500053
  0
LINE
  8
0
 10
-199.183914
 20
56.499855
 11
-200.338593
 21
58.499832
  0
LINE
  8
0
 10
-196.874130
 20
56.499977
 11
-199.183533
 21
56.499977
  0
LINE
  8
0
  6
CENTER
 62
     2
 10
-198.028824
 20
75.792816
 11
-198.028824
 21
-16.871178
  0
LINE
  8
0
 10
-213.528824
 20
-11.999981
 11
-179.528854
 21
-11.999981
  0
LINE
  8
0
 10
-212.528824
 20
-10.999981
 11
-183.528854
 21
-10.999981
  0
LINE
  8
0
 10
-179.528931
 20
18.000135
 11
-177.528961
 21
20.000120
  0
LINE
  8
0
  6
CENTER
 62
     2
 10
-203.479721
 20
13.000013
 11
-192.555893
 21
13.000013
  0
LINE
  8
0
  6
CENTER
 62
     2
 10
-205.646988
 20
1.500019
 11
-189.936600
 21
1.500019
  0
LINE
  8
0
 10
-195.719498
 20
1.500024
 11
-196.874191
 21
3.500012
  0
LINE
  8
0
 10
-196.874039
 20
-0.500034
 11
-195.719345
 21
1.499972
  0
LINE
  8
0
 10
-199.183533
 20
-0.499985
 11
-196.874130
 21
-0.499985
  0
LINE
  8
0
 10
-200.338333
 20
1.499975
 11
-199.183640
 21
-0.500013
  0
LINE
  8
0
 10
-199.183533
 20
3.499910
 11
-200.338226
 21
1.499922
  0
LINE
  8
0
 10
-196.874130
 20
3.500050
 11
-199.183533
 21
3.500050
  0
LINE
  8
0
  6
CENTER
 62
     2
 10
-216.167236
 20
30.000011
 11
-174.396347
 21
30.000011
  0
LINE
  8
0
 10
-188.213943
 20
30.000011
 11
-193.121414
 21
21.500013
  0
LINE
  8
0
 10
-193.121399
 20
38.499981
 11
-188.213928
 21
29.999992
  0
LINE
  8
0
 10
-202.936295
 20
38.500000
 11
-193.121353
 21
38.500000
  0
LINE
  8
0
 10
-207.843826
 20
30.000048
 11
-202.936356
 21
38.500038
  0
LINE
  8
0
 10
-202.936615
 20
21.499872
 11
-207.844101
 21
29.999878
  0
LINE
  8
0
 10
-193.121353
 20
21.499985
 11
-202.936295
 21
21.499985
  0
LINE
  8
0
 10
-179.528854
 20
72.000008
 11
-179.528854
 21
-11.999981
  0
LINE
  8
0
 62
     4
 10
-213.528854
 20
95.000122
 11
-179.528854
 21
95.000122
  0
LINE
  8
0
 62
     4
 10
-213.528854
 20
95.000122
 11
-213.528854
 21
72.000008
  0
LINE
  8
0
 62
     4
 10
-179.528854
 20
95.000122
 11
-179.528854
 21
72.000008
  0
LINE
  8
0
  6
CENTER
 62
     1
 10
-207.482773
 20
81.000000
 11
-185.879990
 21
81.000000
  0
LINE
  8
0
  6
CENTER
 62
     1
 10
-196.528824
 20
90.723495
 11
-196.528824
 21
72.386261
  0
LINE
  8
0
 10
174.558273
 20
71.999954
 11
174.558273
 21
-12.000034
  0
LINE
  8
0
 10
174.558273
 20
71.999954
 11
208.558273
 21
71.999954
  0
LINE
  8
0
  6
CENTER
 62
     2
 10
193.058273
 20
74.720062
 11
193.058273
 21
-15.629852
  0
LINE
  8
0
 10
172.558304
 20
39.999954
 11
172.558304
 21
19.999958
  0
LINE
  8
0
 10
172.558365
 20
39.999855
 11
174.558319
 21
41.999805
  0
LINE
  8
0
  6
CENTER
 62
     2
 10
170.724197
 20
35.499954
 11
177.964767
 21
35.499954
  0
LINE
  8
0
 10
172.558304
 20
37.249962
 11
174.558273
 21
37.249962
  0
LINE
  8
0
 10
172.558304
 20
33.749962
 11
174.558273
 21
33.749962
  0
LINE
  8
0
 10
208.558273
 20
-12.000034
 11
208.558273
 21
71.999954
  0
LINE
  8
0
 10
174.558273
 20
-12.000034
 11
208.558273
 21
-12.000034
  0
LINE
  8
0
 10
172.558212
 20
19.999916
 11
174.558212
 21
17.999910
  0
LINE
  8
0
  6
CENTER
 62
     2
 10
171.007187
 20
24.499958
 11
177.964767
 21
24.499958
  0
LINE
  8
0
 10
172.558304
 20
22.749962
 11
174.558273
 21
22.749962
  0
LINE
  8
0
 10
172.558304
 20
26.249958
 11
174.558273
 21
26.249958
  0
LINE
  8
0
  6
CENTER
 62
     2
 10
169.818375
 20
29.999958
 11
211.357224
 21
29.999958
  0
LINE
  8
0
 62
     4
 10
174.558273
 20
95.000076
 11
208.558273
 21
95.000076
  0
LINE
  8
0
 62
     4
 10
174.558273
 20
95.000076
 11
174.558273
 21
71.999954
  0
LINE
  8
0
 62
     4
 10
208.558273
 20
95.000076
 11
208.558273
 21
71.999954
  0
LINE
  8
0
  6
CENTER
 62
     1
 10
180.604355
 20
80.999947
 11
202.207138
 21
80.999947
  0
LINE
  8
0
  6
CENTER
 62
     1
 10
191.558304
 20
90.723442
 11
191.558304
 21
72.386200
  0
LINE
  8
0
  6
CENTER
 62
     2
 10
198.810135
 20
46.999958
 11
188.036758
 21
46.999958
  0
LINE
  8
0
  6
CENTER
 62
     2
 10
200.789322
 20
58.499954
 11
184.966019
 21
58.499954
  0
LINE
  8
0
 10
190.749207
 20
58.500092
 11
191.903885
 21
56.500103
  0
LINE
  8
0
 10
191.903503
 20
60.499977
 11
190.748810
 21
58.499969
  0
LINE
  8
0
 10
194.212967
 20
60.499950
 11
191.903580
 21
60.499950
  0
LINE
  8
0
 10
195.367996
 20
58.500095
 11
194.213318
 21
60.500092
  0
LINE
  8
0
 10
194.213196
 20
56.499832
 11
195.367920
 21
58.499817
  0
LINE
  8
0
 10
191.903580
 20
56.499924
 11
194.212967
 21
56.499924
  0
LINE
  8
0
  6
CENTER
 62
     2
 10
198.509171
 20
12.999960
 11
187.585342
 21
12.999960
  0
LINE
  8
0
  6
CENTER
 62
     2
 10
200.676407
 20
1.499966
 11
184.966019
 21
1.499966
  0
LINE
  8
0
 10
190.748795
 20
1.500005
 11
191.903458
 21
3.499985
  0
LINE
  8
0
 10
191.903656
 20
-0.499943
 11
190.748978
 21
1.500054
  0
LINE
  8
0
 10
194.212967
 20
-0.500038
 11
191.903580
 21
-0.500038
  0
LINE
  8
0
 10
195.367767
 20
1.499922
 11
194.213043
 21
-0.500083
  0
LINE
  8
0
 10
194.212936
 20
3.499902
 11
195.367661
 21
1.499897
  0
LINE
  8
0
 10
191.903580
 20
3.499996
 11
194.212967
 21
3.499996
  0
LINE
  8
0
 10
178.558304
 20
70.999954
 11
178.558304
 21
-11.000038
  0
LINE
  8
0
 10
207.558243
 20
70.999954
 11
178.558304
 21
70.999954
  0
LINE
  8
0
 10
207.558243
 20
70.999954
 11
207.558243
 21
-11.000038
  0
LINE
  8
0
 10
207.558243
 20
-11.000034
 11
178.558304
 21
-11.000034
  0
LINE
  8
0
  6
CENTER
 62
     2
 10
86.494179
 20
-88.211479
 11
-99.062180
 21
-88.211479
  0
LINE
  8
0
 10
80.998543
 20
-73.711479
 11
70.998543
 21
-73.711479
  0
LINE
  8
0
 10
28.998405
 20
-67.711479
 11
28.998405
 21
-103.711479
  0
LINE
  8
0
 10
-78.000053
 20
-103.711479
 11
-47.000057
 21
-103.711479
  0
LINE
  8
0
 10
17.995415
 20
-103.711479
 11
38.998512
 21
-103.711479
  0
LINE
  8
0
 10
-78.000053
 20
-69.711479
 11
-47.000057
 21
-69.711479
  0
LINE
  8
0
 10
-78.000053
 20
-69.711479
 11
-78.000053
 21
-103.711479
  0
LINE
  8
0
 10
-47.000057
 20
-67.711479
 11
-47.000057
 21
-103.711479
  0
LINE
  8
0
 10
17.998390
 20
-67.711479
 11
17.998390
 21
-103.711479
  0
LINE
  8
0
 10
17.995415
 20
-69.711479
 11
38.998512
 21
-69.711479
  0
LINE
  8
0
 10
-47.000057
 20
-103.511467
 11
17.998390
 21
-103.511467
  0
LINE
  8
0
 10
-47.000057
 20
-69.911476
 11
17.998390
 21
-69.911476
  0
LINE
  8
0
 10
-95.000053
 20
-73.711479
 11
-95.000053
 21
-102.711464
  0
LINE
  8
0
 10
-95.000053
 20
-102.711479
 11
-85.000061
 21
-102.711479
  0
LINE
  8
0
 10
-95.000053
 20
-73.711479
 11
-85.000061
 21
-73.711479
  0
LINE
  8
0
 10
-80.000053
 20
-80.804390
 11
-80.000053
 21
-82.211479
  0
LINE
  8
0
 10
-80.657524
 20
-78.396538
 11
-80.000046
 21
-80.850281
  0
LINE
  8
0
 10
-80.657532
 20
-78.396538
 11
-84.342575
 21
-78.396538
  0
LINE
  8
0
 10
-85.000069
 20
-73.711479
 11
-85.000069
 21
-102.711464
  0
LINE
  8
0
 10
-84.342636
 20
-78.396484
 11
-85.000107
 21
-80.850227
  0
LINE
  8
0
 10
-80.000053
 20
-95.618584
 11
-80.000053
 21
-94.211494
  0
LINE
  8
0
 10
-80.657578
 20
-98.026428
 11
-80.000099
 21
-95.572685
  0
LINE
  8
0
 10
-80.657532
 20
-98.026421
 11
-84.342575
 21
-98.026421
  0
LINE
  8
0
 10
-84.342781
 20
-98.026443
 11
-85.000252
 21
-95.572723
  0
LINE
  8
0
 10
-78.000053
 20
-82.211479
 11
-85.000061
 21
-82.211479
  0
LINE
  8
0
 10
-78.000053
 20
-94.211479
 11
-85.000061
 21
-94.211479
  0
LINE
  8
0
  6
CENTER
 62
     2
 10
-87.000061
 20
-98.211464
 11
-93.000053
 21
-98.211464
  0
LINE
  8
0
  6
CENTER
 62
     2
 10
-86.317055
 20
-78.211494
 11
-93.738663
 21
-78.211494
  0
LINE
  8
0
  6
CENTER
 62
     2
 10
-90.000061
 20
-73.502937
 11
-90.000061
 21
-81.877495
  0
LINE
  8
0
  6
CENTER
 62
     2
 10
-90.000061
 20
-94.414574
 11
-90.000061
 21
-101.883476
  0
LINE
  8
0
  6
CENTER
 62
     2
 10
-72.500053
 20
-71.038017
 11
-72.500053
 21
-79.143349
  0
LINE
  8
0
  6
CENTER
 62
     2
 10
-52.500057
 20
-70.705559
 11
-52.500057
 21
-78.943291
  0
LINE
  8
0
  6
CENTER
 62
     2
 10
-76.949486
 20
-98.211464
 11
-68.511734
 21
-98.211464
  0
LINE
  8
0
  6
CENTER
 62
     2
 10
-76.783257
 20
-75.211479
 11
-68.778481
 21
-75.211479
  0
LINE
  8
0
  6
CENTER
 62
     2
 10
-72.500053
 20
-94.281197
 11
-72.500053
 21
-101.750099
  0
LINE
  8
0
  6
CENTER
 62
     2
 10
-56.441463
 20
-75.211479
 11
-48.572445
 21
-75.211479
  0
LINE
  8
0
  6
CENTER
 62
     2
 10
-52.500057
 20
-94.414574
 11
-52.500057
 21
-101.550041
  0
LINE
  8
0
  6
CENTER
 62
     2
 10
-56.441463
 20
-98.211464
 11
-48.639130
 21
-98.211464
  0
LINE
  8
0
  6
CENTER
 62
     2
 10
27.735077
 20
-98.211464
 11
19.294380
 21
-98.211464
  0
LINE
  8
0
  6
CENTER
 62
     2
 10
27.568840
 20
-75.211479
 11
19.294380
 21
-75.211479
  0
LINE
  8
0
  6
CENTER
 62
     2
 10
23.498405
 20
-71.320961
 11
23.498405
 21
-79.156853
  0
LINE
  8
0
  6
CENTER
 62
     2
 10
23.498405
 20
-94.002617
 11
23.498405
 21
-102.196724
  0
LINE
  8
0
 10
-51.000061
 20
-67.711487
 11
-47.000057
 21
-67.711487
  0
LINE
  8
0
 10
-53.000027
 20
-69.711571
 11
-51.000023
 21
-67.711555
  0
LINE
  8
0
 10
-47.000057
 20
-67.911469
 11
17.998390
 21
-67.911469
  0
LINE
  8
0
 10
17.998421
 20
-67.711487
 11
28.998451
 21
-67.711487
  0
LINE
  8
0
 10
38.998512
 20
-69.711479
 11
38.998512
 21
-103.711479
  0
LINE
  8
0
 10
80.998543
 20
-73.711479
 11
80.998543
 21
-102.711464
  0
LINE
  8
0
 10
80.998543
 20
-102.711479
 11
70.998543
 21
-102.711479
  0
LINE
  8
0
 10
70.998558
 20
-73.711479
 11
70.998558
 21
-102.711464
  0
LINE
  8
0
  6
CENTER
 62
     2
 10
75.998543
 20
-94.414574
 11
75.998543
 21
-101.883476
  0
LINE
  8
0
  6
CENTER
 62
     2
 10
75.998543
 20
-73.502937
 11
75.998543
 21
-81.877495
  0
LINE
  8
0
  6
CENTER
 62
     2
 10
72.315559
 20
-78.211494
 11
79.665779
 21
-78.211494
  0
LINE
  8
0
  6
CENTER
 62
     2
 10
72.998528
 20
-98.211464
 11
78.998528
 21
-98.211464
  0
LINE
  8
0
 10
38.998512
 20
-82.211479
 11
70.998543
 21
-82.211479
  0
LINE
  8
0
 10
38.998512
 20
-94.211479
 11
70.998543
 21
-94.211479
  0
LINE
  8
0
 62
     4
 10
39.998817
 20
-79.709312
 11
39.998817
 21
-82.211479
  0
LINE
  8
0
 62
     4
 10
38.998528
 20
-78.708984
 11
39.998833
 21
-79.709305
  0
LINE
  8
0
 62
     4
 10
39.500938
 20
-94.211433
 11
38.998447
 21
-94.713928
  0
LINE
  8
0
 62
     1
 10
39.998817
 20
-79.709312
 11
38.998512
 21
-79.709312
  0
LINE
  8
0
  6
PHANTOM
 62
     3
 10
-14.500832
 20
-51.561630
 11
-14.500832
 21
-116.253021
  0
LINE
  8
0
  6
PHANTOM
 62
     3
 10
54.998528
 20
-51.561630
 11
54.998528
 21
-116.253021
  0
LINE
  8
0
 10
-281.250000
 20
195.500000
 11
282.099976
 21
195.500000
  0
LINE
  8
0
 10
-281.250000
 20
195.500000
 11
-281.250000
 21
-195.000000
  0
LINE
  8
0
 10
282.099976
 20
195.500000
 11
282.099976
 21
-195.000000
  0
LINE
  8
0
 10
-281.250000
 20
-195.000000
 11
282.099976
 21
-195.000000
  0
LINE
  8
0
 10
162.099976
 20
-175.000000
 11
162.099976
 21
-195.000000
  0
LINE
  8
0
 10
162.099976
 20
-175.000000
 11
282.099976
 21
-175.000000
  0
LINE
  8
0
 10
162.099976
 20
175.500000
 11
282.099976
 21
175.500000
  0
LINE
  8
0
 10
-281.250000
 20
175.500000
 11
-161.250000
 21
175.500000
  0
LINE
  8
0
 10
162.099976
 20
195.500000
 11
162.099976
 21
175.500000
  0
LINE
  8
0
 10
-161.250000
 20
195.500000
 11
-161.250000
 21
175.500000
  0
LINE
  8
0
 10
-271.250000
 20
-129.000000
 11
-271.250000
 21
-185.000000
  0
LINE
  8
0
 10
-221.250000
 20
-153.000000
 11
-221.250000
 21
-185.000000
  0
LINE
  8
0
 10
-177.250000
 20
-129.000000
 11
-177.250000
 21
-185.000000
  0
LINE
  8
0
 10
-155.250000
 20
-129.000000
 11
-155.250000
 21
-185.000000
  0
LINE
  8
0
 10
-133.250000
 20
-129.000000
 11
-133.250000
 21
-185.000000
  0
LINE
  8
0
 10
-111.250000
 20
-129.000000
 11
-111.250000
 21
-185.000000
  0
LINE
  8
0
 10
-45.250000
 20
-129.000000
 11
-45.250000
 21
-185.000000
  0
LINE
  8
0
 10
-199.250000
 20
-129.000000
 11
-199.250000
 21
-185.000000
  0
LINE
  8
0
 10
-221.250015
 20
-153.000000
 11
-271.250000
 21
-129.000000
  0
LINE
  8
0
 10
-249.250000
 20
-137.000000
 11
-208.487595
 21
-137.000000
  0
LINE
  8
0
 10
-199.249969
 20
-152.999969
 11
-208.487564
 21
-136.999969
  0
LINE
  8
0
 10
-249.250046
 20
-137.000107
 11
-271.250061
 21
-129.000107
  0
LINE
  8
0
 10
-89.250000
 20
-129.000000
 11
-89.250000
 21
-185.000000
  0
LINE
  8
0
 10
-67.250000
 20
-129.000000
 11
-67.250000
 21
-185.000000
  0
LINE
  8
0
 10
-271.250000
 20
-185.000000
 11
-45.250000
 21
-185.000000
  0
LINE
  8
0
 10
-271.250000
 20
-153.000000
 11
-45.250000
 21
-153.000000
  0
LINE
  8
0
 10
-271.250000
 20
-129.000000
 11
-45.250000
 21
-129.000000
  0
LINE
  8
0
 10
-221.250000
 20
-177.000000
 11
-45.250000
 21
-177.000000
  0
LINE
  8
0
 10
-221.250000
 20
-161.000000
 11
-45.250000
 21
-161.000000
  0
LINE
  8
0
 10
-271.250000
 20
-169.000000
 11
-45.250000
 21
-169.000000
  0
CIRCLE
  8
0
 10
75.998566
 20
9.000002
 40
2.100000
  0
CIRCLE
  8
0
 10
-90.000038
 20
9.000002
 40
2.100000
  0
CIRCLE
  8
0
 10
33.996979
 20
19.999897
 40
2.100000
  0
CIRCLE
  8
0
 10
75.998566
 20
51.000000
 40
2.100000
  0
CIRCLE
  8
0
 10
33.996979
 20
40.000099
 40
2.100000
  0
CIRCLE
  8
0
 10
-90.000038
 20
51.000000
 40
2.100000
  0
ARC
  8
0
 10
-1.958145
 20
31.249996
 40
0.500000
 50
180.000000
 51
0.000000
  0
ARC
  8
0
 10
-0.708145
 20
29.999998
 40
1.250000
 50
270.000031
 51
89.999977
  0
ARC
  8
0
 10
-3.208145
 20
29.999998
 40
1.250000
 50
89.999977
 51
270.000000
  0
ARC
  8
0
 10
26.249435
 20
35.500000
 40
1.750000
 50
90.000000
 51
270.000000
  0
ARC
  8
0
 10
-67.311172
 20
25.750004
 40
17.688858
 50
166.097870
 51
193.902161
  0
CIRCLE
  8
0
 62
     2
 10
33.996979
 20
40.000099
 40
2.500775
  0
CIRCLE
  8
0
 10
-60.000034
 20
17.500006
 40
2.750000
  0
CIRCLE
  8
0
 10
-71.500031
 20
17.500006
 40
2.750000
  0
CIRCLE
  8
0
 10
-71.500031
 20
17.500006
 40
4.750000
  0
ARC
  8
0
 10
-1.958145
 20
28.749996
 40
0.500000
 50
0.000000
 51
180.000000
  0
ARC
  8
0
 10
-67.311172
 20
34.250004
 40
17.688862
 50
166.097824
 51
193.902100
  0
ARC
  8
0
 10
-97.688889
 20
25.750004
 40
17.688862
 50
346.097809
 51
13.902082
  0
ARC
  8
0
 10
-97.688889
 20
34.250004
 40
17.688858
 50
346.097870
 51
13.902137
  0
ARC
  8
0
 10
26.249435
 20
24.500002
 40
1.750000
 50
89.999939
 51
269.999939
  0
CIRCLE
  8
0
 10
-60.000034
 20
17.500006
 40
4.750000
  0
CIRCLE
  8
0
 62
     2
 10
-90.000038
 20
9.000002
 40
2.500000
  0
CIRCLE
  8
0
 62
     2
 10
75.998566
 20
9.000002
 40
2.500000
  0
CIRCLE
  8
0
 62
     2
 10
75.998566
 20
51.000000
 40
2.500000
  0
CIRCLE
  8
0
 62
     2
 10
33.996979
 20
19.999897
 40
2.500775
  0
CIRCLE
  8
0
 62
     2
 10
-90.000038
 20
51.000000
 40
2.500000
  0
CIRCLE
  8
0
 10
-71.500031
 20
42.499992
 40
2.750000
  0
CIRCLE
  8
0
 10
-60.000034
 20
42.499992
 40
2.750000
  0
CIRCLE
  8
0
 10
-71.500031
 20
42.499992
 40
4.750000
  0
CIRCLE
  8
0
 10
-60.000034
 20
42.499992
 40
4.750000
  0
CIRCLE
  8
0
 10
-198.028824
 20
47.000011
 40
2.500000
  0
CIRCLE
  8
0
 62
     2
 10
-198.028824
 20
30.000011
 40
3.375000
  0
CIRCLE
  8
0
 10
-198.028824
 20
13.000013
 40
2.500000
  0
CIRCLE
  8
0
 62
     4
 10
-196.528824
 20
81.000000
 40
8.000000
  0
CIRCLE
  8
0
 62
     2
 10
-198.028824
 20
47.000011
 40
3.000000
  0
CIRCLE
  8
0
 10
-198.028824
 20
58.500008
 40
4.750000
  0
CIRCLE
  8
0
 62
     1
 10
-196.528824
 20
81.000000
 40
7.000000
  0
CIRCLE
  8
0
 10
-198.028824
 20
1.500019
 40
4.250000
  0
CIRCLE
  8
0
 10
-198.028824
 20
58.500008
 40
4.250000
  0
CIRCLE
  8
0
 62
     2
 10
-198.028824
 20
13.000013
 40
3.000000
  0
CIRCLE
  8
0
 10
-198.028824
 20
1.500019
 40
4.750000
  0
CIRCLE
  8
0
 10
-198.028824
 20
30.000011
 40
12.499999
  0
CIRCLE
  8
0
 10
-198.028824
 20
30.000011
 40
4.000000
  0
CIRCLE
  8
0
 10
193.058273
 20
1.499966
 40
4.250000
  0
CIRCLE
  8
0
 10
193.058273
 20
46.999958
 40
2.500000
  0
CIRCLE
  8
0
 10
193.058273
 20
1.499966
 40
4.750000
  0
CIRCLE
  8
0
 10
193.058273
 20
12.999960
 40
2.500000
  0
CIRCLE
  8
0
 10
193.058273
 20
58.499954
 40
4.750000
  0
CIRCLE
  8
0
 62
     2
 10
193.058273
 20
12.999960
 40
3.000000
  0
CIRCLE
  8
0
 10
193.058273
 20
58.499954
 40
4.250000
  0
ARC
  8
0
 10
175.208267
 20
35.499954
 40
1.749999
 50
111.803543
 51
248.196457
  0
CIRCLE
  8
0
 62
     4
 10
191.558304
 20
80.999947
 40
8.000000
  0
ARC
  8
0
 10
175.208267
 20
24.499958
 40
1.749999
 50
111.803543
 51
248.196426
  0
CIRCLE
  8
0
 62
     1
 10
191.558304
 20
80.999947
 40
7.000000
  0
CIRCLE
  8
0
 62
     2
 10
193.058273
 20
46.999958
 40
3.000000
  0
CIRCLE
  8
0
 10
-72.500053
 20
-98.211464
 40
2.100000
  0
CIRCLE
  8
0
 10
75.998543
 20
-98.211464
 40
2.100000
  0
CIRCLE
  8
0
 10
75.998543
 20
-78.211494
 40
2.100000
  0
CIRCLE
  8
0
 10
23.498405
 20
-98.211464
 40
2.100000
  0
CIRCLE
  8
0
 10
-52.500057
 20
-75.211479
 40
2.100000
  0
CIRCLE
  8
0
 10
23.498405
 20
-75.211479
 40
2.100000
  0
CIRCLE
  8
0
 10
-52.500057
 20
-98.211464
 40
2.100000
  0
CIRCLE
  8
0
 62
     2
 10
23.498405
 20
-98.211464
 40
2.500000
  0
CIRCLE
  8
0
 62
     2
 10
75.998543
 20
-78.211494
 40
2.500000
  0
CIRCLE
  8
0
 62
     2
 10
-52.500057
 20
-98.211464
 40
2.500000
  0
CIRCLE
  8
0
 62
     2
 10
-90.000061
 20
-98.211464
 40
2.500000
  0
CIRCLE
  8
0
 62
     2
 10
-72.500053
 20
-98.211464
 40
2.500000
  0
CIRCLE
  8
0
 62
     2
 10
-72.500053
 20
-75.211479
 40
2.500000
  0
ARC
  8
0
 10
-79.921349
 20
-95.618584
 40
5.078920
 50
163.915909
 51
180.000000
  0
CIRCLE
  8
0
 62
     2
 10
-90.000061
 20
-78.211494
 40
2.500000
  0
ARC
  8
0
 10
-85.078766
 20
-80.804375
 40
5.078920
 50
343.915894
 51
0.000000
  0
ARC
  8
0
 10
-85.078766
 20
-95.618584
 40
5.078918
 50
359.999908
 51
16.084095
  0
ARC
  8
0
 10
-79.921349
 20
-80.804375
 40
5.078918
 50
180.000000
 51
196.084091
  0
CIRCLE
  8
0
 62
     2
 10
-52.500057
 20
-75.211479
 40
2.500000
  0
CIRCLE
  8
0
 62
     2
 10
23.498405
 20
-75.211479
 40
2.500000
  0
CIRCLE
  8
0
 62
     2
 10
75.998543
 20
-98.211464
 40
2.500000
  0
CIRCLE
  8
0
 10
-90.000061
 20
-78.211494
 40
2.100000
  0
CIRCLE
  8
0
 10
-90.000061
 20
-98.211464
 40
2.100000
  0
CIRCLE
  8
0
 10
-72.500053
 20
-75.211479
 40
2.100000
  0
TEXT
  8
0
 10
196.250259
 20
180.830002
 40
6.300000
  1
Ver. 2.0
 50
0.000000
 41
1.052632
 51
0.000000
  7
STANDARD
  0
TEXT
  8
0
 10
167.564667
 20
-192.100006
 40
9.000000
  1
KOGANEI CORP.
 50
0.000000
 41
1.052632
 51
0.000000
  7
STANDARD
  0
TEXT
  8
0
 10
-262.849731
 20
180.830002
 40
6.300000
  1
AXIS CYLINDER
 50
0.000000
 41
1.052632
 51
0.000000
  7
STANDARD
  0
TEXT
  8
0
 10
-232.550003
 20
145.830002
 40
6.300000
  1
XDAAD25*ST(25)-SSL
 50
0.000000
 41
1.052631
 51
0.000000
  7
STANDARD
  0
TEXT
  8
0
 10
-270.049988
 20
155.830002
 40
6.300000
  1
MODEL:XDAD25*ST(25)-SSL
 50
0.000000
 41
1.052631
 51
0.000000
  7
STANDARD
  0
TEXT
  8
0
 62
     3
 10
34.540157
 20
106.580116
 40
6.300000
  1
STRETCH LINE B
 50
0.000000
 41
1.052632
 51
0.000000
  7
STANDARD
  0
TEXT
  8
0
 10
-65.642860
 20
-128.050003
 40
4.500000
  1
(mm)
 50
0.000000
 41
1.052632
 51
0.000000
  7
STANDARD
  0
TEXT
  8
0
 10
-193.142853
 20
-144.050003
 40
4.500000
  1
25
 50
0.000000
 41
1.052632
 51
0.000000
  7
STANDARD
  0
TEXT
  8
0
 10
-171.142853
 20
-144.050003
 40
4.500000
  1
50
 50
0.000000
 41
1.052632
 51
0.000000
  7
STANDARD
  0
TEXT
  8
0
 10
-149.142853
 20
-144.050003
 40
4.500000
  1
75
 50
0.000000
 41
1.052632
 51
0.000000
  7
STANDARD
  0
TEXT
  8
0
 10
-129.392853
 20
-144.050003
 40
4.500000
  1
100
 50
0.000000
 41
1.052632
 51
0.000000
  7
STANDARD
  0
TEXT
  8
0
 10
-107.392853
 20
-144.050003
 40
4.500000
  1
125
 50
0.000000
 41
1.052632
 51
0.000000
  7
STANDARD
  0
TEXT
  8
0
 10
-190.892853
 20
-184.050003
 40
4.500000
  1
0
 50
0.000000
 41
1.052632
 51
0.000000
  7
STANDARD
  0
TEXT
  8
0
 10
-171.142853
 20
-184.050003
 40
4.500000
  1
25
 50
0.000000
 41
1.052632
 51
0.000000
  7
STANDARD
  0
TEXT
  8
0
 10
-149.142853
 20
-184.050003
 40
4.500000
  1
50
 50
0.000000
 41
1.052632
 51
0.000000
  7
STANDARD
  0
TEXT
  8
0
 10
-127.142853
 20
-184.050003
 40
4.500000
  1
75
 50
0.000000
 41
1.052632
 51
0.000000
  7
STANDARD
  0
TEXT
  8
0
 10
-63.392857
 20
-184.050003
 40
4.500000
  1
150
 50
0.000000
 41
1.052632
 51
0.000000
  7
STANDARD
  0
TEXT
  8
0
 10
-242.761658
 20
-136.050003
 40
4.500000
  1
STROKE
 50
0.000000
 41
1.052632
 51
0.000000
  7
STANDARD
  0
TEXT
  8
0
 10
-265.408447
 20
-152.050003
 40
4.500000
  1
TYPE
 50
0.000000
 41
1.052632
 51
0.000000
  7
STANDARD
  0
TEXT
  8
0
 10
-264.000000
 20
-178.699997
 40
4.500000
  1
XDAAD25
 50
0.000000
 41
1.052632
 51
0.000000
  7
STANDARD
  0
TEXT
  8
0
 10
-185.642853
 20
-127.050003
 40
4.500000
  1
STRETCH LIST
 50
0.000000
 41
1.052632
 51
0.000000
  7
STANDARD
  0
TEXT
  8
0
 10
-264.000000
 20
-162.699997
 40
4.500000
  1
XDAD25
 50
0.000000
 41
1.052632
 51
0.000000
  7
STANDARD
  0
TEXT
  8
0
 10
-190.892853
 20
-176.050003
 40
4.500000
  1
0
 50
0.000000
 41
1.052632
 51
0.000000
  7
STANDARD
  0
TEXT
  8
0
 10
-171.142853
 20
-176.050003
 40
4.500000
  1
25
 50
0.000000
 41
1.052632
 51
0.000000
  7
STANDARD
  0
TEXT
  8
0
 10
-149.142853
 20
-176.050003
 40
4.500000
  1
50
 50
0.000000
 41
1.052632
 51
0.000000
  7
STANDARD
  0
TEXT
  8
0
 10
-127.142853
 20
-176.050003
 40
4.500000
  1
75
 50
0.000000
 41
1.052632
 51
0.000000
  7
STANDARD
  0
TEXT
  8
0
 10
-63.392857
 20
-176.050003
 40
4.500000
  1
150
 50
0.000000
 41
1.052632
 51
0.000000
  7
STANDARD
  0
TEXT
  8
0
 10
-190.892853
 20
-160.050003
 40
4.500000
  1
0
 50
0.000000
 41
1.052632
 51
0.000000
  7
STANDARD
  0
TEXT
  8
0
 10
-171.142853
 20
-160.050003
 40
4.500000
  1
25
 50
0.000000
 41
1.052632
 51
0.000000
  7
STANDARD
  0
TEXT
  8
0
 10
-149.142853
 20
-160.050003
 40
4.500000
  1
50
 50
0.000000
 41
1.052632
 51
0.000000
  7
STANDARD
  0
TEXT
  8
0
 10
-127.142853
 20
-160.050003
 40
4.500000
  1
75
 50
0.000000
 41
1.052632
 51
0.000000
  7
STANDARD
  0
TEXT
  8
0
 10
-63.392857
 20
-160.050003
 40
4.500000
  1
150
 50
0.000000
 41
1.052632
 51
0.000000
  7
STANDARD
  0
TEXT
  8
0
 10
-190.892853
 20
-168.050003
 40
4.500000
  1
0
 50
0.000000
 41
1.052632
 51
0.000000
  7
STANDARD
  0
TEXT
  8
0
 10
-171.142853
 20
-168.050003
 40
4.500000
  1
25
 50
0.000000
 41
1.052632
 51
0.000000
  7
STANDARD
  0
TEXT
  8
0
 10
-149.142853
 20
-168.050003
 40
4.500000
  1
50
 50
0.000000
 41
1.052632
 51
0.000000
  7
STANDARD
  0
TEXT
  8
0
 10
-127.142853
 20
-168.050003
 40
4.500000
  1
75
 50
0.000000
 41
1.052632
 51
0.000000
  7
STANDARD
  0
TEXT
  8
0
 10
-63.392857
 20
-168.050003
 40
4.500000
  1
150
 50
0.000000
 41
1.052632
 51
0.000000
  7
STANDARD
  0
TEXT
  8
0
 10
-212.892654
 20
-184.050003
 40
4.500000
  1
B
 50
0.000000
 41
1.052632
 51
0.000000
  7
STANDARD
  0
TEXT
  8
0
 10
-212.892654
 20
-160.050003
 40
4.500000
  1
A
 50
0.000000
 41
1.052632
 51
0.000000
  7
STANDARD
  0
TEXT
  8
0
 10
-212.892654
 20
-168.050003
 40
4.500000
  1
B
 50
0.000000
 41
1.052632
 51
0.000000
  7
STANDARD
  0
TEXT
  8
0
 10
-212.892654
 20
-176.050003
 40
4.500000
  1
A
 50
0.000000
 41
1.052632
 51
0.000000
  7
STANDARD
  0
TEXT
  8
0
 10
-241.877258
 20
-141.324997
 40
4.500000
  1
STRETCH
 50
0.000000
 41
1.052632
 51
0.000000
  7
STANDARD
  0
TEXT
  8
0
 10
-241.877258
 20
-148.074997
 40
4.500000
  1
   PLACE
 50
0.000000
 41
1.052632
 51
0.000000
  7
STANDARD
  0
TEXT
  8
0
 10
-63.392658
 20
-144.050003
 40
4.500000
  1
175
 50
0.000000
 41
1.052632
 51
0.000000
  7
STANDARD
  0
TEXT
  8
0
 10
-107.392853
 20
-160.050003
 40
4.500000
  1
100
 50
0.000000
 41
1.052632
 51
0.000000
  7
STANDARD
  0
TEXT
  8
0
 10
-107.392853
 20
-168.050003
 40
4.500000
  1
100
 50
0.000000
 41
1.052632
 51
0.000000
  7
STANDARD
  0
TEXT
  8
0
 10
-107.392853
 20
-176.050003
 40
4.500000
  1
100
 50
0.000000
 41
1.052632
 51
0.000000
  7
STANDARD
  0
TEXT
  8
0
 10
-107.392853
 20
-184.050003
 40
4.500000
  1
100
 50
0.000000
 41
1.052632
 51
0.000000
  7
STANDARD
  0
TEXT
  8
0
 10
-85.392853
 20
-184.050003
 40
4.500000
  1
125
 50
0.000000
 41
1.052632
 51
0.000000
  7
STANDARD
  0
TEXT
  8
0
 10
-85.392853
 20
-176.050003
 40
4.500000
  1
125
 50
0.000000
 41
1.052632
 51
0.000000
  7
STANDARD
  0
TEXT
  8
0
 10
-85.392853
 20
-160.050003
 40
4.500000
  1
125
 50
0.000000
 41
1.052632
 51
0.000000
  7
STANDARD
  0
TEXT
  8
0
 10
-85.392853
 20
-168.050003
 40
4.500000
  1
125
 50
0.000000
 41
1.052632
 51
0.000000
  7
STANDARD
  0
TEXT
  8
0
 10
-85.392654
 20
-144.050003
 40
4.500000
  1
150
 50
0.000000
 41
1.052632
 51
0.000000
  7
STANDARD
  0
TEXT
  8
0
 62
     3
 10
-59.959198
 20
116.580116
 40
6.300000
  1
STRETCH LINE A
 50
0.000000
 41
1.052632
 51
0.000000
  7
STANDARD
  0
ENDSEC
  0
EOF
