  0
SECTION
  2
HEADER
  0
ENDSEC
  0
SECTION
  2
TABLES
  0
TABLE
  2
LTYPE
 70
     4
  0
LTYPE
  2
CONTINUOUS
 70
    64
  3
Solid line
 72
    65
 73
     0
 40
0.000000
  0
LTYPE
  2
DASHED
 70
    64
  3
__ __ __ __ __ __ __ __ __ __ __ __ __ __ __
 72
    65
 73
     2
 40
3.500000
 49
2.000000
 49
-1.500000
  0
LTYPE
  2
CENTER
 70
    64
  3
____ _ ____ _ ____ _ ____ _ ____ _ ____ _ ____
 72
    65
 73
     4
 40
17.500000
 49
13.000000
 49
-1.500000
 49
1.500000
 49
-1.500000
  0
LTYPE
  2
PHANTOM
 70
    64
  3
_____ _ _ _____ _ _ _____ _ _ _____ _ _ ____  
 72
    65
 73
     6
 40
15.500000
 49
8.000000
 49
-1.500000
 49
1.500000
 49
-1.500000
 49
1.500000
 49
-1.500000
  0
LTYPE
  2
DASHED1
 70
    64
  3
__ __ __ __ __ __ __ __ __ __ __ __ __ __ __
 72
    65
 73
     2
 40
1.500000
 49
1.000000
 49
-0.500000
  0
LTYPE
  2
DASHED2
 70
    64
  3
__ __ __ __ __ __ __ __ __ __ __ __ __ __ __
 72
    65
 73
     2
 40
3.500000
 49
2.500000
 49
-1.000000
  0
LTYPE
  2
DASHED3
 70
    64
  3
__ __ __ __ __ __ __ __ __ __ __ __ __ __ __
 72
    65
 73
     2
 40
6.000000
 49
4.000000
 49
-2.000000
  0
LTYPE
  2
DASHED4
 70
    64
  3
__ __ __ __ __ __ __ __ __ __ __ __ __ __ __
 72
    65
 73
     2
 40
12.000000
 49
10.000000
 49
-2.000000
  0
LTYPE
  2
DASHED5
 70
    64
  3
__ __ __ __ __ __ __ __ __ __ __ __ __ __ __
 72
    65
 73
     2
 40
17.000000
 49
15.000000
 49
-2.000000
  0
LTYPE
  2
DASHED6
 70
    64
  3
__ __ __ __ __ __ __ __ __ __ __ __ __ __ __
 72
    65
 73
     2
 40
29.000000
 49
27.000000
 49
-2.000000
  0
LTYPE
  2
PHANTOM1
 70
    64
  3
_____ _ _ _____ _ _ _____ _ _ _____ _ _ ____  
 72
    65
 73
     6
 40
31.000000
 49
25.000000
 49
-1.500000
 49
1.000000
 49
-1.000000
 49
1.000000
 49
-1.500000
  0
LTYPE
  2
PHANTOM2
 70
    64
  3
_____ _ _ _____ _ _ _____ _ _ _____ _ _ ____  
 72
    65
 73
     6
 40
36.000000
 49
27.000000
 49
-1.500000
 49
2.500000
 49
-1.000000
 49
2.500000
 49
-1.500000
  0
LTYPE
  2
PHANTOM3
 70
    64
  3
_____ _ _ _____ _ _ _____ _ _ _____ _ _ ____  
 72
    65
 73
     6
 40
78.000000
 49
64.000000
 49
-2.000000
 49
4.000000
 49
-2.000000
 49
4.000000
 49
-2.000000
  0
LTYPE
  2
CENTER1
 70
    64
  3
____ _ ____ _ ____ _ ____ _ ____ _ ____ _ ____
 72
    65
 73
     4
 40
19.000000
 49
14.000000
 49
-1.000000
 49
3.000000
 49
-1.000000
  0
LTYPE
  2
CENTER2
 70
    64
  3
____ _ ____ _ ____ _ ____ _ ____ _ ____ _ ____
 72
    65
 73
     4
 40
28.500000
 49
25.000000
 49
-1.000000
 49
1.500000
 49
-1.000000
  0
LTYPE
  2
CENTER3
 70
    64
  3
____ _ ____ _ ____ _ ____ _ ____ _ ____ _ ____
 72
    65
 73
     4
 40
31.500000
 49
27.000000
 49
-1.000000
 49
2.500000
 49
-1.000000
  0
LTYPE
  2
CENTER4
 70
    64
  3
____ _ ____ _ ____ _ ____ _ ____ _ ____ _ ____
 72
    65
 73
     4
 40
50.000000
 49
45.000000
 49
-1.000000
 49
3.000000
 49
-1.000000
  0
LTYPE
  2
CENTER5
 70
    64
  3
____ _ ____ _ ____ _ ____ _ ____ _ ____ _ ____
 72
    65
 73
     4
 40
100.000000
 49
92.000000
 49
-2.000000
 49
4.000000
 49
-2.000000
  0
LTYPE
  2
SBK1
 70
    64
  3
______ _ _ _ ______ _ _ _ ______ _ _ _ _____  
 72
    65
 73
     8
 40
60.500000
 49
45.000000
 49
-2.000000
 49
2.500000
 49
-2.000000
 49
2.500000
 49
-2.000000
 49
2.500000
 49
-2.000000
  0
LTYPE
  2
SBK2
 70
    64
  3
______ _ _ _ ______ _ _ _ ______ _ _ _ _____  
 72
    65
 73
     8
 40
84.000000
 49
64.000000
 49
-2.000000
 49
4.000000
 49
-2.000000
 49
4.000000
 49
-2.000000
 49
4.000000
 49
-2.000000
  0
LTYPE
  2
STCH
 70
    64
  3
__ __ __ __ __ __ __ __ __ __ __ __ __ __ __
 72
    65
 73
     2
 40
3.000000
 49
1.000000
 49
-2.000000
  0
LTYPE
  2
MTCH
 70
    64
  3
_____ _ _ _____ _ _ _____ _ _ _____ _ _ ____  
 72
    65
 73
     6
 40
80.000000
 49
66.000000
 49
-2.000000
 49
4.000000
 49
-2.000000
 49
4.000000
 49
-2.000000
  0
ENDTAB
  0
TABLE
  2
LAYER
 70
     1
  0
LAYER
  2
0
 70
     0
 62
     7
  6
CONTINUOUS
  0
ENDTAB
  0
TABLE
  2
STYLE
 70
     1
  0
STYLE
  2
STANDARD
 70
     0
 40
0.000000
 41
1.000000
 50
0.000000
 71
     0
 42
0.200000
  3
txt
  4
BIGFONT
  0
ENDTAB
  0
TABLE
  2
VIEW
 70
     0
  0
ENDTAB
  0
ENDSEC
  0
SECTION
  2
BLOCKS
  0
ENDSEC
  0
SECTION
  2
ENTITIES
  0
LINE
  8
0
 10
-64.999985
 20
96.000008
 11
-64.999985
 21
-26.000004
  0
LINE
  8
0
 10
-79.999985
 20
96.000008
 11
-79.999985
 21
-26.000004
  0
LINE
  8
0
 10
57.000015
 20
97.000008
 11
73.000015
 21
97.000008
  0
LINE
  8
0
 10
-11.999985
 20
96.799995
 11
57.000015
 21
96.799995
  0
LINE
  8
0
 10
-54.999985
 20
97.000008
 11
-11.999985
 21
97.000008
  0
LINE
  8
0
 10
-79.999985
 20
96.000008
 11
-64.999985
 21
96.000008
  0
LINE
  8
0
 10
-56.999985
 20
45.999996
 11
-56.999985
 21
23.999996
  0
LINE
  8
0
 10
-56.999985
 20
45.999996
 11
-64.999985
 21
45.999996
  0
LINE
  8
0
 10
-56.999985
 20
41.999996
 11
-54.999985
 21
41.999996
  0
LINE
  8
0
 62
     2
 10
-56.999992
 20
41.000057
 11
-55.267948
 21
42.000057
  0
LINE
  8
0
  6
CENTER
 62
     2
 10
-80.129105
 20
65.000000
 11
-66.194641
 21
65.000000
  0
LINE
  8
0
  6
CENTER
 62
     2
 10
-45.999989
 20
64.155273
 11
-45.999989
 21
43.618603
  0
LINE
  8
0
  6
CENTER
 62
     2
 10
-30.499989
 20
64.108521
 11
-30.499989
 21
43.618603
  0
LINE
  8
0
  6
CENTER
 62
     2
 10
-56.989349
 20
53.499996
 11
-19.945045
 21
53.499996
  0
LINE
  8
0
 10
-17.999989
 20
46.999996
 11
73.000015
 21
46.999996
  0
LINE
  8
0
 10
-15.999989
 20
44.999996
 11
73.000015
 21
44.999996
  0
LINE
  8
0
 10
-15.999989
 20
44.999996
 11
-15.999989
 21
24.999996
  0
LINE
  8
0
 10
-18.000004
 20
46.999969
 11
-16.000000
 21
44.999966
  0
LINE
  8
0
  6
CENTER
 62
     2
 10
-67.594940
 20
77.000000
 11
-52.010376
 21
77.000000
  0
LINE
  8
0
 10
-64.999985
 20
87.000000
 11
-54.999985
 21
87.000000
  0
LINE
  8
0
 10
-64.999985
 20
67.000000
 11
-54.999985
 21
67.000000
  0
LINE
  8
0
 10
-11.999985
 20
36.499996
 11
57.000015
 21
36.499996
  0
LINE
  8
0
 10
-11.999985
 20
38.374996
 11
57.000015
 21
38.374996
  0
LINE
  8
0
 10
-11.999985
 20
42.624996
 11
57.000015
 21
42.624996
  0
LINE
  8
0
  6
CENTER
 62
     2
 10
66.747803
 20
40.499996
 11
73.719635
 21
40.499996
  0
LINE
  8
0
 10
70.250015
 20
42.249996
 11
73.000015
 21
42.249996
  0
LINE
  8
0
 10
70.250015
 20
38.749996
 11
73.000015
 21
38.749996
  0
LINE
  8
0
 10
43.750015
 20
36.249996
 11
44.500015
 21
36.249996
  0
LINE
  8
0
 10
45.500015
 20
36.249996
 11
46.250015
 21
36.249996
  0
LINE
  8
0
  6
CENTER
 62
     2
 10
-85.004333
 20
34.999996
 11
78.027573
 21
34.999996
  0
LINE
  8
0
 10
57.000015
 20
-27.000004
 11
73.000015
 21
-27.000004
  0
LINE
  8
0
 10
-11.999985
 20
-26.800003
 11
57.000015
 21
-26.800003
  0
LINE
  8
0
 10
-54.999985
 20
-27.000004
 11
-11.999985
 21
-27.000004
  0
LINE
  8
0
 10
-79.999985
 20
-26.000004
 11
-64.999985
 21
-26.000004
  0
LINE
  8
0
 10
-56.999985
 20
23.999996
 11
-64.999985
 21
23.999996
  0
LINE
  8
0
 10
-56.999985
 20
27.999996
 11
-54.999985
 21
27.999996
  0
LINE
  8
0
 62
     2
 10
-57.000008
 20
28.999992
 11
-55.267952
 21
27.999990
  0
LINE
  8
0
  6
CENTER
 62
     2
 10
-80.970551
 20
4.999996
 11
-66.039955
 21
4.999996
  0
LINE
  8
0
  6
CENTER
 62
     2
 10
-72.499985
 20
-1.084179
 11
-72.499985
 21
11.290295
  0
LINE
  8
0
  6
CENTER
 62
     2
 10
-45.999989
 20
6.495186
 11
-45.999989
 21
26.139660
  0
LINE
  8
0
  6
CENTER
 62
     2
 10
-30.499989
 20
6.649864
 11
-30.499989
 21
26.294338
  0
LINE
  8
0
  6
CENTER
 62
     2
 10
-56.568634
 20
16.499996
 11
-19.171638
 21
16.499996
  0
LINE
  8
0
 10
-17.999989
 20
22.999996
 11
73.000015
 21
22.999996
  0
LINE
  8
0
 10
-15.999989
 20
24.999996
 11
73.000015
 21
24.999996
  0
LINE
  8
0
 10
-17.999998
 20
23.000000
 11
-15.999996
 21
25.000002
  0
LINE
  8
0
  6
CENTER
 62
     2
 10
-67.594940
 20
-7.000004
 11
-52.010376
 21
-7.000004
  0
LINE
  8
0
 10
-64.999985
 20
-17.000004
 11
-54.999985
 21
-17.000004
  0
LINE
  8
0
 10
-64.999985
 20
2.999996
 11
-54.999985
 21
2.999996
  0
LINE
  8
0
 10
-11.999985
 20
33.499996
 11
57.000015
 21
33.499996
  0
LINE
  8
0
 10
-11.999985
 20
31.624996
 11
57.000015
 21
31.624996
  0
LINE
  8
0
 10
-11.999985
 20
27.374996
 11
57.000015
 21
27.374996
  0
LINE
  8
0
  6
CENTER
 62
     2
 10
67.058365
 20
29.499996
 11
73.719635
 21
29.499996
  0
LINE
  8
0
  6
CENTER
 62
     2
 10
70.250015
 20
25.933018
 11
70.250015
 21
43.999996
  0
LINE
  8
0
 10
70.250015
 20
27.749996
 11
73.000015
 21
27.749996
  0
LINE
  8
0
 10
70.250015
 20
31.249996
 11
73.000015
 21
31.249996
  0
LINE
  8
0
 10
43.750015
 20
33.749996
 11
44.500015
 21
33.749996
  0
LINE
  8
0
 10
45.500015
 20
33.749996
 11
46.250015
 21
33.749996
  0
LINE
  8
0
 10
-58.024498
 20
34.999996
 11
-63.975479
 21
34.999996
  0
LINE
  8
0
 62
     4
 10
-11.999985
 20
127.799988
 11
57.000015
 21
127.799988
  0
LINE
  8
0
 62
     4
 10
-11.999985
 20
128.000000
 11
-27.999985
 21
128.000000
  0
LINE
  8
0
 10
-54.999985
 20
97.000008
 11
-54.999985
 21
-27.000004
  0
LINE
  8
0
 62
     4
 10
-11.999985
 20
128.000000
 11
-11.999985
 21
97.000008
  0
LINE
  8
0
 62
     4
 10
-27.999985
 20
128.000000
 11
-27.999985
 21
97.000008
  0
LINE
  8
0
 62
     4
 10
57.000015
 20
128.000000
 11
57.000015
 21
97.000008
  0
LINE
  8
0
  6
CENTER
 62
     1
 10
-52.821945
 20
110.000000
 11
96.270065
 21
110.000000
  0
LINE
  8
0
 62
     4
 10
-27.999985
 20
99.000000
 11
-43.999985
 21
99.000000
  0
LINE
  8
0
 62
     4
 10
-27.999985
 20
121.000000
 11
-43.999985
 21
121.000000
  0
LINE
  8
0
 62
     1
 10
-27.999985
 20
100.000000
 11
-44.999985
 21
100.000000
  0
LINE
  8
0
 62
     1
 10
-27.999985
 20
120.000000
 11
-44.999985
 21
120.000000
  0
LINE
  8
0
 62
     4
 10
-44.999985
 20
120.000015
 11
-44.999985
 21
100.000000
  0
LINE
  8
0
 62
     4
 10
-43.999821
 20
120.999809
 11
-44.999817
 21
119.999825
  0
LINE
  8
0
 62
     4
 10
-44.999969
 20
99.999985
 11
-43.999973
 21
98.999985
  0
LINE
  8
0
 62
     4
 10
-43.999985
 20
99.000000
 11
-43.999985
 21
121.000000
  0
LINE
  8
0
 10
-17.999989
 20
46.999996
 11
-17.999989
 21
22.999996
  0
LINE
  8
0
  6
CENTER
 62
     2
 10
-72.499985
 20
72.075836
 11
-72.499985
 21
58.526852
  0
LINE
  8
0
 10
-11.999985
 20
97.000008
 11
-11.999985
 21
-27.000004
  0
LINE
  8
0
 10
57.000015
 20
97.000008
 11
57.000015
 21
-27.000004
  0
LINE
  8
0
 10
73.000015
 20
97.000008
 11
73.000015
 21
-27.000004
  0
LINE
  8
0
 62
     4
 10
57.000015
 20
128.000000
 11
73.000015
 21
128.000000
  0
LINE
  8
0
 62
     4
 10
73.000015
 20
128.000000
 11
73.000015
 21
97.000008
  0
LINE
  8
0
 62
     4
 10
73.000015
 20
99.000000
 11
89.000015
 21
99.000000
  0
LINE
  8
0
 62
     4
 10
73.000015
 20
121.000000
 11
89.000015
 21
121.000000
  0
LINE
  8
0
 62
     1
 10
73.000015
 20
100.000000
 11
90.000015
 21
100.000000
  0
LINE
  8
0
 62
     1
 10
73.000015
 20
120.000000
 11
90.000015
 21
120.000000
  0
LINE
  8
0
 62
     4
 10
90.000015
 20
120.000015
 11
90.000015
 21
100.000000
  0
LINE
  8
0
 62
     4
 10
89.000015
 20
99.000000
 11
89.000015
 21
121.000000
  0
LINE
  8
0
 62
     4
 10
88.999855
 20
120.999817
 11
89.999847
 21
119.999825
  0
LINE
  8
0
 62
     4
 10
90.000000
 20
99.999985
 11
89.000000
 21
98.999985
  0
LINE
  8
0
  6
PHANTOM
 62
     3
 10
22.500015
 20
151.528183
 11
22.500015
 21
-50.994068
  0
LINE
  8
0
  6
CENTER
 62
     2
 10
-223.494614
 20
34.999996
 11
-164.168777
 21
34.999996
  0
LINE
  8
0
 10
-219.999954
 20
97.000008
 11
-170.999954
 21
97.000008
  0
LINE
  8
0
 10
-170.999954
 20
97.000008
 11
-170.999954
 21
-27.000004
  0
LINE
  8
0
 10
-218.999954
 20
96.000008
 11
-174.999954
 21
96.000008
  0
LINE
  8
0
 10
-218.999954
 20
96.000008
 11
-218.999954
 21
-26.000008
  0
LINE
  8
0
 10
-174.999954
 20
96.000008
 11
-174.999954
 21
-26.000008
  0
LINE
  8
0
 10
-190.649185
 20
45.999985
 11
-184.298340
 21
35.000000
  0
LINE
  8
0
 10
-209.701752
 20
35.000046
 11
-203.350891
 21
46.000061
  0
LINE
  8
0
 10
-203.350815
 20
45.999996
 11
-190.649094
 21
45.999996
  0
LINE
  8
0
  6
CENTER
 62
     2
 10
-205.916946
 20
59.000004
 11
-189.727066
 21
59.000004
  0
LINE
  8
0
  6
CENTER
 62
     2
 10
-208.101761
 20
77.000000
 11
-186.539169
 21
77.000000
  0
LINE
  8
0
 10
-193.535934
 20
77.000046
 11
-195.267990
 21
74.000038
  0
LINE
  8
0
 10
-195.267990
 20
79.999947
 11
-193.535950
 21
76.999969
  0
LINE
  8
0
 10
-198.732010
 20
80.000000
 11
-195.267899
 21
80.000000
  0
LINE
  8
0
 10
-200.464127
 20
77.000053
 11
-198.732071
 21
80.000069
  0
LINE
  8
0
 10
-198.732346
 20
73.999863
 11
-200.464401
 21
76.999870
  0
LINE
  8
0
 10
-195.267899
 20
73.999954
 11
-198.732010
 21
73.999954
  0
LINE
  8
0
 10
-168.999954
 20
44.999989
 11
-168.999954
 21
25.000004
  0
LINE
  8
0
 10
-171.000061
 20
46.999928
 11
-169.000061
 21
44.999924
  0
LINE
  8
0
 10
-219.999954
 20
-27.000004
 11
-170.999954
 21
-27.000004
  0
LINE
  8
0
 10
-219.999954
 20
-27.000004
 11
-219.999954
 21
97.000008
  0
LINE
  8
0
 10
-218.999954
 20
-26.000004
 11
-174.999954
 21
-26.000004
  0
LINE
  8
0
 10
-190.648987
 20
23.999966
 11
-184.298141
 21
34.999950
  0
LINE
  8
0
 10
-209.701508
 20
35.000027
 11
-203.350647
 21
24.000008
  0
LINE
  8
0
 10
-203.350815
 20
23.999996
 11
-190.649094
 21
23.999996
  0
LINE
  8
0
  6
CENTER
 62
     2
 10
-205.501877
 20
10.999996
 11
-189.727066
 21
10.999996
  0
LINE
  8
0
  6
CENTER
 62
     2
 10
-208.266159
 20
-7.000004
 11
-185.364792
 21
-7.000004
  0
LINE
  8
0
 10
-193.535812
 20
-6.999999
 11
-195.267883
 21
-3.999990
  0
LINE
  8
0
 10
-195.268417
 20
-9.999708
 11
-193.536377
 21
-6.999717
  0
LINE
  8
0
 10
-198.732010
 20
-10.000004
 11
-195.267899
 21
-10.000004
  0
LINE
  8
0
 10
-200.464050
 20
-6.999977
 11
-198.731995
 21
-9.999985
  0
LINE
  8
0
 10
-198.732025
 20
-4.000030
 11
-200.464081
 21
-7.000038
  0
LINE
  8
0
 10
-195.267899
 20
-3.999966
 11
-198.732010
 21
-3.999966
  0
LINE
  8
0
 10
-171.000122
 20
23.000126
 11
-169.000092
 21
25.000143
  0
LINE
  8
0
 62
     4
 10
-219.999954
 20
128.000015
 11
-170.999954
 21
128.000015
  0
LINE
  8
0
 62
     4
 10
-219.999954
 20
128.000015
 11
-219.999954
 21
97.000008
  0
LINE
  8
0
 62
     4
 10
-170.999954
 20
128.000015
 11
-170.999954
 21
97.000008
  0
LINE
  8
0
  6
CENTER
 62
     1
 10
-209.359573
 20
110.000015
 11
-181.464890
 21
110.000015
  0
LINE
  8
0
  6
CENTER
 62
     1
 10
-195.499954
 20
123.289886
 11
-195.499954
 21
97.631470
  0
LINE
  8
0
  6
CENTER
 62
     2
 10
-196.999954
 20
100.127594
 11
-196.999954
 21
-29.298832
  0
LINE
  8
0
 10
164.000015
 20
97.000023
 11
213.000015
 21
97.000023
  0
LINE
  8
0
 10
164.000015
 20
97.000023
 11
164.000015
 21
45.200016
  0
LINE
  8
0
 10
213.000015
 20
97.000023
 11
213.000015
 21
-26.999989
  0
LINE
  8
0
  6
CENTER
 62
     2
 10
158.366074
 20
35.000011
 11
216.189316
 21
35.000011
  0
LINE
  8
0
  6
CENTER
 62
     2
 10
166.784378
 20
68.000015
 11
181.102890
 21
68.000015
  0
LINE
  8
0
  6
CENTER
 62
     2
 10
206.000015
 20
75.305435
 11
206.000015
 21
61.238682
  0
LINE
  8
0
  6
CENTER
 62
     2
 10
174.000015
 20
76.136566
 11
174.000015
 21
63.500019
  0
LINE
  8
0
  6
CENTER
 62
     2
 10
190.000015
 20
100.127609
 11
190.000015
 21
-29.298817
  0
LINE
  8
0
  6
CENTER
 62
     2
 10
199.270493
 20
68.000015
 11
212.583099
 21
68.000015
  0
LINE
  8
0
 10
164.000015
 20
45.200016
 11
164.900009
 21
45.200016
  0
LINE
  8
0
 10
164.900009
 20
46.200016
 11
166.600021
 21
46.200016
  0
LINE
  8
0
 10
166.600021
 20
46.200016
 11
166.600021
 21
23.800007
  0
LINE
  8
0
 10
164.900009
 20
46.200016
 11
164.900009
 21
45.200016
  0
LINE
  8
0
 10
162.000015
 20
44.800014
 11
162.000015
 21
25.200008
  0
LINE
  8
0
 10
162.000076
 20
44.799946
 11
164.000076
 21
46.799938
  0
LINE
  8
0
  6
CENTER
 62
     2
 10
160.163956
 20
40.500011
 11
167.077682
 21
40.500011
  0
LINE
  8
0
  6
CENTER
 62
     2
 10
164.650009
 20
42.752827
 11
164.650009
 21
38.368168
  0
LINE
  8
0
 10
162.000015
 20
42.250011
 11
166.600021
 21
42.250011
  0
LINE
  8
0
 10
162.000015
 20
38.750011
 11
166.600021
 21
38.750011
  0
LINE
  8
0
 10
164.000015
 20
-26.999989
 11
213.000015
 21
-26.999989
  0
LINE
  8
0
 10
164.000015
 20
-26.999989
 11
164.000015
 21
24.800007
  0
LINE
  8
0
  6
CENTER
 62
     2
 10
167.246231
 20
2.000011
 11
180.948929
 21
2.000011
  0
LINE
  8
0
  6
CENTER
 62
     2
 10
206.000015
 20
-4.041519
 11
206.000015
 21
6.500011
  0
LINE
  8
0
  6
CENTER
 62
     2
 10
174.000015
 20
-4.195480
 11
174.000015
 21
8.429462
  0
LINE
  8
0
  6
CENTER
 62
     2
 10
199.270493
 20
2.000011
 11
213.538681
 21
2.000011
  0
LINE
  8
0
 10
164.000015
 20
24.800007
 11
164.900009
 21
24.800007
  0
LINE
  8
0
 10
164.900009
 20
23.800007
 11
166.600021
 21
23.800007
  0
LINE
  8
0
 10
164.900009
 20
23.800007
 11
164.900009
 21
24.800007
  0
LINE
  8
0
 10
161.999924
 20
25.199932
 11
163.999908
 21
23.199953
  0
LINE
  8
0
  6
CENTER
 62
     2
 10
160.009995
 20
29.500011
 11
167.077682
 21
29.500011
  0
LINE
  8
0
  6
CENTER
 62
     2
 10
164.650009
 20
27.247196
 11
164.650009
 21
31.631855
  0
LINE
  8
0
 10
162.000015
 20
27.750011
 11
166.600021
 21
27.750011
  0
LINE
  8
0
 10
162.000015
 20
31.250011
 11
166.600021
 21
31.250011
  0
LINE
  8
0
  6
CENTER
 62
     2
 10
170.325516
 20
14.000011
 11
184.621689
 21
14.000011
  0
LINE
  8
0
  6
CENTER
 62
     2
 10
193.265945
 20
56.000011
 11
211.045303
 21
56.000011
  0
LINE
  8
0
  6
CENTER
 62
     2
 10
201.000015
 20
65.332001
 11
201.000015
 21
47.843922
  0
LINE
  8
0
  6
CENTER
 62
     2
 10
179.000015
 20
6.120022
 11
179.000015
 21
23.775944
  0
LINE
  8
0
  6
CENTER
 62
     2
 10
197.500015
 20
14.000011
 11
212.500015
 21
14.000011
  0
LINE
  8
0
  6
CENTER
 62
     2
 10
165.706619
 20
56.000011
 11
184.490097
 21
56.000011
  0
LINE
  8
0
  6
CENTER
 62
     2
 10
205.000015
 20
6.500011
 11
205.000015
 21
24.441586
  0
LINE
  8
0
  6
CENTER
 62
     2
 10
175.000015
 20
63.500019
 11
175.000015
 21
46.458256
  0
LINE
  8
0
 10
206.732193
 20
17.000029
 11
208.464233
 21
14.000046
  0
LINE
  8
0
 10
201.536102
 20
14.000082
 11
203.268158
 21
11.000073
  0
LINE
  8
0
 10
201.536026
 20
13.999997
 11
203.268066
 21
16.999979
  0
LINE
  8
0
 10
206.732208
 20
10.999974
 11
208.464264
 21
13.999983
  0
LINE
  8
0
 10
203.267960
 20
17.000011
 11
206.732071
 21
17.000011
  0
LINE
  8
0
 10
203.267960
 20
11.000011
 11
206.732071
 21
11.000011
  0
LINE
  8
0
 10
176.732086
 20
53.000023
 11
178.464127
 21
56.000004
  0
LINE
  8
0
 10
171.535950
 20
55.999943
 11
173.268005
 21
58.999954
  0
LINE
  8
0
 10
176.732162
 20
59.000050
 11
178.464218
 21
56.000046
  0
LINE
  8
0
 10
171.536072
 20
56.000076
 11
173.268143
 21
53.000069
  0
LINE
  8
0
 10
173.267960
 20
59.000019
 11
176.732071
 21
59.000019
  0
LINE
  8
0
 10
173.267960
 20
53.000011
 11
176.732071
 21
53.000011
  0
LINE
  8
0
 62
     4
 10
164.000015
 20
128.000015
 11
213.000015
 21
128.000015
  0
LINE
  8
0
 62
     4
 10
164.000015
 20
128.000015
 11
164.000015
 21
97.000023
  0
LINE
  8
0
 62
     4
 10
213.000015
 20
128.000015
 11
213.000015
 21
97.000023
  0
LINE
  8
0
  6
CENTER
 62
     1
 10
174.640396
 20
110.000015
 11
202.535080
 21
110.000015
  0
LINE
  8
0
 62
     2
 10
184.074814
 20
14.000011
 11
186.480972
 21
14.000011
  0
LINE
  8
0
  6
CENTER
 62
     1
 10
188.500015
 20
123.289886
 11
188.500015
 21
97.631485
  0
LINE
  8
0
 10
57.000015
 20
-75.999992
 11
73.000015
 21
-75.999992
  0
LINE
  8
0
 10
73.000015
 20
-73.999992
 11
73.000015
 21
-125.000000
  0
LINE
  8
0
 10
57.000015
 20
-73.999992
 11
57.000015
 21
-125.000000
  0
LINE
  8
0
 10
-11.999985
 20
-73.999992
 11
-11.999985
 21
-125.000000
  0
LINE
  8
0
 10
-54.999985
 20
-75.999992
 11
-54.999985
 21
-125.000000
  0
LINE
  8
0
 10
-79.999985
 20
-79.999992
 11
-79.999985
 21
-124.000000
  0
LINE
  8
0
 10
-54.999985
 20
-75.999992
 11
-11.999985
 21
-75.999992
  0
LINE
  8
0
 10
-54.999985
 20
-125.000000
 11
-11.999985
 21
-125.000000
  0
LINE
  8
0
  6
CENTER
 62
     2
 10
-89.756668
 20
-102.000000
 11
76.777786
 21
-102.000000
  0
LINE
  8
0
 10
-79.999985
 20
-124.000000
 11
-64.999985
 21
-124.000000
  0
LINE
  8
0
 10
-79.999985
 20
-79.999992
 11
-64.999985
 21
-79.999992
  0
LINE
  8
0
 10
-64.999985
 20
-79.999992
 11
-64.999985
 21
-124.000000
  0
LINE
  8
0
 10
-57.850842
 20
-89.298279
 11
-57.126923
 21
-91.999977
  0
LINE
  8
0
 10
-57.850864
 20
-114.701736
 11
-57.126942
 21
-112.000015
  0
LINE
  8
0
 10
-57.850845
 20
-89.298286
 11
-64.149139
 21
-89.298286
  0
LINE
  8
0
 10
-64.149185
 20
-89.298302
 11
-64.873100
 21
-91.999992
  0
LINE
  8
0
 10
-57.850845
 20
-114.701721
 11
-64.149139
 21
-114.701721
  0
LINE
  8
0
 10
-64.149315
 20
-114.701767
 11
-64.873238
 21
-112.000046
  0
LINE
  8
0
 10
-64.999985
 20
-112.000000
 11
-54.999985
 21
-112.000000
  0
LINE
  8
0
 10
-64.999985
 20
-91.999992
 11
-54.999985
 21
-91.999992
  0
LINE
  8
0
 10
57.000015
 20
-125.000000
 11
73.000015
 21
-125.000000
  0
LINE
  8
0
 10
-11.999985
 20
-124.800018
 11
57.000015
 21
-124.800018
  0
LINE
  8
0
 10
-11.999985
 20
-76.200005
 11
57.000015
 21
-76.200005
  0
LINE
  8
0
  6
CENTER
 62
     2
 10
-46.999989
 20
-76.754646
 11
-46.999989
 21
-89.798912
  0
LINE
  8
0
  6
CENTER
 62
     2
 10
-19.999989
 20
-77.162590
 11
-19.999989
 21
-89.536827
  0
LINE
  8
0
  6
CENTER
 62
     2
 10
-52.302010
 20
-117.000000
 11
-41.381577
 21
-117.000000
  0
LINE
  8
0
  6
CENTER
 62
     2
 10
65.000015
 20
-78.182472
 11
65.000015
 21
-90.389748
  0
LINE
  8
0
  6
CENTER
 62
     2
 10
-25.830879
 20
-83.999992
 11
-14.211540
 21
-83.999992
  0
LINE
  8
0
  6
CENTER
 62
     2
 10
-46.999989
 20
-111.202972
 11
-46.999989
 21
-122.647583
  0
LINE
  8
0
  6
CENTER
 62
     2
 10
-25.918243
 20
-117.000000
 11
-14.036812
 21
-117.000000
  0
LINE
  8
0
  6
CENTER
 62
     2
 10
-19.999989
 20
-111.465057
 11
-19.999989
 21
-122.560211
  0
LINE
  8
0
  6
CENTER
 62
     2
 10
58.601883
 20
-83.999992
 11
70.678177
 21
-83.999992
  0
LINE
  8
0
  6
CENTER
 62
     2
 10
58.381180
 20
-117.000000
 11
71.494095
 21
-117.000000
  0
LINE
  8
0
  6
CENTER
 62
     2
 10
65.000015
 20
-110.253448
 11
65.000015
 21
-123.164856
  0
LINE
  8
0
  6
CENTER
 62
     2
 10
-53.338768
 20
-83.999992
 11
-41.206852
 21
-83.999992
  0
LINE
  8
0
  6
CENTER
 62
     2
 10
-72.499985
 20
-80.834160
 11
-72.499985
 21
-93.380806
  0
LINE
  8
0
  6
CENTER
 62
     2
 10
-78.835678
 20
-116.500000
 11
-66.804352
 21
-116.500000
  0
LINE
  8
0
  6
CENTER
 62
     2
 10
-78.835678
 20
-87.499992
 11
-66.454895
 21
-87.499992
  0
LINE
  8
0
  6
CENTER
 62
     2
 10
-72.499985
 20
-110.678772
 11
-72.499985
 21
-121.948669
  0
LINE
  8
0
 10
-11.999985
 20
-74.200005
 11
57.000015
 21
-74.200005
  0
LINE
  8
0
 10
57.000015
 20
-73.999992
 11
73.000015
 21
-73.999992
  0
LINE
  8
0
 10
-15.999989
 20
-73.999992
 11
-11.999985
 21
-73.999992
  0
LINE
  8
0
 10
-17.999922
 20
-76.000046
 11
-15.999932
 21
-74.000053
  0
LINE
  8
0
 62
     4
 10
90.000015
 20
-90.500000
 11
90.000015
 21
-110.500000
  0
LINE
  8
0
 62
     4
 10
73.000015
 20
-89.500000
 11
89.000015
 21
-89.500000
  0
LINE
  8
0
 62
     4
 10
73.000015
 20
-111.500000
 11
89.000015
 21
-111.500000
  0
LINE
  8
0
 62
     4
 10
88.999977
 20
-89.500008
 11
89.999992
 21
-90.500008
  0
LINE
  8
0
 62
     4
 10
89.999985
 20
-110.499985
 11
88.999985
 21
-111.499985
  0
LINE
  8
0
 62
     4
 10
89.000015
 20
-89.500000
 11
89.000015
 21
-111.500000
  0
LINE
  8
0
 62
     1
 10
90.000015
 20
-110.500000
 11
73.000015
 21
-110.500000
  0
LINE
  8
0
 62
     1
 10
90.000015
 20
-90.500000
 11
73.000015
 21
-90.500000
  0
LINE
  8
0
  6
CENTER
 62
     1
 10
71.555573
 20
-100.500000
 11
91.666687
 21
-100.500000
  0
LINE
  8
0
  6
PHANTOM
 62
     3
 10
22.500015
 20
-43.424335
 11
22.500015
 21
-146.866470
  0
LINE
  8
0
 10
-281.250000
 20
195.500000
 11
282.099976
 21
195.500000
  0
LINE
  8
0
 10
-281.250000
 20
195.500000
 11
-281.250000
 21
-195.000000
  0
LINE
  8
0
 10
282.099976
 20
195.500000
 11
282.099976
 21
-195.000000
  0
LINE
  8
0
 10
-281.250000
 20
-195.000000
 11
282.099976
 21
-195.000000
  0
LINE
  8
0
 10
162.099976
 20
-175.000000
 11
162.099976
 21
-195.000000
  0
LINE
  8
0
 10
162.099976
 20
-175.000000
 11
282.099976
 21
-175.000000
  0
LINE
  8
0
 10
162.099976
 20
175.500000
 11
282.099976
 21
175.500000
  0
LINE
  8
0
 10
-281.250000
 20
175.500000
 11
-161.250000
 21
175.500000
  0
LINE
  8
0
 10
162.099976
 20
195.500000
 11
162.099976
 21
175.500000
  0
LINE
  8
0
 10
-161.250000
 20
195.500000
 11
-161.250000
 21
175.500000
  0
LINE
  8
0
 10
-271.250000
 20
-185.000000
 11
42.750000
 21
-185.000000
  0
LINE
  8
0
 10
-271.250000
 20
-177.000000
 11
42.750000
 21
-177.000000
  0
LINE
  8
0
 10
-271.250000
 20
-169.000000
 11
42.750000
 21
-169.000000
  0
LINE
  8
0
 10
-271.250000
 20
-153.000000
 11
-271.250000
 21
-185.000000
  0
LINE
  8
0
 10
-221.250000
 20
-153.000000
 11
-221.250000
 21
-185.000000
  0
LINE
  8
0
 10
-199.250000
 20
-153.000000
 11
-199.250000
 21
-185.000000
  0
LINE
  8
0
 10
-177.250000
 20
-153.000000
 11
-177.250000
 21
-185.000000
  0
LINE
  8
0
 10
-155.250000
 20
-153.000000
 11
-155.250000
 21
-185.000000
  0
LINE
  8
0
 10
-133.250000
 20
-153.000000
 11
-133.250000
 21
-185.000000
  0
LINE
  8
0
 10
-111.250000
 20
-153.000000
 11
-111.250000
 21
-185.000000
  0
LINE
  8
0
 10
-271.250000
 20
-153.000000
 11
42.750000
 21
-153.000000
  0
LINE
  8
0
 10
-271.250000
 20
-153.000046
 11
-221.250000
 21
-169.000046
  0
LINE
  8
0
 10
-89.250000
 20
-153.000000
 11
-89.250000
 21
-185.000000
  0
LINE
  8
0
 10
-67.250000
 20
-153.000000
 11
-67.250000
 21
-185.000000
  0
LINE
  8
0
 10
-45.250000
 20
-153.000000
 11
-45.250000
 21
-185.000000
  0
LINE
  8
0
 10
-23.250000
 20
-153.000000
 11
-23.250000
 21
-185.000000
  0
LINE
  8
0
 10
-1.250000
 20
-153.000000
 11
-1.250000
 21
-185.000000
  0
LINE
  8
0
 10
20.750000
 20
-153.000000
 11
20.750000
 21
-185.000000
  0
LINE
  8
0
 10
42.750000
 20
-153.000000
 11
42.750000
 21
-185.000000
  0
CIRCLE
  8
0
 10
-72.499985
 20
65.000000
 40
3.375000
  0
CIRCLE
  8
0
 10
-30.499989
 20
16.499996
 40
7.000000
  0
CIRCLE
  8
0
 10
-30.499989
 20
16.499996
 40
4.500000
  0
CIRCLE
  8
0
 10
-72.499985
 20
4.999996
 40
3.375000
  0
ARC
  8
0
 10
70.250015
 20
29.499996
 40
1.750000
 50
90.000000
 51
270.000000
  0
CIRCLE
  8
0
 10
-45.999989
 20
16.499996
 40
7.000000
  0
ARC
  8
0
 10
45.000015
 20
33.749996
 40
0.500000
 50
0.000000
 51
180.000000
  0
ARC
  8
0
 10
-72.275406
 20
40.499996
 40
15.275417
 50
338.896393
 51
21.103613
  0
ARC
  8
0
 10
-49.724571
 20
40.499996
 40
15.275418
 50
158.896347
 51
201.103577
  0
CIRCLE
  8
0
 62
     2
 10
-72.499985
 20
65.000000
 40
4.000000
  0
CIRCLE
  8
0
 10
-45.999989
 20
53.499996
 40
4.500000
  0
CIRCLE
  8
0
 10
-30.499989
 20
53.499996
 40
4.500000
  0
CIRCLE
  8
0
 10
-30.499989
 20
53.499996
 40
7.000000
  0
CIRCLE
  8
0
 10
-45.999989
 20
53.499996
 40
7.000000
  0
ARC
  8
0
 10
70.250015
 20
40.499996
 40
1.750000
 50
90.000000
 51
270.000000
  0
ARC
  8
0
 10
46.250015
 20
34.999996
 40
1.250000
 50
270.000000
 51
90.000000
  0
ARC
  8
0
 10
43.750015
 20
34.999996
 40
1.250000
 50
90.000000
 51
270.000000
  0
ARC
  8
0
 10
45.000015
 20
36.249996
 40
0.500000
 50
180.000000
 51
0.000000
  0
ARC
  8
0
 10
-72.275406
 20
29.499996
 40
15.275419
 50
338.896332
 51
21.103567
  0
ARC
  8
0
 10
-49.724571
 20
29.499996
 40
15.275418
 50
158.896347
 51
201.103577
  0
CIRCLE
  8
0
 62
     2
 10
-72.499985
 20
4.999996
 40
4.000000
  0
CIRCLE
  8
0
 10
-45.999989
 20
16.499996
 40
4.500000
  0
CIRCLE
  8
0
 10
-196.999954
 20
10.999996
 40
4.250000
  0
CIRCLE
  8
0
 10
-196.999954
 20
59.000004
 40
4.250000
  0
CIRCLE
  8
0
 62
     2
 10
-196.999954
 20
34.999996
 40
6.000000
  0
CIRCLE
  8
0
 62
     1
 10
-195.499954
 20
110.000015
 40
10.000000
  0
CIRCLE
  8
0
 10
-196.999954
 20
-7.000004
 40
6.500000
  0
CIRCLE
  8
0
 10
-196.999954
 20
-7.000004
 40
7.000000
  0
CIRCLE
  8
0
 62
     2
 10
-196.999954
 20
10.999996
 40
5.000000
  0
CIRCLE
  8
0
 10
-196.999954
 20
34.999996
 40
16.000000
  0
CIRCLE
  8
0
 10
-196.999954
 20
34.999996
 40
7.000000
  0
CIRCLE
  8
0
 62
     2
 10
-196.999954
 20
59.000004
 40
5.000000
  0
CIRCLE
  8
0
 10
-196.999954
 20
77.000000
 40
7.000000
  0
CIRCLE
  8
0
 10
-196.999954
 20
77.000000
 40
6.500000
  0
CIRCLE
  8
0
 62
     4
 10
-195.499954
 20
110.000015
 40
11.000000
  0
CIRCLE
  8
0
 10
206.000015
 20
2.000011
 40
3.375000
  0
CIRCLE
  8
0
 10
206.000015
 20
68.000015
 40
3.375000
  0
CIRCLE
  8
0
 10
174.000015
 20
2.000011
 40
3.375000
  0
CIRCLE
  8
0
 62
     2
 10
179.000015
 20
14.000011
 40
4.864000
  0
CIRCLE
  8
0
 10
174.000015
 20
68.000015
 40
3.375000
  0
CIRCLE
  8
0
 62
     4
 10
188.500015
 20
110.000015
 40
11.000000
  0
CIRCLE
  8
0
 62
     1
 10
188.500015
 20
110.000015
 40
10.000000
  0
CIRCLE
  8
0
 10
205.000015
 20
14.000011
 40
6.500000
  0
CIRCLE
  8
0
 62
     2
 10
206.000015
 20
68.000015
 40
4.000000
  0
CIRCLE
  8
0
 62
     2
 10
174.000015
 20
68.000015
 40
4.000000
  0
ARC
  8
0
 10
164.650009
 20
40.500011
 40
1.750000
 50
90.000000
 51
270.000000
  0
CIRCLE
  8
0
 62
     2
 10
206.000015
 20
2.000011
 40
4.000000
  0
CIRCLE
  8
0
 62
     2
 10
174.000015
 20
2.000011
 40
4.000000
  0
ARC
  8
0
 10
164.650009
 20
29.500011
 40
1.750000
 50
90.000000
 51
270.000000
  0
CIRCLE
  8
0
 10
175.000015
 20
56.000011
 40
7.000000
  0
CIRCLE
  8
0
 10
205.000015
 20
14.000011
 40
7.000000
  0
CIRCLE
  8
0
 10
175.000015
 20
56.000011
 40
6.500000
  0
CIRCLE
  8
0
 10
179.000015
 20
14.000011
 40
4.283000
  0
CIRCLE
  8
0
 10
201.000015
 20
56.000011
 40
4.283000
  0
CIRCLE
  8
0
 62
     2
 10
201.000015
 20
56.000011
 40
4.864000
  0
CIRCLE
  8
0
 10
65.000015
 20
-117.000000
 40
3.375000
  0
CIRCLE
  8
0
 10
-46.999989
 20
-117.000000
 40
3.375000
  0
CIRCLE
  8
0
 10
65.000015
 20
-83.999992
 40
3.375000
  0
CIRCLE
  8
0
 10
-19.999989
 20
-117.000000
 40
3.375000
  0
CIRCLE
  8
0
 10
-46.999989
 20
-83.999992
 40
3.375000
  0
CIRCLE
  8
0
 10
-19.999989
 20
-83.999992
 40
3.375000
  0
CIRCLE
  8
0
 62
     2
 10
-19.999989
 20
-117.000000
 40
4.000000
  0
CIRCLE
  8
0
 62
     2
 10
-72.499985
 20
-116.500000
 40
4.000000
  0
CIRCLE
  8
0
 62
     2
 10
-72.499985
 20
-87.499992
 40
4.000000
  0
CIRCLE
  8
0
 62
     2
 10
-46.999989
 20
-83.999992
 40
4.000000
  0
CIRCLE
  8
0
 62
     2
 10
-19.999989
 20
-83.999992
 40
4.000000
  0
CIRCLE
  8
0
 62
     2
 10
-46.999989
 20
-117.000000
 40
4.000000
  0
CIRCLE
  8
0
 62
     2
 10
65.000015
 20
-83.999992
 40
4.000000
  0
CIRCLE
  8
0
 62
     2
 10
65.000015
 20
-117.000000
 40
4.000000
  0
CIRCLE
  8
0
 10
-72.499985
 20
-87.499992
 40
3.375000
  0
CIRCLE
  8
0
 10
-72.499985
 20
-116.500000
 40
3.375000
  0
TEXT
  8
0
 10
196.250259
 20
180.830002
 40
6.300000
  1
Ver. 2.0
 50
0.000000
 41
1.052632
 51
0.000000
  7
STANDARD
  0
TEXT
  8
0
 10
167.564667
 20
-192.100006
 40
9.000000
  1
KOGANEI CORP.
 50
0.000000
 41
1.052632
 51
0.000000
  7
STANDARD
  0
TEXT
  8
0
 10
-262.849731
 20
180.830002
 40
6.300000
  1
AXIS CYLINDER
 50
0.000000
 41
1.052632
 51
0.000000
  7
STANDARD
  0
TEXT
  8
0
 10
-232.550003
 20
145.830002
 40
6.300000
  1
XDAA40*ST(25)-SSL
 50
0.000000
 41
1.052632
 51
0.000000
  7
STANDARD
  0
TEXT
  8
0
 10
-270.049988
 20
155.830002
 40
6.300000
  1
MODEL:XDA40*ST(25)-SSL
 50
0.000000
 41
1.052632
 51
0.000000
  7
STANDARD
  0
TEXT
  8
0
 10
22.357143
 20
-152.050003
 40
4.500000
  1
(mm)
 50
0.000000
 41
1.052632
 51
0.000000
  7
STANDARD
  0
TEXT
  8
0
 10
-215.142853
 20
-164.050003
 40
4.500000
  1
25
 50
0.000000
 41
1.052632
 51
0.000000
  7
STANDARD
  0
TEXT
  8
0
 10
-193.142853
 20
-164.050003
 40
4.500000
  1
50
 50
0.000000
 41
1.052632
 51
0.000000
  7
STANDARD
  0
TEXT
  8
0
 10
-171.142853
 20
-164.050003
 40
4.500000
  1
75
 50
0.000000
 41
1.052632
 51
0.000000
  7
STANDARD
  0
TEXT
  8
0
 10
-151.392853
 20
-164.050003
 40
4.500000
  1
100
 50
0.000000
 41
1.052632
 51
0.000000
  7
STANDARD
  0
TEXT
  8
0
 10
24.607143
 20
-164.050003
 40
4.500000
  1
300
 50
0.000000
 41
1.052632
 51
0.000000
  7
STANDARD
  0
TEXT
  8
0
 10
-212.892853
 20
-176.050003
 40
4.500000
  1
0
 50
0.000000
 41
1.052632
 51
0.000000
  7
STANDARD
  0
TEXT
  8
0
 10
-212.892853
 20
-184.050003
 40
4.500000
  1
0
 50
0.000000
 41
1.052632
 51
0.000000
  7
STANDARD
  0
TEXT
  8
0
 10
-193.142853
 20
-176.050003
 40
4.500000
  1
25
 50
0.000000
 41
1.052632
 51
0.000000
  7
STANDARD
  0
TEXT
  8
0
 10
-193.142853
 20
-184.050003
 40
4.500000
  1
25
 50
0.000000
 41
1.052632
 51
0.000000
  7
STANDARD
  0
TEXT
  8
0
 10
-171.142853
 20
-176.050003
 40
4.500000
  1
50
 50
0.000000
 41
1.052632
 51
0.000000
  7
STANDARD
  0
TEXT
  8
0
 10
-171.142853
 20
-184.050003
 40
4.500000
  1
50
 50
0.000000
 41
1.052632
 51
0.000000
  7
STANDARD
  0
TEXT
  8
0
 10
-149.142853
 20
-176.050003
 40
4.500000
  1
75
 50
0.000000
 41
1.052632
 51
0.000000
  7
STANDARD
  0
TEXT
  8
0
 10
-149.142853
 20
-184.050003
 40
4.500000
  1
75
 50
0.000000
 41
1.052632
 51
0.000000
  7
STANDARD
  0
TEXT
  8
0
 10
24.607143
 20
-176.050003
 40
4.500000
  1
275
 50
0.000000
 41
1.052632
 51
0.000000
  7
STANDARD
  0
TEXT
  8
0
 10
24.607143
 20
-184.050003
 40
4.500000
  1
275
 50
0.000000
 41
1.052632
 51
0.000000
  7
STANDARD
  0
TEXT
  8
0
 10
-250.377258
 20
-160.050003
 40
4.500000
  1
STROKE
 50
0.000000
 41
1.052632
 51
0.000000
  7
STANDARD
  0
TEXT
  8
0
 10
-265.408447
 20
-168.050003
 40
4.500000
  1
TYPE
 50
0.000000
 41
1.052632
 51
0.000000
  7
STANDARD
  0
TEXT
  8
0
 10
-264.000000
 20
-174.699997
 40
4.500000
  1
XDA40
 50
0.000000
 41
1.052632
 51
0.000000
  7
STANDARD
  0
TEXT
  8
0
 10
-264.000000
 20
-182.699997
 40
4.500000
  1
XDAA40
 50
0.000000
 41
1.052632
 51
0.000000
  7
STANDARD
  0
TEXT
  8
0
 10
-141.642853
 20
-151.050003
 40
4.500000
  1
STRETCH LIST
 50
0.000000
 41
1.052632
 51
0.000000
  7
STANDARD
  0
TEXT
  8
0
 10
-129.392853
 20
-164.050003
 40
4.500000
  1
125
 50
0.000000
 41
1.052632
 51
0.000000
  7
STANDARD
  0
TEXT
  8
0
 10
-129.392853
 20
-176.050003
 40
4.500000
  1
100
 50
0.000000
 41
1.052632
 51
0.000000
  7
STANDARD
  0
TEXT
  8
0
 10
-129.392853
 20
-184.050003
 40
4.500000
  1
100
 50
0.000000
 41
1.052632
 51
0.000000
  7
STANDARD
  0
TEXT
  8
0
 10
-85.392853
 20
-164.050003
 40
4.500000
  1
175
 50
0.000000
 41
1.052632
 51
0.000000
  7
STANDARD
  0
TEXT
  8
0
 10
-85.392853
 20
-176.050003
 40
4.500000
  1
150
 50
0.000000
 41
1.052632
 51
0.000000
  7
STANDARD
  0
TEXT
  8
0
 10
-85.392853
 20
-184.050003
 40
4.500000
  1
150
 50
0.000000
 41
1.052632
 51
0.000000
  7
STANDARD
  0
TEXT
  8
0
 10
-63.392857
 20
-164.050003
 40
4.500000
  1
200
 50
0.000000
 41
1.052632
 51
0.000000
  7
STANDARD
  0
TEXT
  8
0
 10
-63.392857
 20
-176.050003
 40
4.500000
  1
175
 50
0.000000
 41
1.052632
 51
0.000000
  7
STANDARD
  0
TEXT
  8
0
 10
-63.392857
 20
-184.050003
 40
4.500000
  1
175
 50
0.000000
 41
1.052632
 51
0.000000
  7
STANDARD
  0
TEXT
  8
0
 10
-41.392857
 20
-164.050003
 40
4.500000
  1
225
 50
0.000000
 41
1.052632
 51
0.000000
  7
STANDARD
  0
TEXT
  8
0
 10
-41.392857
 20
-176.050003
 40
4.500000
  1
200
 50
0.000000
 41
1.052632
 51
0.000000
  7
STANDARD
  0
TEXT
  8
0
 10
-41.392857
 20
-184.050003
 40
4.500000
  1
200
 50
0.000000
 41
1.052632
 51
0.000000
  7
STANDARD
  0
TEXT
  8
0
 10
-19.392857
 20
-164.050003
 40
4.500000
  1
250
 50
0.000000
 41
1.052632
 51
0.000000
  7
STANDARD
  0
TEXT
  8
0
 10
-19.392857
 20
-176.050003
 40
4.500000
  1
225
 50
0.000000
 41
1.052632
 51
0.000000
  7
STANDARD
  0
TEXT
  8
0
 10
-19.392857
 20
-184.050003
 40
4.500000
  1
225
 50
0.000000
 41
1.052632
 51
0.000000
  7
STANDARD
  0
TEXT
  8
0
 10
2.607143
 20
-164.050003
 40
4.500000
  1
275
 50
0.000000
 41
1.052632
 51
0.000000
  7
STANDARD
  0
TEXT
  8
0
 10
2.607143
 20
-176.050003
 40
4.500000
  1
250
 50
0.000000
 41
1.052632
 51
0.000000
  7
STANDARD
  0
TEXT
  8
0
 10
2.607143
 20
-184.050003
 40
4.500000
  1
250
 50
0.000000
 41
1.052632
 51
0.000000
  7
STANDARD
  0
TEXT
  8
0
 10
-107.392853
 20
-164.050003
 40
4.500000
  1
150
 50
0.000000
 41
1.052632
 51
0.000000
  7
STANDARD
  0
TEXT
  8
0
 10
-107.392853
 20
-176.050003
 40
4.500000
  1
125
 50
0.000000
 41
1.052632
 51
0.000000
  7
STANDARD
  0
TEXT
  8
0
 10
-107.392853
 20
-184.050003
 40
4.500000
  1
125
 50
0.000000
 41
1.052632
 51
0.000000
  7
STANDARD
  0
TEXT
  8
0
 62
     3
 10
-16.328339
 20
157.036224
 40
6.300000
  1
STRETCH LINE
 50
0.000000
 41
1.052632
 51
0.000000
  7
STANDARD
  0
ENDSEC
  0
EOF
