  0
SECTION
  2
HEADER
  0
ENDSEC
  0
SECTION
  2
TABLES
  0
TABLE
  2
LTYPE
 70
     4
  0
LTYPE
  2
CONTINUOUS
 70
    64
  3
Solid line
 72
    65
 73
     0
 40
0.000000
  0
LTYPE
  2
DASHED
 70
    64
  3
__ __ __ __ __ __ __ __ __ __ __ __ __ __ __
 72
    65
 73
     2
 40
3.500000
 49
2.000000
 49
-1.500000
  0
LTYPE
  2
CENTER
 70
    64
  3
____ _ ____ _ ____ _ ____ _ ____ _ ____ _ ____
 72
    65
 73
     4
 40
17.500000
 49
13.000000
 49
-1.500000
 49
1.500000
 49
-1.500000
  0
LTYPE
  2
PHANTOM
 70
    64
  3
_____ _ _ _____ _ _ _____ _ _ _____ _ _ ____  
 72
    65
 73
     6
 40
15.500000
 49
8.000000
 49
-1.500000
 49
1.500000
 49
-1.500000
 49
1.500000
 49
-1.500000
  0
LTYPE
  2
DASHED1
 70
    64
  3
__ __ __ __ __ __ __ __ __ __ __ __ __ __ __
 72
    65
 73
     2
 40
1.500000
 49
1.000000
 49
-0.500000
  0
LTYPE
  2
DASHED2
 70
    64
  3
__ __ __ __ __ __ __ __ __ __ __ __ __ __ __
 72
    65
 73
     2
 40
3.500000
 49
2.500000
 49
-1.000000
  0
LTYPE
  2
DASHED3
 70
    64
  3
__ __ __ __ __ __ __ __ __ __ __ __ __ __ __
 72
    65
 73
     2
 40
6.000000
 49
4.000000
 49
-2.000000
  0
LTYPE
  2
DASHED4
 70
    64
  3
__ __ __ __ __ __ __ __ __ __ __ __ __ __ __
 72
    65
 73
     2
 40
12.000000
 49
10.000000
 49
-2.000000
  0
LTYPE
  2
DASHED5
 70
    64
  3
__ __ __ __ __ __ __ __ __ __ __ __ __ __ __
 72
    65
 73
     2
 40
17.000000
 49
15.000000
 49
-2.000000
  0
LTYPE
  2
DASHED6
 70
    64
  3
__ __ __ __ __ __ __ __ __ __ __ __ __ __ __
 72
    65
 73
     2
 40
29.000000
 49
27.000000
 49
-2.000000
  0
LTYPE
  2
PHANTOM1
 70
    64
  3
_____ _ _ _____ _ _ _____ _ _ _____ _ _ ____  
 72
    65
 73
     6
 40
31.000000
 49
25.000000
 49
-1.500000
 49
1.000000
 49
-1.000000
 49
1.000000
 49
-1.500000
  0
LTYPE
  2
PHANTOM2
 70
    64
  3
_____ _ _ _____ _ _ _____ _ _ _____ _ _ ____  
 72
    65
 73
     6
 40
36.000000
 49
27.000000
 49
-1.500000
 49
2.500000
 49
-1.000000
 49
2.500000
 49
-1.500000
  0
LTYPE
  2
PHANTOM3
 70
    64
  3
_____ _ _ _____ _ _ _____ _ _ _____ _ _ ____  
 72
    65
 73
     6
 40
78.000000
 49
64.000000
 49
-2.000000
 49
4.000000
 49
-2.000000
 49
4.000000
 49
-2.000000
  0
LTYPE
  2
CENTER1
 70
    64
  3
____ _ ____ _ ____ _ ____ _ ____ _ ____ _ ____
 72
    65
 73
     4
 40
19.000000
 49
14.000000
 49
-1.000000
 49
3.000000
 49
-1.000000
  0
LTYPE
  2
CENTER2
 70
    64
  3
____ _ ____ _ ____ _ ____ _ ____ _ ____ _ ____
 72
    65
 73
     4
 40
28.500000
 49
25.000000
 49
-1.000000
 49
1.500000
 49
-1.000000
  0
LTYPE
  2
CENTER3
 70
    64
  3
____ _ ____ _ ____ _ ____ _ ____ _ ____ _ ____
 72
    65
 73
     4
 40
31.500000
 49
27.000000
 49
-1.000000
 49
2.500000
 49
-1.000000
  0
LTYPE
  2
CENTER4
 70
    64
  3
____ _ ____ _ ____ _ ____ _ ____ _ ____ _ ____
 72
    65
 73
     4
 40
50.000000
 49
45.000000
 49
-1.000000
 49
3.000000
 49
-1.000000
  0
LTYPE
  2
CENTER5
 70
    64
  3
____ _ ____ _ ____ _ ____ _ ____ _ ____ _ ____
 72
    65
 73
     4
 40
100.000000
 49
92.000000
 49
-2.000000
 49
4.000000
 49
-2.000000
  0
LTYPE
  2
SBK1
 70
    64
  3
______ _ _ _ ______ _ _ _ ______ _ _ _ _____  
 72
    65
 73
     8
 40
60.500000
 49
45.000000
 49
-2.000000
 49
2.500000
 49
-2.000000
 49
2.500000
 49
-2.000000
 49
2.500000
 49
-2.000000
  0
LTYPE
  2
SBK2
 70
    64
  3
______ _ _ _ ______ _ _ _ ______ _ _ _ _____  
 72
    65
 73
     8
 40
84.000000
 49
64.000000
 49
-2.000000
 49
4.000000
 49
-2.000000
 49
4.000000
 49
-2.000000
 49
4.000000
 49
-2.000000
  0
LTYPE
  2
STCH
 70
    64
  3
__ __ __ __ __ __ __ __ __ __ __ __ __ __ __
 72
    65
 73
     2
 40
3.000000
 49
1.000000
 49
-2.000000
  0
LTYPE
  2
MTCH
 70
    64
  3
_____ _ _ _____ _ _ _____ _ _ _____ _ _ ____  
 72
    65
 73
     6
 40
80.000000
 49
66.000000
 49
-2.000000
 49
4.000000
 49
-2.000000
 49
4.000000
 49
-2.000000
  0
ENDTAB
  0
TABLE
  2
LAYER
 70
     1
  0
LAYER
  2
0
 70
     0
 62
     7
  6
CONTINUOUS
  0
ENDTAB
  0
TABLE
  2
STYLE
 70
     1
  0
STYLE
  2
STANDARD
 70
     0
 40
0.000000
 41
1.000000
 50
0.000000
 71
     0
 42
0.200000
  3
txt
  4
BIGFONT
  0
ENDTAB
  0
TABLE
  2
VIEW
 70
     0
  0
ENDTAB
  0
ENDSEC
  0
SECTION
  2
BLOCKS
  0
ENDSEC
  0
SECTION
  2
ENTITIES
  0
LINE
  8
0
 10
-62.999989
 20
87.000000
 11
-62.999989
 21
-17.000008
  0
LINE
  8
0
 10
-74.999992
 20
87.000000
 11
-74.999992
 21
-17.000008
  0
LINE
  8
0
  6
CENTER
 62
     2
 10
-79.124855
 20
35.000000
 11
66.885612
 21
35.000000
  0
LINE
  8
0
 10
-74.999992
 20
87.000000
 11
-62.999989
 21
87.000000
  0
LINE
  8
0
 10
-54.999989
 20
87.000000
 11
-16.999992
 21
87.000000
  0
LINE
  8
0
 10
48.000008
 20
87.000000
 11
64.000008
 21
87.000000
  0
LINE
  8
0
 10
-16.999992
 20
86.800003
 11
48.000008
 21
86.800003
  0
LINE
  8
0
 10
-62.999989
 20
44.500000
 11
-56.999989
 21
44.500000
  0
LINE
  8
0
 10
-56.999989
 20
44.500000
 11
-56.999989
 21
25.500000
  0
LINE
  8
0
  6
CENTER
 62
     2
 10
-64.962769
 20
69.500000
 11
-51.760960
 21
69.500000
  0
LINE
  8
0
 10
-62.999989
 20
77.500000
 11
-54.999989
 21
77.500000
  0
LINE
  8
0
 10
-62.999989
 20
61.500000
 11
-54.999989
 21
61.500000
  0
LINE
  8
0
  6
CENTER
 62
     2
 10
-75.317848
 20
60.000000
 11
-64.722107
 21
60.000000
  0
LINE
  8
0
  6
CENTER
 62
     2
 10
-68.999992
 20
67.126663
 11
-68.999992
 21
55.335915
  0
LINE
  8
0
 10
-56.999989
 20
40.000000
 11
-54.999989
 21
40.000000
  0
LINE
  8
0
 62
     2
 10
-57.000015
 20
39.250038
 11
-55.700977
 21
40.000038
  0
LINE
  8
0
  6
CENTER
 62
     2
 10
-47.499989
 20
58.040779
 11
-47.499989
 21
42.126984
  0
LINE
  8
0
  6
CENTER
 62
     2
 10
-32.499989
 20
59.116547
 11
-32.499989
 21
42.473709
  0
LINE
  8
0
  6
CENTER
 62
     2
 10
-56.267616
 20
49.500000
 11
-25.409019
 21
49.500000
  0
LINE
  8
0
 10
-22.999992
 20
47.000000
 11
-22.999992
 21
23.000000
  0
LINE
  8
0
 10
-22.999992
 20
47.000000
 11
64.000008
 21
47.000000
  0
LINE
  8
0
 10
-20.999992
 20
45.000000
 11
64.000008
 21
45.000000
  0
LINE
  8
0
 10
-20.999992
 20
45.000000
 11
-20.999992
 21
25.000000
  0
LINE
  8
0
 10
-23.000011
 20
46.999985
 11
-21.000010
 21
44.999989
  0
LINE
  8
0
 10
-16.999992
 20
36.500000
 11
48.000008
 21
36.500000
  0
LINE
  8
0
 10
-16.999992
 20
38.375000
 11
48.000008
 21
38.375000
  0
LINE
  8
0
 10
-16.999992
 20
42.625000
 11
48.000008
 21
42.625000
  0
LINE
  8
0
  6
CENTER
 62
     2
 10
61.250008
 20
44.220917
 11
61.250008
 21
37.265549
  0
LINE
  8
0
  6
CENTER
 62
     2
 10
57.275185
 20
40.500000
 11
68.476189
 21
40.500000
  0
LINE
  8
0
 10
61.250008
 20
38.750000
 11
64.000008
 21
38.750000
  0
LINE
  8
0
 10
61.250008
 20
42.250000
 11
64.000008
 21
42.250000
  0
LINE
  8
0
 10
26.750008
 20
36.250000
 11
27.500008
 21
36.250000
  0
LINE
  8
0
 10
28.500008
 20
36.250000
 11
29.250008
 21
36.250000
  0
LINE
  8
0
 10
-16.999992
 20
-17.000008
 11
-16.999992
 21
87.000000
  0
LINE
  8
0
 10
-74.999992
 20
-17.000008
 11
-62.999989
 21
-17.000008
  0
LINE
  8
0
 10
-54.999989
 20
-17.000008
 11
-16.999992
 21
-17.000008
  0
LINE
  8
0
 10
48.000008
 20
-17.000008
 11
64.000008
 21
-17.000008
  0
LINE
  8
0
 10
-16.999992
 20
-16.800003
 11
48.000008
 21
-16.800003
  0
LINE
  8
0
 10
-62.999989
 20
25.500000
 11
-56.999989
 21
25.500000
  0
LINE
  8
0
  6
CENTER
 62
     2
 10
-64.962769
 20
0.499996
 11
-51.760960
 21
0.499996
  0
LINE
  8
0
 10
-62.999989
 20
-7.500004
 11
-54.999989
 21
-7.500004
  0
LINE
  8
0
 10
-62.999989
 20
8.500000
 11
-54.999989
 21
8.500000
  0
LINE
  8
0
  6
CENTER
 62
     2
 10
-75.502464
 20
10.000000
 11
-64.570267
 21
10.000000
  0
LINE
  8
0
  6
CENTER
 62
     2
 10
-68.999992
 20
5.533688
 11
-68.999992
 21
14.795689
  0
LINE
  8
0
 10
-56.999989
 20
30.000000
 11
-54.999989
 21
30.000000
  0
LINE
  8
0
 62
     2
 10
-56.999992
 20
30.749981
 11
-55.700943
 21
29.999975
  0
LINE
  8
0
  6
CENTER
 62
     2
 10
-47.499989
 20
13.002014
 11
-47.499989
 21
27.911224
  0
LINE
  8
0
  6
CENTER
 62
     2
 10
-32.499989
 20
13.175377
 11
-32.499989
 21
27.737862
  0
LINE
  8
0
  6
CENTER
 62
     2
 10
-55.920891
 20
20.500000
 11
-25.409019
 21
20.500000
  0
LINE
  8
0
 10
-22.999992
 20
23.000000
 11
64.000008
 21
23.000000
  0
LINE
  8
0
 10
-20.999992
 20
25.000000
 11
64.000008
 21
25.000000
  0
LINE
  8
0
 10
-22.999981
 20
22.999981
 11
-20.999983
 21
24.999979
  0
LINE
  8
0
 10
-16.999992
 20
33.500000
 11
48.000008
 21
33.500000
  0
LINE
  8
0
 10
-16.999992
 20
31.625000
 11
48.000008
 21
31.625000
  0
LINE
  8
0
 10
-16.999992
 20
27.375000
 11
48.000008
 21
27.375000
  0
LINE
  8
0
  6
CENTER
 62
     2
 10
61.250008
 20
25.779076
 11
61.250008
 21
34.781754
  0
LINE
  8
0
  6
CENTER
 62
     2
 10
57.275185
 20
29.500000
 11
69.088783
 21
29.500000
  0
LINE
  8
0
 10
61.250008
 20
31.250000
 11
64.000008
 21
31.250000
  0
LINE
  8
0
 10
61.250008
 20
27.750000
 11
64.000008
 21
27.750000
  0
LINE
  8
0
 10
26.750008
 20
33.750000
 11
27.500008
 21
33.750000
  0
LINE
  8
0
 10
28.500008
 20
33.750000
 11
29.250008
 21
33.750000
  0
LINE
  8
0
 10
-62.999989
 20
35.000000
 11
-54.999989
 21
35.000000
  0
LINE
  8
0
 62
     4
 10
-16.999992
 20
115.800003
 11
48.000008
 21
115.800003
  0
LINE
  8
0
 62
     4
 10
48.000008
 20
116.000000
 11
64.000008
 21
116.000000
  0
LINE
  8
0
 10
-54.999989
 20
-17.000008
 11
-54.999989
 21
87.000000
  0
LINE
  8
0
 10
48.000008
 20
-17.000008
 11
48.000008
 21
87.000000
  0
LINE
  8
0
 10
64.000008
 20
-17.000008
 11
64.000008
 21
87.000000
  0
LINE
  8
0
  6
CENTER
 62
     1
 10
-58.494057
 20
99.000000
 11
86.247292
 21
99.000000
  0
LINE
  8
0
 62
     4
 10
64.000008
 20
89.000000
 11
77.000008
 21
89.000000
  0
LINE
  8
0
 62
     4
 10
64.000008
 20
109.000000
 11
77.000008
 21
109.000000
  0
LINE
  8
0
 62
     1
 10
64.000008
 20
90.000000
 11
78.000008
 21
90.000000
  0
LINE
  8
0
 62
     1
 10
64.000008
 20
108.000000
 11
78.000008
 21
108.000000
  0
LINE
  8
0
 62
     4
 10
78.000008
 20
90.000000
 11
78.000008
 21
108.000000
  0
LINE
  8
0
 62
     4
 10
76.999931
 20
108.999893
 11
77.999931
 21
107.999893
  0
LINE
  8
0
 62
     4
 10
77.999969
 20
90.000000
 11
76.999969
 21
89.000000
  0
LINE
  8
0
 62
     4
 10
77.000008
 20
89.000000
 11
77.000008
 21
109.000000
  0
LINE
  8
0
 62
     4
 10
-16.999992
 20
87.000000
 11
-16.999992
 21
116.000000
  0
LINE
  8
0
 62
     4
 10
48.000008
 20
87.000000
 11
48.000008
 21
116.000000
  0
LINE
  8
0
 62
     4
 10
64.000008
 20
87.000000
 11
64.000008
 21
116.000000
  0
LINE
  8
0
 62
     4
 10
-16.999992
 20
116.000000
 11
-32.999992
 21
116.000000
  0
LINE
  8
0
 62
     4
 10
-32.999992
 20
87.000000
 11
-32.999992
 21
116.000000
  0
LINE
  8
0
 62
     4
 10
-32.999992
 20
89.000000
 11
-45.999992
 21
89.000000
  0
LINE
  8
0
 62
     4
 10
-32.999992
 20
109.000000
 11
-45.999992
 21
109.000000
  0
LINE
  8
0
 62
     1
 10
-32.999992
 20
90.000000
 11
-46.999992
 21
90.000000
  0
LINE
  8
0
 62
     1
 10
-32.999992
 20
108.000000
 11
-46.999992
 21
108.000000
  0
LINE
  8
0
 62
     4
 10
-46.999992
 20
90.000000
 11
-46.999992
 21
108.000000
  0
LINE
  8
0
 62
     4
 10
-45.999931
 20
108.999901
 11
-46.999931
 21
107.999901
  0
LINE
  8
0
 62
     4
 10
-46.999958
 20
90.000000
 11
-45.999943
 21
88.999985
  0
LINE
  8
0
 62
     4
 10
-45.999992
 20
89.000000
 11
-45.999992
 21
109.000000
  0
LINE
  8
0
  6
PHANTOM
 62
     3
 10
15.500008
 20
-59.997757
 11
15.500008
 21
142.181000
  0
LINE
  8
0
  6
CENTER
 62
     2
 10
-201.333344
 20
35.000000
 11
-149.666687
 21
35.000000
  0
LINE
  8
0
 10
-196.000015
 20
87.000000
 11
-155.000046
 21
87.000000
  0
LINE
  8
0
 10
-155.000000
 20
87.000015
 11
-155.000000
 21
-16.999985
  0
LINE
  8
0
 10
-195.999969
 20
86.999977
 11
-195.999969
 21
-17.000023
  0
LINE
  8
0
 10
-195.000015
 20
86.000000
 11
-159.000046
 21
86.000000
  0
LINE
  8
0
  6
CENTER
 62
     2
 10
-185.944260
 20
55.000000
 11
-171.123367
 21
55.000000
  0
LINE
  8
0
  6
CENTER
 62
     2
 10
-176.999969
 20
93.982162
 11
-176.999969
 21
-19.435654
  0
LINE
  8
0
 10
-159.000000
 20
86.000015
 11
-159.000000
 21
-15.999985
  0
LINE
  8
0
 10
-194.999969
 20
85.999977
 11
-194.999969
 21
-16.000023
  0
LINE
  8
0
 10
-171.804001
 20
42.999897
 11
-167.185196
 21
34.999889
  0
LINE
  8
0
 10
-186.815170
 20
35.000095
 11
-182.196381
 21
43.000072
  0
LINE
  8
0
 10
-182.196152
 20
43.000000
 11
-171.803848
 21
43.000000
  0
LINE
  8
0
 10
-174.113464
 20
69.500092
 11
-175.556854
 21
67.000076
  0
LINE
  8
0
 10
-175.556793
 20
71.999908
 11
-174.113419
 21
69.499908
  0
LINE
  8
0
 10
-178.443420
 20
72.000000
 11
-175.556641
 21
72.000000
  0
LINE
  8
0
 10
-179.886887
 20
69.500046
 11
-178.443497
 21
72.000053
  0
LINE
  8
0
 10
-178.443878
 20
66.999702
 11
-179.887268
 21
69.499741
  0
LINE
  8
0
 10
-175.556641
 20
66.999969
 11
-178.443420
 21
66.999969
  0
LINE
  8
0
 10
-153.000000
 20
45.000023
 11
-153.000000
 21
25.000023
  0
LINE
  8
0
 10
-155.000153
 20
46.999840
 11
-153.000137
 21
44.999828
  0
LINE
  8
0
 10
-195.999924
 20
-17.000008
 11
-154.999954
 21
-17.000008
  0
LINE
  8
0
 10
-194.999924
 20
-16.000008
 11
-158.999954
 21
-16.000008
  0
LINE
  8
0
  6
CENTER
 62
     2
 10
-184.431259
 20
14.999998
 11
-170.720840
 21
14.999998
  0
LINE
  8
0
 10
-171.803680
 20
26.999899
 11
-167.184875
 21
34.999905
  0
LINE
  8
0
 10
-186.814728
 20
35.000130
 11
-182.195908
 21
27.000124
  0
LINE
  8
0
 10
-182.196121
 20
26.999998
 11
-171.803818
 21
26.999998
  0
LINE
  8
0
 10
-174.113373
 20
0.499864
 11
-175.556763
 21
2.999882
  0
LINE
  8
0
 10
-175.556961
 20
-1.999755
 11
-174.113602
 21
0.500243
  0
LINE
  8
0
 10
-178.443359
 20
-2.000008
 11
-175.556580
 21
-2.000008
  0
LINE
  8
0
 10
-179.887054
 20
0.499820
 11
-178.443680
 21
-2.000187
  0
LINE
  8
0
 10
-178.443314
 20
2.999964
 11
-179.886703
 21
0.499938
  0
LINE
  8
0
 10
-175.556580
 20
3.000017
 11
-178.443359
 21
3.000017
  0
LINE
  8
0
 10
-154.999832
 20
22.999893
 11
-152.999832
 21
24.999887
  0
LINE
  8
0
  6
CENTER
 62
     2
 10
-184.500000
 20
69.500000
 11
-169.500000
 21
69.500000
  0
LINE
  8
0
  6
CENTER
 62
     2
 10
-184.499939
 20
0.499992
 11
-169.499939
 21
0.499992
  0
LINE
  8
0
 62
     4
 10
-196.000214
 20
116.000000
 11
-155.000214
 21
116.000000
  0
LINE
  8
0
 62
     4
 10
-155.000000
 20
116.000061
 11
-155.000000
 21
87.000053
  0
LINE
  8
0
 62
     4
 10
-196.000000
 20
115.999947
 11
-196.000000
 21
86.999939
  0
LINE
  8
0
  6
CENTER
 62
     1
 10
-188.096802
 20
99.000000
 11
-163.146637
 21
99.000000
  0
LINE
  8
0
  6
CENTER
 62
     1
 10
-175.500000
 20
110.684662
 11
-175.500000
 21
87.421524
  0
LINE
  8
0
 10
163.000015
 20
86.999939
 11
163.000015
 21
45.199936
  0
LINE
  8
0
 10
204.000015
 20
86.999977
 11
204.000015
 21
-16.999992
  0
LINE
  8
0
  6
CENTER
 62
     2
 10
157.213150
 20
34.999981
 11
207.584976
 21
34.999981
  0
LINE
  8
0
 10
162.999924
 20
86.999977
 11
203.999924
 21
86.999977
  0
LINE
  8
0
  6
CENTER
 62
     2
 10
167.229523
 20
61.999977
 11
176.685699
 21
61.999977
  0
LINE
  8
0
  6
CENTER
 62
     2
 10
185.000015
 20
89.640968
 11
185.000015
 21
-18.924202
  0
LINE
  8
0
  6
CENTER
 62
     2
 10
198.000015
 20
67.539932
 11
198.000015
 21
57.632660
  0
LINE
  8
0
  6
CENTER
 62
     2
 10
172.000015
 20
67.741821
 11
172.000015
 21
57.821739
  0
LINE
  8
0
  6
CENTER
 62
     2
 10
192.827164
 20
61.999977
 11
202.921509
 21
61.999977
  0
LINE
  8
0
 10
163.000000
 20
45.199974
 11
163.900024
 21
45.199974
  0
LINE
  8
0
 10
163.900024
 20
46.199974
 11
165.599976
 21
46.199974
  0
LINE
  8
0
 10
165.600021
 20
46.199944
 11
165.600021
 21
23.799940
  0
LINE
  8
0
 10
163.900040
 20
46.199936
 11
163.900040
 21
45.199936
  0
LINE
  8
0
 10
161.000015
 20
44.999939
 11
161.000015
 21
24.999929
  0
LINE
  8
0
 10
161.000107
 20
44.999775
 11
163.000107
 21
46.999779
  0
LINE
  8
0
  6
CENTER
 62
     2
 10
163.650009
 20
43.388214
 11
163.650009
 21
37.763832
  0
LINE
  8
0
  6
CENTER
 62
     2
 10
159.664642
 20
40.499977
 11
166.379089
 21
40.499977
  0
LINE
  8
0
 10
161.000000
 20
42.249977
 11
165.599976
 21
42.249977
  0
LINE
  8
0
 10
161.000015
 20
38.749977
 11
165.599991
 21
38.749977
  0
LINE
  8
0
 10
163.000107
 20
-17.000023
 11
204.000107
 21
-17.000023
  0
LINE
  8
0
  6
CENTER
 62
     2
 10
167.796997
 20
7.999977
 11
176.685791
 21
7.999977
  0
LINE
  8
0
  6
CENTER
 62
     2
 10
198.000015
 20
2.976063
 11
198.000015
 21
12.432224
  0
LINE
  8
0
  6
CENTER
 62
     2
 10
172.000015
 20
3.543386
 11
172.000015
 21
12.432177
  0
LINE
  8
0
  6
CENTER
 62
     2
 10
192.572144
 20
7.999977
 11
202.921509
 21
7.999977
  0
LINE
  8
0
 10
163.000031
 20
24.799976
 11
163.900055
 21
24.799976
  0
LINE
  8
0
 10
163.900055
 20
23.799976
 11
165.600006
 21
23.799976
  0
LINE
  8
0
 10
163.900040
 20
23.799938
 11
163.900040
 21
24.799938
  0
LINE
  8
0
 10
160.999573
 20
24.999435
 11
162.999573
 21
22.999449
  0
LINE
  8
0
  6
CENTER
 62
     2
 10
163.650009
 20
26.611652
 11
163.650009
 21
34.170650
  0
LINE
  8
0
  6
CENTER
 62
     2
 10
159.664673
 20
29.499981
 11
166.379120
 21
29.499981
  0
LINE
  8
0
 10
161.000031
 20
27.749981
 11
165.600006
 21
27.749981
  0
LINE
  8
0
 10
161.000015
 20
31.249981
 11
165.599991
 21
31.249981
  0
LINE
  8
0
  6
CENTER
 62
     2
 10
168.586044
 20
18.499981
 11
183.529648
 21
18.499981
  0
LINE
  8
0
  6
CENTER
 62
     2
 10
186.903610
 20
51.499977
 11
200.846481
 21
51.499977
  0
LINE
  8
0
  6
CENTER
 62
     2
 10
194.000015
 20
58.593269
 11
194.000015
 21
44.266346
  0
LINE
  8
0
  6
CENTER
 62
     2
 10
176.000015
 20
11.220469
 11
176.000015
 21
24.851542
  0
LINE
  8
0
  6
CENTER
 62
     2
 10
164.770950
 20
51.499977
 11
180.089920
 21
51.499977
  0
LINE
  8
0
  6
CENTER
 62
     2
 10
191.500046
 20
18.499981
 11
203.500046
 21
18.499981
  0
LINE
  8
0
  6
CENTER
 62
     2
 10
197.500015
 20
11.864857
 11
197.500015
 21
26.049091
  0
LINE
  8
0
  6
CENTER
 62
     2
 10
172.500015
 20
58.578232
 11
172.500015
 21
44.015747
  0
LINE
  8
0
 10
173.943878
 20
54.000282
 11
175.387268
 21
51.500256
  0
LINE
  8
0
 10
171.056625
 20
53.999977
 11
173.943344
 21
53.999977
  0
LINE
  8
0
 10
169.613342
 20
51.499897
 11
171.056717
 21
53.999893
  0
LINE
  8
0
 10
171.057327
 20
49.000290
 11
169.613953
 21
51.500286
  0
LINE
  8
0
 10
173.943344
 20
49.000000
 11
171.056564
 21
49.000000
  0
LINE
  8
0
 10
175.386871
 20
51.499908
 11
173.943481
 21
48.999878
  0
LINE
  8
0
 10
198.944061
 20
21.000256
 11
200.387436
 21
18.500257
  0
LINE
  8
0
 10
196.056656
 20
20.999973
 11
198.943405
 21
20.999973
  0
LINE
  8
0
 10
194.613449
 20
18.499861
 11
196.056824
 21
20.999868
  0
LINE
  8
0
 10
196.057266
 20
16.000296
 11
194.613892
 21
18.500294
  0
LINE
  8
0
 10
198.943405
 20
16.000027
 11
196.056686
 21
16.000027
  0
LINE
  8
0
 10
200.386902
 20
18.499945
 11
198.943527
 21
15.999938
  0
LINE
  8
0
 62
     4
 10
162.999863
 20
115.999985
 11
203.999863
 21
115.999985
  0
LINE
  8
0
 62
     4
 10
204.000015
 20
116.000015
 11
204.000015
 21
87.000015
  0
LINE
  8
0
 62
     4
 10
163.000015
 20
115.999939
 11
163.000015
 21
86.999939
  0
LINE
  8
0
  6
CENTER
 62
     1
 10
170.903275
 20
98.999977
 11
195.853439
 21
98.999977
  0
LINE
  8
0
  6
CENTER
 62
     1
 10
183.500015
 20
110.684639
 11
183.500015
 21
87.421509
  0
LINE
  8
0
 10
163.000015
 20
-17.000061
 11
163.000015
 21
24.799934
  0
LINE
  8
0
 10
-62.999996
 20
-130.000000
 11
-62.999996
 21
-94.000000
  0
LINE
  8
0
 10
-75.000000
 20
-130.000000
 11
-75.000000
 21
-94.000000
  0
LINE
  8
0
 10
64.000000
 20
-130.999969
 11
64.000000
 21
-87.999969
  0
LINE
  8
0
 10
-54.999996
 20
-90.000000
 11
-54.999996
 21
-131.000000
  0
LINE
  8
0
 10
-17.000000
 20
-87.999985
 11
-17.000000
 21
-130.999985
  0
LINE
  8
0
 10
48.000000
 20
-87.999985
 11
48.000000
 21
-130.999985
  0
LINE
  8
0
 10
-54.999996
 20
-90.000000
 11
-17.000000
 21
-90.000000
  0
LINE
  8
0
  6
CENTER
 62
     2
 10
-81.019974
 20
-112.000000
 11
67.334335
 21
-112.000000
  0
LINE
  8
0
 10
-75.000000
 20
-94.000000
 11
-62.999996
 21
-94.000000
  0
LINE
  8
0
 10
-75.000000
 20
-130.000000
 11
-62.999996
 21
-130.000000
  0
LINE
  8
0
 10
-17.000000
 20
-90.199997
 11
48.000000
 21
-90.199997
  0
LINE
  8
0
 10
48.000000
 20
-90.000000
 11
64.000000
 21
-90.000000
  0
LINE
  8
0
 10
-54.999996
 20
-131.000000
 11
-17.000000
 21
-131.000000
  0
LINE
  8
0
 10
-17.000000
 20
-130.799988
 11
48.000000
 21
-130.799988
  0
LINE
  8
0
 10
-17.000008
 20
-88.199997
 11
47.999992
 21
-88.199997
  0
LINE
  8
0
 10
-21.000008
 20
-88.000000
 11
-17.000008
 21
-88.000000
  0
LINE
  8
0
 10
-22.999832
 20
-90.000130
 11
-20.999855
 21
-88.000145
  0
LINE
  8
0
 10
47.999992
 20
-88.000000
 11
64.000000
 21
-88.000000
  0
LINE
  8
0
 10
-62.999996
 20
-120.000000
 11
-54.999996
 21
-120.000000
  0
LINE
  8
0
 10
-62.999996
 20
-104.000000
 11
-54.999996
 21
-104.000000
  0
LINE
  8
0
  6
CENTER
 62
     2
 10
-73.210762
 20
-100.000000
 11
-64.680847
 21
-100.000000
  0
LINE
  8
0
  6
CENTER
 62
     2
 10
-73.779625
 20
-124.000000
 11
-64.489624
 21
-124.000000
  0
LINE
  8
0
  6
CENTER
 62
     2
 10
-69.000000
 20
-128.235229
 11
-69.000000
 21
-119.247513
  0
LINE
  8
0
  6
CENTER
 62
     2
 10
-69.000000
 20
-104.140503
 11
-69.000000
 21
-94.763519
  0
LINE
  8
0
  6
CENTER
 62
     2
 10
56.000000
 20
-129.573807
 11
56.000000
 21
-120.586105
  0
LINE
  8
0
 10
48.000000
 20
-131.000000
 11
64.000000
 21
-131.000000
  0
LINE
  8
0
  6
CENTER
 62
     2
 10
-52.162842
 20
-124.500000
 11
-42.499996
 21
-124.500000
  0
LINE
  8
0
  6
CENTER
 62
     2
 10
-51.973221
 20
-96.500000
 11
-42.499996
 21
-96.500000
  0
LINE
  8
0
  6
CENTER
 62
     2
 10
-46.999996
 20
-90.968384
 11
-46.999996
 21
-101.000000
  0
LINE
  8
0
  6
CENTER
 62
     2
 10
-24.999996
 20
-90.968369
 11
-24.999996
 21
-100.999985
  0
LINE
  8
0
  6
CENTER
 62
     2
 10
-46.999996
 20
-120.000000
 11
-46.999996
 21
-129.000000
  0
LINE
  8
0
  6
CENTER
 62
     2
 10
-29.499996
 20
-96.500000
 11
-20.499996
 21
-96.500000
  0
LINE
  8
0
  6
CENTER
 62
     2
 10
-24.999996
 20
-119.999985
 11
-24.999996
 21
-128.999985
  0
LINE
  8
0
  6
CENTER
 62
     2
 10
-29.499996
 20
-124.500000
 11
-20.499996
 21
-124.500000
  0
LINE
  8
0
  6
CENTER
 62
     2
 10
51.500000
 20
-96.500000
 11
60.282364
 21
-96.500000
  0
LINE
  8
0
  6
CENTER
 62
     2
 10
51.500000
 20
-124.500000
 11
60.471985
 21
-124.500000
  0
LINE
  8
0
  6
CENTER
 62
     2
 10
56.000000
 20
-100.999985
 11
56.000000
 21
-91.537231
  0
LINE
  8
0
 62
     4
 10
64.000000
 20
-100.499977
 11
77.000000
 21
-100.499977
  0
LINE
  8
0
 62
     4
 10
64.000000
 20
-120.499969
 11
77.000000
 21
-120.499969
  0
LINE
  8
0
 62
     4
 10
78.000000
 20
-119.499939
 11
78.000000
 21
-101.499954
  0
LINE
  8
0
 62
     4
 10
76.999985
 20
-100.499962
 11
77.999977
 21
-101.499962
  0
LINE
  8
0
 10
77.000015
 20
-120.499969
 11
78.000008
 21
-119.499969
  0
LINE
  8
0
 62
     4
 10
77.000000
 20
-100.499947
 11
77.000000
 21
-120.499939
  0
LINE
  8
0
 62
     1
 10
78.000000
 20
-119.499969
 11
64.000000
 21
-119.499969
  0
LINE
  8
0
 62
     1
 10
78.000000
 20
-101.499985
 11
64.000000
 21
-101.499985
  0
LINE
  8
0
 10
-58.125828
 20
-122.949997
 11
-61.874161
 21
-122.949997
  0
LINE
  8
0
 10
-58.125832
 20
-101.050003
 11
-61.874165
 21
-101.050003
  0
LINE
  8
0
 10
-56.999996
 20
-103.787498
 11
-56.999996
 21
-104.000000
  0
LINE
  8
0
 10
-56.999996
 20
-120.000000
 11
-56.999996
 21
-120.212494
  0
LINE
  8
0
  6
CENTER
 62
     1
 10
62.350067
 20
-110.500000
 11
79.592941
 21
-110.500000
  0
LINE
  8
0
  6
PHANTOM
 62
     3
 10
15.500000
 20
-59.999279
 11
15.500000
 21
-148.142426
  0
LINE
  8
0
 10
-281.250000
 20
195.500000
 11
282.099976
 21
195.500000
  0
LINE
  8
0
 10
-281.250000
 20
195.500000
 11
-281.250000
 21
-195.000000
  0
LINE
  8
0
 10
282.099976
 20
195.500000
 11
282.099976
 21
-195.000000
  0
LINE
  8
0
 10
-281.250000
 20
-195.000000
 11
282.099976
 21
-195.000000
  0
LINE
  8
0
 10
162.099976
 20
-175.000000
 11
162.099976
 21
-195.000000
  0
LINE
  8
0
 10
162.099976
 20
-175.000000
 11
282.099976
 21
-175.000000
  0
LINE
  8
0
 10
162.099976
 20
175.500000
 11
282.099976
 21
175.500000
  0
LINE
  8
0
 10
-281.250000
 20
175.500000
 11
-161.250000
 21
175.500000
  0
LINE
  8
0
 10
162.099976
 20
195.500000
 11
162.099976
 21
175.500000
  0
LINE
  8
0
 10
-161.250000
 20
195.500000
 11
-161.250000
 21
175.500000
  0
LINE
  8
0
 10
-271.250000
 20
-185.000000
 11
-23.250000
 21
-185.000000
  0
LINE
  8
0
 10
-271.250000
 20
-177.000000
 11
-23.250000
 21
-177.000000
  0
LINE
  8
0
 10
-271.250000
 20
-169.000000
 11
-23.250000
 21
-169.000000
  0
LINE
  8
0
 10
-271.250000
 20
-153.000000
 11
-271.250000
 21
-185.000000
  0
LINE
  8
0
 10
-221.250000
 20
-153.000000
 11
-221.250000
 21
-185.000000
  0
LINE
  8
0
 10
-199.250000
 20
-153.000000
 11
-199.250000
 21
-185.000000
  0
LINE
  8
0
 10
-177.250000
 20
-153.000000
 11
-177.250000
 21
-185.000000
  0
LINE
  8
0
 10
-155.250000
 20
-153.000000
 11
-155.250000
 21
-185.000000
  0
LINE
  8
0
 10
-133.250000
 20
-153.000000
 11
-133.250000
 21
-185.000000
  0
LINE
  8
0
 10
-111.250000
 20
-153.000000
 11
-111.250000
 21
-185.000000
  0
LINE
  8
0
 10
-271.250000
 20
-153.000000
 11
-23.250000
 21
-153.000000
  0
LINE
  8
0
 10
-271.250000
 20
-153.000046
 11
-221.250000
 21
-169.000046
  0
LINE
  8
0
 10
-89.250000
 20
-153.000000
 11
-89.250000
 21
-185.000000
  0
LINE
  8
0
 10
-67.250000
 20
-153.000000
 11
-67.250000
 21
-185.000000
  0
LINE
  8
0
 10
-45.250000
 20
-153.000000
 11
-45.250000
 21
-185.000000
  0
LINE
  8
0
 10
-23.250000
 20
-153.000000
 11
-23.250000
 21
-185.000000
  0
CIRCLE
  8
0
 10
-32.499989
 20
20.500000
 40
5.500000
  0
CIRCLE
  8
0
 10
-68.999992
 20
60.000000
 40
2.500000
  0
CIRCLE
  8
0
 10
-47.499989
 20
20.500000
 40
5.500000
  0
CIRCLE
  8
0
 10
-68.999992
 20
10.000000
 40
2.500000
  0
ARC
  8
0
 10
61.250008
 20
29.500000
 40
1.750000
 50
89.999878
 51
270.000000
  0
ARC
  8
0
 10
28.000008
 20
33.750000
 40
0.500000
 50
0.000000
 51
180.000000
  0
ARC
  8
0
 10
-85.269066
 20
39.750000
 40
28.269070
 50
350.326813
 51
9.673184
  0
ARC
  8
0
 10
-34.730915
 20
39.750000
 40
28.269068
 50
170.326782
 51
189.673157
  0
CIRCLE
  8
0
 62
     2
 10
-68.999992
 20
60.000000
 40
3.000000
  0
CIRCLE
  8
0
 10
-47.499989
 20
49.500000
 40
3.300000
  0
CIRCLE
  8
0
 10
-32.499989
 20
49.500000
 40
3.300000
  0
CIRCLE
  8
0
 10
-32.499989
 20
49.500000
 40
5.500000
  0
CIRCLE
  8
0
 10
-47.499989
 20
49.500000
 40
5.500000
  0
ARC
  8
0
 10
61.250008
 20
40.500000
 40
1.750000
 50
90.000000
 51
270.000000
  0
ARC
  8
0
 10
29.250008
 20
35.000000
 40
1.250000
 50
270.000000
 51
90.000000
  0
ARC
  8
0
 10
26.750008
 20
35.000000
 40
1.250000
 50
90.000000
 51
269.999908
  0
ARC
  8
0
 10
28.000008
 20
36.250000
 40
0.500000
 50
180.000000
 51
0.000000
  0
ARC
  8
0
 10
-85.269066
 20
30.250000
 40
28.269070
 50
350.326752
 51
9.673130
  0
ARC
  8
0
 10
-34.730915
 20
30.250000
 40
28.269068
 50
170.326782
 51
189.673157
  0
CIRCLE
  8
0
 62
     2
 10
-68.999992
 20
10.000000
 40
3.000000
  0
CIRCLE
  8
0
 10
-47.499989
 20
20.500000
 40
3.300000
  0
CIRCLE
  8
0
 10
-32.499989
 20
20.500000
 40
3.300000
  0
CIRCLE
  8
0
 62
     2
 10
-176.999969
 20
35.000000
 40
4.250000
  0
CIRCLE
  8
0
 10
-176.999969
 20
14.999998
 40
3.375000
  0
CIRCLE
  8
0
 62
     4
 10
-175.500183
 20
98.999992
 40
10.000000
  0
CIRCLE
  8
0
 10
-176.999969
 20
55.000000
 40
3.375000
  0
CIRCLE
  8
0
 10
-176.999969
 20
35.000000
 40
14.000000
  0
CIRCLE
  8
0
 62
     2
 10
-176.999985
 20
55.000000
 40
4.000000
  0
CIRCLE
  8
0
 10
-177.000000
 20
69.500000
 40
5.500000
  0
CIRCLE
  8
0
 10
-177.000000
 20
69.500000
 40
5.000000
  0
CIRCLE
  8
0
 10
-176.999969
 20
35.000000
 40
5.000000
  0
CIRCLE
  8
0
 62
     2
 10
-176.999954
 20
14.999998
 40
4.000000
  0
CIRCLE
  8
0
 10
-176.999939
 20
0.499992
 40
5.500000
  0
CIRCLE
  8
0
 10
-176.999939
 20
0.499992
 40
5.000000
  0
CIRCLE
  8
0
 62
     1
 10
-175.500183
 20
98.999992
 40
9.000000
  0
CIRCLE
  8
0
 10
172.000015
 20
7.999977
 40
2.500000
  0
CIRCLE
  8
0
 10
198.000015
 20
7.999977
 40
2.500000
  0
CIRCLE
  8
0
 10
193.999985
 20
51.500000
 40
4.283000
  0
CIRCLE
  8
0
 10
172.000015
 20
61.999977
 40
2.500000
  0
CIRCLE
  8
0
 10
198.000015
 20
61.999977
 40
2.500000
  0
CIRCLE
  8
0
 62
     1
 10
183.499893
 20
98.999977
 40
9.000000
  0
CIRCLE
  8
0
 62
     4
 10
183.499893
 20
98.999977
 40
10.000000
  0
CIRCLE
  8
0
 62
     2
 10
171.999969
 20
61.999954
 40
3.000000
  0
CIRCLE
  8
0
 62
     2
 10
197.999969
 20
62.000000
 40
3.000000
  0
ARC
  8
0
 10
163.649994
 20
40.499939
 40
1.750000
 50
90.000000
 51
270.000000
  0
CIRCLE
  8
0
 62
     2
 10
172.000061
 20
7.999954
 40
3.000000
  0
CIRCLE
  8
0
 62
     2
 10
198.000061
 20
8.000000
 40
3.000000
  0
ARC
  8
0
 10
163.650024
 20
29.499941
 40
1.750000
 50
90.000000
 51
270.000000
  0
CIRCLE
  8
0
 10
172.499985
 20
51.499954
 40
5.500000
  0
CIRCLE
  8
0
 10
197.500046
 20
18.500004
 40
5.500000
  0
CIRCLE
  8
0
 10
197.500046
 20
18.500004
 40
5.000000
  0
CIRCLE
  8
0
 10
172.499985
 20
51.499954
 40
5.000000
  0
CIRCLE
  8
0
 62
     2
 10
176.000046
 20
18.499962
 40
4.864000
  0
CIRCLE
  8
0
 62
     2
 10
193.999985
 20
51.500000
 40
4.864000
  0
CIRCLE
  8
0
 10
176.000046
 20
18.499962
 40
4.283000
  0
CIRCLE
  8
0
 10
-24.999996
 20
-124.500000
 40
2.500000
  0
CIRCLE
  8
0
 10
-24.999996
 20
-96.500000
 40
2.500000
  0
CIRCLE
  8
0
 10
56.000000
 20
-124.500000
 40
2.500000
  0
CIRCLE
  8
0
 10
-46.999996
 20
-124.500000
 40
2.500000
  0
CIRCLE
  8
0
 10
56.000000
 20
-96.500000
 40
2.500000
  0
CIRCLE
  8
0
 10
-69.000000
 20
-124.000000
 40
2.500000
  0
CIRCLE
  8
0
 62
     2
 10
-46.999992
 20
-124.500000
 40
3.000000
  0
CIRCLE
  8
0
 62
     2
 10
56.000000
 20
-124.499985
 40
3.000000
  0
CIRCLE
  8
0
 62
     2
 10
56.000000
 20
-96.499977
 40
3.000000
  0
CIRCLE
  8
0
 62
     2
 10
-24.999992
 20
-124.499985
 40
3.000000
  0
CIRCLE
  8
0
 62
     2
 10
-25.000000
 20
-96.499992
 40
3.000000
  0
CIRCLE
  8
0
 62
     2
 10
-69.000000
 20
-100.000000
 40
3.000000
  0
CIRCLE
  8
0
 62
     2
 10
-69.000000
 20
-124.000000
 40
3.000000
  0
CIRCLE
  8
0
 62
     2
 10
-47.000000
 20
-96.499992
 40
3.000000
  0
ARC
  8
0
 10
-60.891075
 20
-103.787498
 40
3.891076
 50
356.869385
 51
44.711163
  0
ARC
  8
0
 10
-60.891071
 20
-120.212494
 40
3.891079
 50
315.288849
 51
3.130625
  0
ARC
  8
0
 10
-59.108917
 20
-120.212494
 40
3.891076
 50
176.869370
 51
224.711090
  0
ARC
  8
0
 10
-59.108921
 20
-103.787498
 40
3.891076
 50
135.288803
 51
183.130630
  0
CIRCLE
  8
0
 10
-69.000000
 20
-100.000000
 40
2.500000
  0
CIRCLE
  8
0
 10
-46.999996
 20
-96.500000
 40
2.500000
  0
TEXT
  8
0
 10
196.250259
 20
180.830002
 40
6.300000
  1
Ver. 2.0
 50
0.000000
 41
1.052632
 51
0.000000
  7
STANDARD
  0
TEXT
  8
0
 10
167.564667
 20
-192.100006
 40
9.000000
  1
KOGANEI CORP.
 50
0.000000
 41
1.052632
 51
0.000000
  7
STANDARD
  0
TEXT
  8
0
 10
-262.849731
 20
180.830002
 40
6.300000
  1
AXIS CYLINDER
 50
0.000000
 41
1.052632
 51
0.000000
  7
STANDARD
  0
TEXT
  8
0
 10
-232.550003
 20
145.830002
 40
6.300000
  1
XDAA32*ST(25)-SSL
 50
0.000000
 41
1.052632
 51
0.000000
  7
STANDARD
  0
TEXT
  8
0
 10
-270.049988
 20
155.830002
 40
6.300000
  1
MODEL:XDA32*ST(25)-SSL
 50
0.000000
 41
1.052632
 51
0.000000
  7
STANDARD
  0
TEXT
  8
0
 10
-43.642857
 20
-152.050003
 40
4.500000
  1
(mm)
 50
0.000000
 41
1.052632
 51
0.000000
  7
STANDARD
  0
TEXT
  8
0
 10
-215.142853
 20
-164.050003
 40
4.500000
  1
25
 50
0.000000
 41
1.052632
 51
0.000000
  7
STANDARD
  0
TEXT
  8
0
 10
-193.142853
 20
-164.050003
 40
4.500000
  1
50
 50
0.000000
 41
1.052632
 51
0.000000
  7
STANDARD
  0
TEXT
  8
0
 10
-171.142853
 20
-164.050003
 40
4.500000
  1
75
 50
0.000000
 41
1.052632
 51
0.000000
  7
STANDARD
  0
TEXT
  8
0
 10
-151.392853
 20
-164.050003
 40
4.500000
  1
100
 50
0.000000
 41
1.052632
 51
0.000000
  7
STANDARD
  0
TEXT
  8
0
 10
-41.392857
 20
-164.050003
 40
4.500000
  1
225
 50
0.000000
 41
1.052632
 51
0.000000
  7
STANDARD
  0
TEXT
  8
0
 10
-212.892853
 20
-176.050003
 40
4.500000
  1
0
 50
0.000000
 41
1.052632
 51
0.000000
  7
STANDARD
  0
TEXT
  8
0
 10
-212.892853
 20
-184.050003
 40
4.500000
  1
0
 50
0.000000
 41
1.052632
 51
0.000000
  7
STANDARD
  0
TEXT
  8
0
 10
-193.142853
 20
-176.050003
 40
4.500000
  1
25
 50
0.000000
 41
1.052632
 51
0.000000
  7
STANDARD
  0
TEXT
  8
0
 10
-193.142853
 20
-184.050003
 40
4.500000
  1
25
 50
0.000000
 41
1.052632
 51
0.000000
  7
STANDARD
  0
TEXT
  8
0
 10
-171.142853
 20
-176.050003
 40
4.500000
  1
50
 50
0.000000
 41
1.052632
 51
0.000000
  7
STANDARD
  0
TEXT
  8
0
 10
-171.142853
 20
-184.050003
 40
4.500000
  1
50
 50
0.000000
 41
1.052632
 51
0.000000
  7
STANDARD
  0
TEXT
  8
0
 10
-149.142853
 20
-176.050003
 40
4.500000
  1
75
 50
0.000000
 41
1.052632
 51
0.000000
  7
STANDARD
  0
TEXT
  8
0
 10
-149.142853
 20
-184.050003
 40
4.500000
  1
75
 50
0.000000
 41
1.052632
 51
0.000000
  7
STANDARD
  0
TEXT
  8
0
 10
-41.392857
 20
-176.050003
 40
4.500000
  1
200
 50
0.000000
 41
1.052632
 51
0.000000
  7
STANDARD
  0
TEXT
  8
0
 10
-41.392857
 20
-184.050003
 40
4.500000
  1
200
 50
0.000000
 41
1.052632
 51
0.000000
  7
STANDARD
  0
TEXT
  8
0
 10
-250.377258
 20
-160.050003
 40
4.500000
  1
STROKE
 50
0.000000
 41
1.052632
 51
0.000000
  7
STANDARD
  0
TEXT
  8
0
 10
-265.408447
 20
-168.050003
 40
4.500000
  1
TYPE
 50
0.000000
 41
1.052632
 51
0.000000
  7
STANDARD
  0
TEXT
  8
0
 10
-264.000000
 20
-174.699997
 40
4.500000
  1
XDA32
 50
0.000000
 41
1.052632
 51
0.000000
  7
STANDARD
  0
TEXT
  8
0
 10
-264.000000
 20
-182.699997
 40
4.500000
  1
XDAA32
 50
0.000000
 41
1.052632
 51
0.000000
  7
STANDARD
  0
TEXT
  8
0
 10
-178.642853
 20
-151.050003
 40
4.500000
  1
STRETCH LIST
 50
0.000000
 41
1.052632
 51
0.000000
  7
STANDARD
  0
TEXT
  8
0
 10
-129.392853
 20
-176.050003
 40
4.500000
  1
100
 50
0.000000
 41
1.052632
 51
0.000000
  7
STANDARD
  0
TEXT
  8
0
 10
-129.392853
 20
-184.050003
 40
4.500000
  1
100
 50
0.000000
 41
1.052632
 51
0.000000
  7
STANDARD
  0
TEXT
  8
0
 10
-129.392853
 20
-164.050003
 40
4.500000
  1
125
 50
0.000000
 41
1.052632
 51
0.000000
  7
STANDARD
  0
TEXT
  8
0
 10
-107.392853
 20
-176.050003
 40
4.500000
  1
125
 50
0.000000
 41
1.052632
 51
0.000000
  7
STANDARD
  0
TEXT
  8
0
 10
-107.392853
 20
-184.050003
 40
4.500000
  1
125
 50
0.000000
 41
1.052632
 51
0.000000
  7
STANDARD
  0
TEXT
  8
0
 10
-107.392853
 20
-164.050003
 40
4.500000
  1
150
 50
0.000000
 41
1.052632
 51
0.000000
  7
STANDARD
  0
TEXT
  8
0
 10
-85.392853
 20
-176.050003
 40
4.500000
  1
150
 50
0.000000
 41
1.052632
 51
0.000000
  7
STANDARD
  0
TEXT
  8
0
 10
-85.392853
 20
-184.050003
 40
4.500000
  1
150
 50
0.000000
 41
1.052632
 51
0.000000
  7
STANDARD
  0
TEXT
  8
0
 10
-85.392853
 20
-164.050003
 40
4.500000
  1
175
 50
0.000000
 41
1.052632
 51
0.000000
  7
STANDARD
  0
TEXT
  8
0
 10
-63.392857
 20
-176.050003
 40
4.500000
  1
175
 50
0.000000
 41
1.052632
 51
0.000000
  7
STANDARD
  0
TEXT
  8
0
 10
-63.392857
 20
-184.050003
 40
4.500000
  1
175
 50
0.000000
 41
1.052632
 51
0.000000
  7
STANDARD
  0
TEXT
  8
0
 10
-63.392857
 20
-164.050003
 40
4.500000
  1
200
 50
0.000000
 41
1.052632
 51
0.000000
  7
STANDARD
  0
TEXT
  8
0
 62
     3
 10
-23.433294
 20
155.029129
 40
6.300000
  1
STRETCH LINE
 50
0.000000
 41
1.052632
 51
0.000000
  7
STANDARD
  0
ENDSEC
  0
EOF
