  0
SECTION
  2
HEADER
  0
ENDSEC
  0
SECTION
  2
TABLES
  0
TABLE
  2
LTYPE
 70
     4
  0
LTYPE
  2
CONTINUOUS
 70
    64
  3
Solid line
 72
    65
 73
     0
 40
0.000000
  0
LTYPE
  2
DASHED
 70
    64
  3
__ __ __ __ __ __ __ __ __ __ __ __ __ __ __
 72
    65
 73
     2
 40
3.500000
 49
2.000000
 49
-1.500000
  0
LTYPE
  2
CENTER
 70
    64
  3
____ _ ____ _ ____ _ ____ _ ____ _ ____ _ ____
 72
    65
 73
     4
 40
17.500000
 49
13.000000
 49
-1.500000
 49
1.500000
 49
-1.500000
  0
LTYPE
  2
PHANTOM
 70
    64
  3
_____ _ _ _____ _ _ _____ _ _ _____ _ _ ____  
 72
    65
 73
     6
 40
15.500000
 49
8.000000
 49
-1.500000
 49
1.500000
 49
-1.500000
 49
1.500000
 49
-1.500000
  0
LTYPE
  2
DASHED1
 70
    64
  3
__ __ __ __ __ __ __ __ __ __ __ __ __ __ __
 72
    65
 73
     2
 40
1.500000
 49
1.000000
 49
-0.500000
  0
LTYPE
  2
DASHED2
 70
    64
  3
__ __ __ __ __ __ __ __ __ __ __ __ __ __ __
 72
    65
 73
     2
 40
3.500000
 49
2.500000
 49
-1.000000
  0
LTYPE
  2
DASHED3
 70
    64
  3
__ __ __ __ __ __ __ __ __ __ __ __ __ __ __
 72
    65
 73
     2
 40
6.000000
 49
4.000000
 49
-2.000000
  0
LTYPE
  2
DASHED4
 70
    64
  3
__ __ __ __ __ __ __ __ __ __ __ __ __ __ __
 72
    65
 73
     2
 40
12.000000
 49
10.000000
 49
-2.000000
  0
LTYPE
  2
DASHED5
 70
    64
  3
__ __ __ __ __ __ __ __ __ __ __ __ __ __ __
 72
    65
 73
     2
 40
17.000000
 49
15.000000
 49
-2.000000
  0
LTYPE
  2
DASHED6
 70
    64
  3
__ __ __ __ __ __ __ __ __ __ __ __ __ __ __
 72
    65
 73
     2
 40
29.000000
 49
27.000000
 49
-2.000000
  0
LTYPE
  2
PHANTOM1
 70
    64
  3
_____ _ _ _____ _ _ _____ _ _ _____ _ _ ____  
 72
    65
 73
     6
 40
31.000000
 49
25.000000
 49
-1.500000
 49
1.000000
 49
-1.000000
 49
1.000000
 49
-1.500000
  0
LTYPE
  2
PHANTOM2
 70
    64
  3
_____ _ _ _____ _ _ _____ _ _ _____ _ _ ____  
 72
    65
 73
     6
 40
36.000000
 49
27.000000
 49
-1.500000
 49
2.500000
 49
-1.000000
 49
2.500000
 49
-1.500000
  0
LTYPE
  2
PHANTOM3
 70
    64
  3
_____ _ _ _____ _ _ _____ _ _ _____ _ _ ____  
 72
    65
 73
     6
 40
78.000000
 49
64.000000
 49
-2.000000
 49
4.000000
 49
-2.000000
 49
4.000000
 49
-2.000000
  0
LTYPE
  2
CENTER1
 70
    64
  3
____ _ ____ _ ____ _ ____ _ ____ _ ____ _ ____
 72
    65
 73
     4
 40
19.000000
 49
14.000000
 49
-1.000000
 49
3.000000
 49
-1.000000
  0
LTYPE
  2
CENTER2
 70
    64
  3
____ _ ____ _ ____ _ ____ _ ____ _ ____ _ ____
 72
    65
 73
     4
 40
28.500000
 49
25.000000
 49
-1.000000
 49
1.500000
 49
-1.000000
  0
LTYPE
  2
CENTER3
 70
    64
  3
____ _ ____ _ ____ _ ____ _ ____ _ ____ _ ____
 72
    65
 73
     4
 40
31.500000
 49
27.000000
 49
-1.000000
 49
2.500000
 49
-1.000000
  0
LTYPE
  2
CENTER4
 70
    64
  3
____ _ ____ _ ____ _ ____ _ ____ _ ____ _ ____
 72
    65
 73
     4
 40
50.000000
 49
45.000000
 49
-1.000000
 49
3.000000
 49
-1.000000
  0
LTYPE
  2
CENTER5
 70
    64
  3
____ _ ____ _ ____ _ ____ _ ____ _ ____ _ ____
 72
    65
 73
     4
 40
100.000000
 49
92.000000
 49
-2.000000
 49
4.000000
 49
-2.000000
  0
LTYPE
  2
SBK1
 70
    64
  3
______ _ _ _ ______ _ _ _ ______ _ _ _ _____  
 72
    65
 73
     8
 40
60.500000
 49
45.000000
 49
-2.000000
 49
2.500000
 49
-2.000000
 49
2.500000
 49
-2.000000
 49
2.500000
 49
-2.000000
  0
LTYPE
  2
SBK2
 70
    64
  3
______ _ _ _ ______ _ _ _ ______ _ _ _ _____  
 72
    65
 73
     8
 40
84.000000
 49
64.000000
 49
-2.000000
 49
4.000000
 49
-2.000000
 49
4.000000
 49
-2.000000
 49
4.000000
 49
-2.000000
  0
LTYPE
  2
STCH
 70
    64
  3
__ __ __ __ __ __ __ __ __ __ __ __ __ __ __
 72
    65
 73
     2
 40
3.000000
 49
1.000000
 49
-2.000000
  0
LTYPE
  2
MTCH
 70
    64
  3
_____ _ _ _____ _ _ _____ _ _ _____ _ _ ____  
 72
    65
 73
     6
 40
80.000000
 49
66.000000
 49
-2.000000
 49
4.000000
 49
-2.000000
 49
4.000000
 49
-2.000000
  0
ENDTAB
  0
TABLE
  2
LAYER
 70
     1
  0
LAYER
  2
0
 70
     0
 62
     7
  6
CONTINUOUS
  0
ENDTAB
  0
TABLE
  2
STYLE
 70
     1
  0
STYLE
  2
STANDARD
 70
     0
 40
0.000000
 41
1.000000
 50
0.000000
 71
     0
 42
0.200000
  3
txt
  4
BIGFONT
  0
ENDTAB
  0
TABLE
  2
VIEW
 70
     0
  0
ENDTAB
  0
ENDSEC
  0
SECTION
  2
BLOCKS
  0
ENDSEC
  0
SECTION
  2
ENTITIES
  0
LINE
  8
0
 10
-48.000015
 20
71.999992
 11
-17.000019
 21
71.999992
  0
LINE
  8
0
 10
-17.000019
 20
71.799988
 11
47.999435
 21
71.799988
  0
LINE
  8
0
 10
47.999451
 20
71.999992
 11
58.999420
 21
71.999992
  0
LINE
  8
0
 10
-65.000015
 20
71.000000
 11
-65.000015
 21
-10.999996
  0
LINE
  8
0
 10
-65.000023
 20
71.000000
 11
-55.000019
 21
71.000000
  0
LINE
  8
0
 10
-50.518166
 20
30.000000
 11
-54.467094
 21
30.000000
  0
LINE
  8
0
 10
-50.000019
 20
33.999996
 11
-48.000015
 21
33.999996
  0
LINE
  8
0
 62
     2
 10
-50.000027
 20
33.500019
 11
-49.134007
 21
34.000019
  0
LINE
  8
0
  6
CENTER
 62
     2
 10
-56.710697
 20
58.499996
 11
-45.022274
 21
58.499996
  0
LINE
  8
0
 10
-55.000019
 20
64.500000
 11
-48.000015
 21
64.500000
  0
LINE
  8
0
 10
-55.000019
 20
52.500000
 11
-48.000015
 21
52.500000
  0
LINE
  8
0
  6
CENTER
 62
     2
 10
-64.007805
 20
50.999996
 11
-56.105656
 21
50.999996
  0
LINE
  8
0
  6
CENTER
 62
     2
 10
-41.500015
 20
49.474861
 11
-41.500015
 21
35.579086
  0
LINE
  8
0
  6
CENTER
 62
     2
 10
-30.000019
 20
49.793587
 11
-30.000019
 21
35.439724
  0
LINE
  8
0
  6
CENTER
 62
     2
 10
-49.270893
 20
42.499992
 11
-23.143936
 21
42.499992
  0
LINE
  8
0
 10
-23.000019
 20
41.999992
 11
58.999420
 21
41.999992
  0
LINE
  8
0
 10
-21.000023
 20
39.999996
 11
58.999443
 21
39.999996
  0
LINE
  8
0
 10
-21.000034
 20
39.999989
 11
-23.000034
 21
41.999989
  0
LINE
  8
0
 10
-17.000019
 20
31.499992
 11
47.999435
 21
31.499992
  0
LINE
  8
0
 10
-17.000019
 20
33.374992
 11
47.999435
 21
33.374992
  0
LINE
  8
0
 10
-17.000019
 20
37.624996
 11
47.999451
 21
37.624996
  0
LINE
  8
0
 10
26.752876
 20
31.249996
 11
27.502861
 21
31.249996
  0
LINE
  8
0
 10
28.502869
 20
31.249996
 11
29.252869
 21
31.249996
  0
LINE
  8
0
  6
CENTER
 62
     2
 10
52.984306
 20
35.499996
 11
60.183365
 21
35.499996
  0
LINE
  8
0
 10
56.250252
 20
37.250000
 11
59.000221
 21
37.250000
  0
LINE
  8
0
 10
56.250252
 20
33.750004
 11
59.000221
 21
33.750004
  0
LINE
  8
0
 10
-48.000015
 20
-11.999996
 11
-17.000019
 21
-11.999996
  0
LINE
  8
0
 10
-17.000019
 20
-11.799995
 11
47.999435
 21
-11.799995
  0
LINE
  8
0
 10
47.999451
 20
-11.999996
 11
58.999420
 21
-11.999996
  0
LINE
  8
0
 10
-65.000023
 20
-10.999996
 11
-55.000019
 21
-10.999996
  0
LINE
  8
0
 10
-50.000019
 20
26.000000
 11
-48.000015
 21
26.000000
  0
LINE
  8
0
 62
     2
 10
-50.000019
 20
26.500023
 11
-49.133995
 21
26.000025
  0
LINE
  8
0
  6
CENTER
 62
     2
 10
-56.710697
 20
1.500004
 11
-45.022274
 21
1.500004
  0
LINE
  8
0
 10
-55.000019
 20
-4.499992
 11
-48.000015
 21
-4.499992
  0
LINE
  8
0
 10
-55.000019
 20
7.500004
 11
-48.000015
 21
7.500004
  0
LINE
  8
0
  6
CENTER
 62
     2
 10
-63.906502
 20
9.000004
 11
-56.206966
 21
9.000004
  0
LINE
  8
0
  6
CENTER
 62
     2
 10
-60.000019
 20
5.074030
 11
-60.000019
 21
12.874874
  0
LINE
  8
0
  6
CENTER
 62
     2
 10
-41.500015
 20
10.634022
 11
-41.500015
 21
24.430450
  0
LINE
  8
0
  6
CENTER
 62
     2
 10
-30.000019
 20
10.076590
 11
-30.000019
 21
24.430450
  0
LINE
  8
0
  6
CENTER
 62
     2
 10
-49.098118
 20
17.500004
 11
-23.143936
 21
17.500004
  0
LINE
  8
0
 10
-23.000023
 20
18.000002
 11
-23.000023
 21
42.287914
  0
LINE
  8
0
 10
-23.000023
 20
18.000002
 11
58.999420
 21
18.000002
  0
LINE
  8
0
 10
-21.000023
 20
20.000000
 11
58.999420
 21
20.000000
  0
LINE
  8
0
 10
-21.000019
 20
20.000000
 11
-21.000019
 21
39.999996
  0
LINE
  8
0
 10
-21.000017
 20
19.999996
 11
-23.000013
 21
18.000000
  0
LINE
  8
0
 10
-17.000019
 20
28.500000
 11
47.999435
 21
28.500000
  0
LINE
  8
0
 10
-17.000019
 20
26.624994
 11
47.999435
 21
26.624994
  0
LINE
  8
0
 10
-17.000019
 20
22.374996
 11
47.999435
 21
22.374996
  0
LINE
  8
0
 10
26.752876
 20
28.749992
 11
27.502861
 21
28.749992
  0
LINE
  8
0
 10
28.502869
 20
28.749992
 11
29.252869
 21
28.749992
  0
LINE
  8
0
  6
CENTER
 62
     2
 10
52.984306
 20
24.500000
 11
60.442482
 21
24.500000
  0
LINE
  8
0
 10
56.250252
 20
22.750006
 11
59.000221
 21
22.750006
  0
LINE
  8
0
 10
56.250252
 20
26.249996
 11
59.000221
 21
26.249996
  0
LINE
  8
0
 10
-50.000019
 20
38.499996
 11
-50.000019
 21
21.500000
  0
LINE
  8
0
 10
-50.000019
 20
38.499996
 11
-55.000019
 21
38.499996
  0
LINE
  8
0
 10
-55.000019
 20
71.000000
 11
-55.000019
 21
-10.999996
  0
LINE
  8
0
 10
-50.000019
 20
21.500000
 11
-55.000019
 21
21.500000
  0
LINE
  8
0
  6
DASHED
 62
     2
 10
-47.000019
 20
25.000002
 11
-29.955612
 21
25.000002
  0
LINE
  8
0
  6
DASHED
 62
     2
 10
-47.000019
 20
35.000000
 11
-29.955612
 21
35.000000
  0
LINE
  8
0
  6
DASHED
 62
     2
 10
-48.000053
 20
34.000031
 11
-47.000050
 21
35.000031
  0
LINE
  8
0
  6
DASHED
 62
     2
 10
-48.000031
 20
25.999987
 11
-47.000027
 21
24.999989
  0
LINE
  8
0
 62
     4
 10
-17.000019
 20
94.800110
 11
47.999435
 21
94.800110
  0
LINE
  8
0
 62
     4
 10
47.999451
 20
95.000122
 11
58.999420
 21
95.000122
  0
LINE
  8
0
 10
-48.000019
 20
71.999992
 11
-48.000019
 21
-11.999996
  0
LINE
  8
0
 10
-17.000019
 20
-11.999996
 11
-17.000019
 21
71.999992
  0
LINE
  8
0
 10
47.999451
 20
-11.999996
 11
47.999451
 21
71.999992
  0
LINE
  8
0
  6
CENTER
 62
     1
 10
-44.791023
 20
80.999985
 11
75.475021
 21
80.999985
  0
LINE
  8
0
 62
     4
 10
58.999443
 20
73.000015
 11
68.999557
 21
73.000015
  0
LINE
  8
0
 62
     4
 10
69.999893
 20
87.999733
 11
69.999893
 21
74.000320
  0
LINE
  8
0
 62
     4
 10
69.999939
 20
74.000229
 11
68.999641
 21
72.999931
  0
LINE
  8
0
 62
     1
 10
58.999443
 20
74.000320
 11
69.999863
 21
74.000320
  0
LINE
  8
0
 62
     4
 10
68.999619
 20
73.000008
 11
68.999619
 21
88.999954
  0
LINE
  8
0
  6
CENTER
 62
     2
 10
-67.627510
 20
29.999996
 11
62.161270
 21
29.999996
  0
LINE
  8
0
  6
DASHED
 62
     2
 10
-46.999958
 20
34.999992
 11
-46.999958
 21
24.999998
  0
LINE
  8
0
  6
CENTER
 62
     2
 10
-60.000019
 20
56.001549
 11
-60.000019
 21
45.998447
  0
LINE
  8
0
  6
CENTER
 62
     2
 10
56.249443
 20
38.079723
 11
56.249443
 21
21.973068
  0
LINE
  8
0
 62
     1
 10
58.999443
 20
87.999649
 11
69.999863
 21
87.999649
  0
LINE
  8
0
 62
     4
 10
58.999443
 20
88.999954
 11
68.999557
 21
88.999954
  0
LINE
  8
0
 62
     4
 10
69.999992
 20
87.999763
 11
68.999680
 21
89.000069
  0
LINE
  8
0
 62
     4
 10
58.999489
 20
95.000122
 11
58.999489
 21
71.999992
  0
LINE
  8
0
 62
     4
 10
-17.000019
 20
71.799988
 11
-17.000019
 21
95.000122
  0
LINE
  8
0
 62
     4
 10
47.999451
 20
71.999992
 11
47.999451
 21
95.000122
  0
LINE
  8
0
 10
58.999489
 20
71.999992
 11
58.999489
 21
-11.999996
  0
LINE
  8
0
 62
     4
 10
-17.000015
 20
95.000122
 11
-27.999985
 21
95.000122
  0
LINE
  8
0
 62
     4
 10
-28.000053
 20
95.000122
 11
-28.000053
 21
71.999992
  0
LINE
  8
0
 62
     4
 10
-28.000008
 20
73.000015
 11
-38.000122
 21
73.000015
  0
LINE
  8
0
 62
     4
 10
-39.000458
 20
87.999733
 11
-39.000458
 21
74.000320
  0
LINE
  8
0
 62
     4
 10
-39.000515
 20
74.000244
 11
-38.000210
 21
72.999931
  0
LINE
  8
0
 62
     1
 10
-28.000008
 20
74.000320
 11
-39.000427
 21
74.000320
  0
LINE
  8
0
 62
     4
 10
-38.000183
 20
73.000008
 11
-38.000183
 21
88.999954
  0
LINE
  8
0
 62
     1
 10
-28.000008
 20
87.999649
 11
-39.000427
 21
87.999649
  0
LINE
  8
0
 62
     4
 10
-28.000008
 20
88.999954
 11
-38.000122
 21
88.999954
  0
LINE
  8
0
 62
     4
 10
-39.000538
 20
87.999748
 11
-38.000225
 21
89.000053
  0
LINE
  8
0
  6
PHANTOM
 62
     3
 10
15.499718
 20
-57.474300
 11
15.499718
 21
114.747772
  0
LINE
  8
0
 10
-159.528870
 20
72.000000
 11
-159.528870
 21
-11.999989
  0
LINE
  8
0
 10
-193.528839
 20
72.000000
 11
-193.528839
 21
-11.999989
  0
LINE
  8
0
 10
-193.528839
 20
72.000000
 11
-159.528870
 21
72.000000
  0
LINE
  8
0
 10
-163.528839
 20
71.000000
 11
-163.528839
 21
-10.999989
  0
LINE
  8
0
 10
-192.528839
 20
71.000000
 11
-192.528839
 21
-10.999989
  0
LINE
  8
0
 10
-192.528839
 20
71.000000
 11
-163.528839
 21
71.000000
  0
LINE
  8
0
 10
-157.528839
 20
40.000000
 11
-157.528839
 21
20.000011
  0
LINE
  8
0
 10
-159.528915
 20
41.999889
 11
-157.528961
 21
39.999916
  0
LINE
  8
0
  6
CENTER
 62
     2
 10
-183.780701
 20
47.000008
 11
-173.007324
 21
47.000008
  0
LINE
  8
0
  6
CENTER
 62
     2
 10
-185.759857
 20
58.500000
 11
-169.936615
 21
58.500000
  0
LINE
  8
0
 10
-175.719513
 20
58.499996
 11
-176.874207
 21
56.500015
  0
LINE
  8
0
 10
-176.874268
 20
60.499939
 11
-175.719574
 21
58.499950
  0
LINE
  8
0
 10
-179.183533
 20
60.500000
 11
-176.874146
 21
60.500000
  0
LINE
  8
0
 10
-180.338348
 20
58.500038
 11
-179.183655
 21
60.500023
  0
LINE
  8
0
 10
-179.183838
 20
56.499836
 11
-180.338531
 21
58.499821
  0
LINE
  8
0
 10
-176.874146
 20
56.499969
 11
-179.183533
 21
56.499969
  0
LINE
  8
0
  6
CENTER
 62
     2
 10
-178.028839
 20
75.792809
 11
-178.028839
 21
-16.871181
  0
LINE
  8
0
 10
-193.528839
 20
-11.999989
 11
-159.528870
 21
-11.999989
  0
LINE
  8
0
 10
-192.528839
 20
-10.999989
 11
-163.528839
 21
-10.999989
  0
LINE
  8
0
 10
-159.528946
 20
18.000151
 11
-157.528976
 21
20.000143
  0
LINE
  8
0
  6
CENTER
 62
     2
 10
-183.479736
 20
13.000008
 11
-172.555908
 21
13.000008
  0
LINE
  8
0
  6
CENTER
 62
     2
 10
-185.647003
 20
1.500011
 11
-169.936615
 21
1.500011
  0
LINE
  8
0
 10
-175.719467
 20
1.500008
 11
-176.874161
 21
3.499996
  0
LINE
  8
0
 10
-176.874008
 20
-0.500046
 11
-175.719315
 21
1.499942
  0
LINE
  8
0
 10
-179.183533
 20
-0.499992
 11
-176.874146
 21
-0.499992
  0
LINE
  8
0
 10
-180.338287
 20
1.500014
 11
-179.183594
 21
-0.499982
  0
LINE
  8
0
 10
-179.183533
 20
3.499943
 11
-180.338226
 21
1.499955
  0
LINE
  8
0
 10
-176.874146
 20
3.500042
 11
-179.183533
 21
3.500042
  0
LINE
  8
0
  6
CENTER
 62
     2
 10
-196.167236
 20
30.000008
 11
-154.396362
 21
30.000008
  0
LINE
  8
0
 10
-168.213974
 20
30.000051
 11
-173.121445
 21
21.500057
  0
LINE
  8
0
 10
-173.121460
 20
38.499931
 11
-168.213974
 21
29.999941
  0
LINE
  8
0
 10
-182.936310
 20
38.499992
 11
-173.121368
 21
38.499992
  0
LINE
  8
0
 10
-187.843811
 20
30.000044
 11
-182.936340
 21
38.500023
  0
LINE
  8
0
 10
-182.936584
 20
21.499916
 11
-187.844055
 21
29.999922
  0
LINE
  8
0
 10
-173.121368
 20
21.499981
 11
-182.936310
 21
21.499981
  0
LINE
  8
0
 62
     4
 10
-193.528839
 20
95.000122
 11
-159.528839
 21
95.000122
  0
LINE
  8
0
 62
     4
 10
-193.528839
 20
95.000122
 11
-193.528839
 21
72.000000
  0
LINE
  8
0
 62
     4
 10
-159.528839
 20
95.000122
 11
-159.528839
 21
72.000000
  0
LINE
  8
0
  6
CENTER
 62
     1
 10
-187.482758
 20
80.999992
 11
-165.879944
 21
80.999992
  0
LINE
  8
0
  6
CENTER
 62
     1
 10
-176.528839
 20
90.723480
 11
-176.528839
 21
72.386253
  0
LINE
  8
0
 10
154.558258
 20
71.999947
 11
154.558258
 21
40.199947
  0
LINE
  8
0
 10
188.558258
 20
71.999947
 11
188.558258
 21
-12.000038
  0
LINE
  8
0
 10
154.558258
 20
71.999947
 11
188.558258
 21
71.999947
  0
LINE
  8
0
  6
CENTER
 62
     2
 10
173.058258
 20
75.285629
 11
173.058258
 21
-15.629856
  0
LINE
  8
0
  6
CENTER
 62
     2
 10
158.977936
 20
52.499950
 11
166.479309
 21
52.499950
  0
LINE
  8
0
  6
CENTER
 62
     2
 10
162.558258
 20
55.767376
 11
162.558258
 21
48.834274
  0
LINE
  8
0
  6
CENTER
 62
     2
 10
179.743958
 20
52.499950
 11
186.830109
 21
52.499950
  0
LINE
  8
0
 10
157.158264
 20
41.199951
 11
157.158264
 21
18.799955
  0
LINE
  8
0
 10
155.458282
 20
41.199951
 11
155.458282
 21
40.199947
  0
LINE
  8
0
 10
154.558258
 20
40.199947
 11
155.458252
 21
40.199947
  0
LINE
  8
0
 10
155.458252
 20
41.199955
 11
157.158264
 21
41.199955
  0
LINE
  8
0
 10
152.558258
 20
39.999950
 11
152.558258
 21
19.999954
  0
LINE
  8
0
 10
152.558350
 20
39.999897
 11
154.558350
 21
41.999901
  0
LINE
  8
0
  6
CENTER
 62
     2
 10
155.208252
 20
38.201351
 11
155.208252
 21
33.017342
  0
LINE
  8
0
  6
CENTER
 62
     2
 10
150.724182
 20
35.499950
 11
157.964722
 21
35.499950
  0
LINE
  8
0
 10
152.558258
 20
37.249954
 11
157.158264
 21
37.249954
  0
LINE
  8
0
 10
152.558258
 20
33.749958
 11
157.158264
 21
33.749958
  0
LINE
  8
0
 10
154.558258
 20
-12.000038
 11
154.558258
 21
19.799957
  0
LINE
  8
0
 10
154.558258
 20
-12.000038
 11
188.558258
 21
-12.000038
  0
LINE
  8
0
  6
CENTER
 62
     2
 10
158.246063
 20
7.499958
 11
167.028168
 21
7.499958
  0
LINE
  8
0
  6
CENTER
 62
     2
 10
183.558258
 20
3.642998
 11
183.558258
 21
11.967707
  0
LINE
  8
0
  6
CENTER
 62
     2
 10
162.558258
 20
3.734478
 11
162.558258
 21
11.876230
  0
LINE
  8
0
  6
CENTER
 62
     2
 10
179.865997
 20
7.499958
 11
187.032928
 21
7.499958
  0
LINE
  8
0
 10
155.458282
 20
18.799955
 11
155.458282
 21
19.799957
  0
LINE
  8
0
 10
154.558258
 20
19.799957
 11
155.458252
 21
19.799957
  0
LINE
  8
0
 10
155.458252
 20
18.799955
 11
157.158264
 21
18.799955
  0
LINE
  8
0
 10
152.558212
 20
19.999922
 11
154.558212
 21
17.999916
  0
LINE
  8
0
  6
CENTER
 62
     2
 10
155.208252
 20
20.960476
 11
155.208252
 21
26.982567
  0
LINE
  8
0
  6
CENTER
 62
     2
 10
151.007172
 20
24.499954
 11
157.964722
 21
24.499954
  0
LINE
  8
0
 10
152.558258
 20
22.749956
 11
157.158264
 21
22.749956
  0
LINE
  8
0
 10
152.558258
 20
26.249954
 11
157.158264
 21
26.249954
  0
LINE
  8
0
  6
CENTER
 62
     2
 10
149.818359
 20
29.999954
 11
191.357208
 21
29.999954
  0
LINE
  8
0
  6
CENTER
 62
     2
 10
177.808258
 20
16.999958
 11
188.308258
 21
16.999958
  0
LINE
  8
0
  6
CENTER
 62
     2
 10
183.058258
 20
10.504023
 11
183.058258
 21
24.226068
  0
LINE
  8
0
 10
185.367722
 20
16.999929
 11
184.213028
 21
14.999942
  0
LINE
  8
0
 10
184.213333
 20
19.000103
 11
185.368057
 21
17.000099
  0
LINE
  8
0
 10
181.903534
 20
18.999962
 11
184.212952
 21
18.999962
  0
LINE
  8
0
 10
180.748932
 20
16.999865
 11
181.903625
 21
18.999859
  0
LINE
  8
0
 10
181.903900
 20
15.000161
 11
180.749222
 21
17.000139
  0
LINE
  8
0
 10
184.212952
 20
14.999980
 11
181.903564
 21
14.999980
  0
LINE
  8
0
  6
CENTER
 62
     2
 10
156.599426
 20
42.999947
 11
170.230011
 21
42.999947
  0
LINE
  8
0
  6
CENTER
 62
     2
 10
163.058258
 20
49.749081
 11
163.058258
 21
36.118511
  0
LINE
  8
0
 10
165.367737
 20
42.999924
 11
164.213043
 21
40.999935
  0
LINE
  8
0
 10
164.213303
 20
45.000061
 11
165.367981
 21
43.000080
  0
LINE
  8
0
 10
161.903564
 20
44.999954
 11
164.212952
 21
44.999954
  0
LINE
  8
0
 10
160.748917
 20
42.999882
 11
161.903625
 21
44.999889
  0
LINE
  8
0
 10
161.903885
 20
41.000099
 11
160.749191
 21
43.000088
  0
LINE
  8
0
 10
164.212982
 20
40.999973
 11
161.903564
 21
40.999973
  0
LINE
  8
0
  6
CENTER
 62
     2
 10
177.323120
 20
42.999947
 11
184.317871
 21
42.999947
  0
LINE
  8
0
  6
CENTER
 62
     2
 10
160.716034
 20
16.999958
 11
168.690460
 21
16.999958
  0
LINE
  8
0
  6
CENTER
 62
     2
 10
181.058258
 20
46.211147
 11
181.058258
 21
39.659706
  0
LINE
  8
0
  6
CENTER
 62
     2
 10
165.058258
 20
13.316685
 11
165.058258
 21
20.726551
  0
LINE
  8
0
 62
     4
 10
154.558258
 20
95.000076
 11
188.558258
 21
95.000076
  0
LINE
  8
0
 62
     4
 10
154.558258
 20
95.000076
 11
154.558258
 21
71.999947
  0
LINE
  8
0
 62
     4
 10
188.558258
 20
95.000076
 11
188.558258
 21
71.999947
  0
LINE
  8
0
  6
CENTER
 62
     1
 10
160.604340
 20
80.999939
 11
182.207153
 21
80.999939
  0
LINE
  8
0
  6
CENTER
 62
     1
 10
171.558258
 20
90.723434
 11
171.558258
 21
72.386200
  0
LINE
  8
0
  6
CENTER
 62
     2
 10
183.558258
 20
55.865894
 11
183.558258
 21
49.117424
  0
LINE
  8
0
  6
CENTER
 62
     2
 10
61.917007
 20
-103.211479
 11
-69.062157
 21
-103.211479
  0
LINE
  8
0
 10
-55.000038
 20
-88.711479
 11
-55.000038
 21
-117.711464
  0
LINE
  8
0
 10
-65.000038
 20
-88.711479
 11
-55.000034
 21
-88.711479
  0
LINE
  8
0
 10
-48.000034
 20
-118.711472
 11
-17.000034
 21
-118.711472
  0
LINE
  8
0
 10
47.999435
 20
-118.711472
 11
58.999474
 21
-118.711472
  0
LINE
  8
0
 10
-48.000034
 20
-84.711479
 11
-17.000034
 21
-84.711479
  0
LINE
  8
0
 10
47.999435
 20
-84.711479
 11
58.999474
 21
-84.711479
  0
LINE
  8
0
 10
-17.000034
 20
-118.511459
 11
47.999435
 21
-118.511459
  0
LINE
  8
0
 10
-17.000034
 20
-84.911476
 11
47.999435
 21
-84.911476
  0
LINE
  8
0
 10
-65.000031
 20
-88.711479
 11
-65.000031
 21
-117.711464
  0
LINE
  8
0
 10
-65.000038
 20
-117.711464
 11
-55.000034
 21
-117.711464
  0
LINE
  8
0
 10
-50.000031
 20
-95.804382
 11
-50.000031
 21
-97.211479
  0
LINE
  8
0
 10
-50.657482
 20
-93.396500
 11
-50.000008
 21
-95.850243
  0
LINE
  8
0
 10
-50.657509
 20
-93.396530
 11
-54.342556
 21
-93.396530
  0
LINE
  8
0
 10
-54.342594
 20
-93.396523
 11
-55.000069
 21
-95.850250
  0
LINE
  8
0
 10
-50.000031
 20
-110.618584
 11
-50.000031
 21
-109.211487
  0
LINE
  8
0
 10
-50.657524
 20
-113.026398
 11
-50.000053
 21
-110.572662
  0
LINE
  8
0
 10
-50.657509
 20
-113.026421
 11
-54.342556
 21
-113.026421
  0
LINE
  8
0
 10
-54.342747
 20
-113.026474
 11
-55.000221
 21
-110.572739
  0
LINE
  8
0
 10
-48.000034
 20
-97.211479
 11
-55.000034
 21
-97.211479
  0
LINE
  8
0
 10
-48.000034
 20
-109.211472
 11
-55.000034
 21
-109.211472
  0
LINE
  8
0
  6
CENTER
 62
     2
 10
-57.000034
 20
-113.211456
 11
-63.000027
 21
-113.211456
  0
LINE
  8
0
  6
CENTER
 62
     2
 10
-56.317032
 20
-93.211487
 11
-65.052971
 21
-93.211487
  0
LINE
  8
0
  6
CENTER
 62
     2
 10
-60.000034
 20
-88.502937
 11
-60.000034
 21
-96.877495
  0
LINE
  8
0
  6
CENTER
 62
     2
 10
-60.000034
 20
-109.414566
 11
-60.000034
 21
-116.883461
  0
LINE
  8
0
  6
CENTER
 62
     2
 10
-42.500034
 20
-86.258888
 11
-42.500034
 21
-94.143341
  0
LINE
  8
0
  6
CENTER
 62
     2
 10
-22.500034
 20
-86.522972
 11
-22.500034
 21
-93.943283
  0
LINE
  8
0
  6
CENTER
 62
     2
 10
-46.234325
 20
-113.211456
 11
-38.511711
 21
-113.211456
  0
LINE
  8
0
  6
CENTER
 62
     2
 10
-45.882198
 20
-90.211472
 11
-38.778458
 21
-90.211472
  0
LINE
  8
0
  6
CENTER
 62
     2
 10
-42.500034
 20
-109.281189
 11
-42.500034
 21
-116.750092
  0
LINE
  8
0
  6
CENTER
 62
     2
 10
-26.441437
 20
-90.211472
 11
-18.572422
 21
-90.211472
  0
LINE
  8
0
  6
CENTER
 62
     2
 10
-22.500034
 20
-109.414566
 11
-22.500034
 21
-116.550034
  0
LINE
  8
0
  6
CENTER
 62
     2
 10
-26.441437
 20
-113.211456
 11
-18.639107
 21
-113.211456
  0
LINE
  8
0
  6
CENTER
 62
     2
 10
57.252319
 20
-113.211456
 11
49.295395
 21
-113.211456
  0
LINE
  8
0
  6
CENTER
 62
     2
 10
57.672852
 20
-90.211472
 11
49.295395
 21
-90.211472
  0
LINE
  8
0
  6
CENTER
 62
     2
 10
53.499435
 20
-86.329704
 11
53.499435
 21
-94.156853
  0
LINE
  8
0
  6
CENTER
 62
     2
 10
53.499435
 20
-109.002617
 11
53.499435
 21
-117.196716
  0
LINE
  8
0
 10
-21.000038
 20
-82.711479
 11
-17.000034
 21
-82.711479
  0
LINE
  8
0
 10
-22.999960
 20
-84.711533
 11
-20.999956
 21
-82.711533
  0
LINE
  8
0
 10
-17.000034
 20
-82.911469
 11
47.999435
 21
-82.911469
  0
LINE
  8
0
 10
47.999435
 20
-82.711479
 11
58.999474
 21
-82.711479
  0
LINE
  8
0
 62
     4
 10
69.999847
 20
-94.709305
 11
69.999847
 21
-108.713638
  0
LINE
  8
0
 62
     4
 10
68.999542
 20
-93.708984
 11
58.999420
 21
-93.708984
  0
LINE
  8
0
 62
     4
 10
68.999542
 20
-109.713951
 11
58.999420
 21
-109.713951
  0
LINE
  8
0
 62
     4
 10
68.999519
 20
-93.709000
 11
69.999832
 21
-94.709305
  0
LINE
  8
0
 62
     4
 10
69.999794
 20
-108.713608
 11
68.999481
 21
-109.713921
  0
LINE
  8
0
 62
     4
 10
68.999542
 20
-93.708984
 11
68.999542
 21
-109.713951
  0
LINE
  8
0
 62
     1
 10
69.999847
 20
-108.713638
 11
58.999420
 21
-108.713638
  0
LINE
  8
0
 62
     1
 10
69.999847
 20
-94.709305
 11
58.999420
 21
-94.709305
  0
LINE
  8
0
 10
-48.000034
 20
-84.711479
 11
-48.000034
 21
-118.711472
  0
LINE
  8
0
 10
-17.000034
 20
-82.911469
 11
-17.000034
 21
-118.511459
  0
LINE
  8
0
 10
47.999435
 20
-82.711479
 11
47.999435
 21
-118.711472
  0
LINE
  8
0
 10
58.999474
 20
-82.711479
 11
58.999474
 21
-118.711472
  0
LINE
  8
0
  6
CENTER
 62
     1
 10
57.403809
 20
-101.711472
 11
71.529099
 21
-101.711472
  0
LINE
  8
0
  6
PHANTOM
 62
     3
 10
15.499702
 20
-57.477921
 11
15.499702
 21
-127.514145
  0
LINE
  8
0
 10
-281.250000
 20
195.500000
 11
282.099976
 21
195.500000
  0
LINE
  8
0
 10
-281.250000
 20
195.500000
 11
-281.250000
 21
-195.000000
  0
LINE
  8
0
 10
282.099976
 20
195.500000
 11
282.099976
 21
-195.000000
  0
LINE
  8
0
 10
-281.250000
 20
-195.000000
 11
282.099976
 21
-195.000000
  0
LINE
  8
0
 10
162.099976
 20
-175.000000
 11
162.099976
 21
-195.000000
  0
LINE
  8
0
 10
162.099976
 20
-175.000000
 11
282.099976
 21
-175.000000
  0
LINE
  8
0
 10
162.099976
 20
175.500000
 11
282.099976
 21
175.500000
  0
LINE
  8
0
 10
-281.250000
 20
175.500000
 11
-161.250000
 21
175.500000
  0
LINE
  8
0
 10
162.099976
 20
195.500000
 11
162.099976
 21
175.500000
  0
LINE
  8
0
 10
-161.250000
 20
195.500000
 11
-161.250000
 21
175.500000
  0
LINE
  8
0
 10
-271.250000
 20
-185.000000
 11
-67.250000
 21
-185.000000
  0
LINE
  8
0
 10
-271.250000
 20
-177.000000
 11
-67.250000
 21
-177.000000
  0
LINE
  8
0
 10
-271.250000
 20
-169.000000
 11
-67.250000
 21
-169.000000
  0
LINE
  8
0
 10
-271.250000
 20
-153.000000
 11
-271.250000
 21
-185.000000
  0
LINE
  8
0
 10
-221.250000
 20
-153.000000
 11
-221.250000
 21
-185.000000
  0
LINE
  8
0
 10
-199.250000
 20
-153.000000
 11
-199.250000
 21
-185.000000
  0
LINE
  8
0
 10
-177.250000
 20
-153.000000
 11
-177.250000
 21
-185.000000
  0
LINE
  8
0
 10
-155.250000
 20
-153.000000
 11
-155.250000
 21
-185.000000
  0
LINE
  8
0
 10
-133.250000
 20
-153.000000
 11
-133.250000
 21
-185.000000
  0
LINE
  8
0
 10
-111.250000
 20
-153.000000
 11
-111.250000
 21
-185.000000
  0
LINE
  8
0
 10
-271.250000
 20
-153.000000
 11
-67.250000
 21
-153.000000
  0
LINE
  8
0
 10
-271.250000
 20
-153.000046
 11
-221.250000
 21
-169.000046
  0
LINE
  8
0
 10
-89.250000
 20
-153.000000
 11
-89.250000
 21
-185.000000
  0
LINE
  8
0
 10
-67.250000
 20
-153.000000
 11
-67.250000
 21
-185.000000
  0
ARC
  8
0
 10
56.250252
 20
35.499996
 40
1.750000
 50
90.000000
 51
270.000000
  0
CIRCLE
  8
0
 10
-30.000019
 20
17.500004
 40
2.750000
  0
CIRCLE
  8
0
 62
     2
 10
-60.000019
 20
9.000004
 40
2.500000
  0
CIRCLE
  8
0
 10
-41.500015
 20
17.500004
 40
2.750000
  0
CIRCLE
  8
0
 10
-60.000019
 20
9.000004
 40
2.100000
  0
CIRCLE
  8
0
 10
-60.000019
 20
50.999996
 40
2.100000
  0
CIRCLE
  8
0
 10
-30.000019
 20
17.500004
 40
4.750000
  0
CIRCLE
  8
0
 10
-41.500015
 20
17.500004
 40
4.750000
  0
ARC
  8
0
 10
28.002869
 20
28.749992
 40
0.500000
 50
0.000000
 51
180.000000
  0
ARC
  8
0
 10
56.250252
 20
24.500000
 40
1.750000
 50
89.999878
 51
270.000000
  0
ARC
  8
0
 10
29.252869
 20
29.999996
 40
1.250000
 50
270.000000
 51
359.999908
  0
ARC
  8
0
 10
26.752869
 20
29.999996
 40
1.250000
 50
180.000000
 51
270.000000
  0
ARC
  8
0
 10
-67.688881
 20
25.750002
 40
17.688858
 50
346.097809
 51
13.902085
  0
ARC
  8
0
 10
-67.688881
 20
34.250000
 40
17.688862
 50
346.097870
 51
13.902133
  0
ARC
  8
0
 10
-37.311157
 20
34.250000
 40
17.688862
 50
166.097824
 51
193.902100
  0
ARC
  8
0
 10
-37.311157
 20
25.750002
 40
17.688862
 50
166.097885
 51
193.902161
  0
CIRCLE
  8
0
 62
     2
 10
-60.000019
 20
50.999996
 40
2.500000
  0
CIRCLE
  8
0
 10
-41.500015
 20
42.499992
 40
2.750000
  0
CIRCLE
  8
0
 10
-30.000019
 20
42.499992
 40
2.750000
  0
CIRCLE
  8
0
 10
-41.500015
 20
42.499992
 40
4.750000
  0
CIRCLE
  8
0
 10
-30.000019
 20
42.499992
 40
4.750000
  0
ARC
  8
0
 10
29.252869
 20
29.999996
 40
1.250000
 50
0.000000
 51
90.000000
  0
ARC
  8
0
 10
26.752869
 20
29.999996
 40
1.250000
 50
90.000000
 51
180.000000
  0
ARC
  8
0
 10
28.002869
 20
31.249996
 40
0.500000
 50
180.000000
 51
0.000000
  0
CIRCLE
  8
0
 62
     2
 10
-178.028839
 20
30.000008
 40
3.375000
  0
CIRCLE
  8
0
 62
     1
 10
-176.528839
 20
80.999992
 40
6.999706
  0
CIRCLE
  8
0
 10
-178.028839
 20
13.000008
 40
2.500000
  0
CIRCLE
  8
0
 62
     4
 10
-176.528839
 20
80.999992
 40
8.000011
  0
CIRCLE
  8
0
 10
-178.028839
 20
47.000008
 40
2.500000
  0
CIRCLE
  8
0
 10
-178.028839
 20
1.500011
 40
4.250000
  0
CIRCLE
  8
0
 10
-178.028839
 20
30.000008
 40
4.000000
  0
CIRCLE
  8
0
 62
     2
 10
-178.028839
 20
13.000008
 40
3.000000
  0
CIRCLE
  8
0
 10
-178.028839
 20
1.500011
 40
4.750000
  0
CIRCLE
  8
0
 10
-178.028839
 20
30.000008
 40
12.499999
  0
CIRCLE
  8
0
 62
     2
 10
-178.028839
 20
47.000008
 40
3.000000
  0
CIRCLE
  8
0
 10
-178.028839
 20
58.500000
 40
4.750000
  0
CIRCLE
  8
0
 10
-178.028839
 20
58.500000
 40
4.250000
  0
CIRCLE
  8
0
 10
165.058258
 20
16.999958
 40
2.100000
  0
CIRCLE
  8
0
 10
162.558258
 20
52.499950
 40
2.100000
  0
CIRCLE
  8
0
 10
181.058258
 20
42.999947
 40
2.100000
  0
CIRCLE
  8
0
 10
183.558258
 20
52.499950
 40
2.100000
  0
CIRCLE
  8
0
 10
183.558258
 20
7.499958
 40
2.100000
  0
ARC
  8
0
 10
155.058258
 20
-11.500031
 40
0.500000
 50
180.000000
 51
270.000000
  0
CIRCLE
  8
0
 62
     2
 10
183.558258
 20
52.499958
 40
2.500775
  0
CIRCLE
  8
0
 62
     2
 10
181.058258
 20
42.999947
 40
2.500775
  0
CIRCLE
  8
0
 62
     2
 10
165.058258
 20
16.999954
 40
2.500775
  0
CIRCLE
  8
0
 62
     2
 10
183.558258
 20
7.499958
 40
2.500775
  0
CIRCLE
  8
0
 62
     4
 10
171.558258
 20
80.999939
 40
8.000011
  0
CIRCLE
  8
0
 62
     1
 10
171.558258
 20
80.999939
 40
6.999706
  0
CIRCLE
  8
0
 62
     2
 10
162.558258
 20
52.499958
 40
2.500775
  0
ARC
  8
0
 10
155.208252
 20
35.499950
 40
1.750000
 50
90.000000
 51
270.000000
  0
ARC
  8
0
 10
155.208252
 20
24.499954
 40
1.750000
 50
90.000000
 51
270.000000
  0
CIRCLE
  8
0
 10
183.058258
 20
16.999958
 40
4.250000
  0
CIRCLE
  8
0
 10
183.058258
 20
16.999958
 40
4.750000
  0
CIRCLE
  8
0
 10
163.058258
 20
42.999947
 40
4.250000
  0
CIRCLE
  8
0
 10
163.058258
 20
42.999947
 40
4.750000
  0
CIRCLE
  8
0
 62
     2
 10
162.558258
 20
7.499958
 40
2.500775
  0
CIRCLE
  8
0
 10
162.558258
 20
7.499958
 40
2.100000
  0
CIRCLE
  8
0
 10
53.499435
 20
-90.211472
 40
2.100000
  0
CIRCLE
  8
0
 10
-42.500034
 20
-90.211472
 40
2.100000
  0
CIRCLE
  8
0
 10
53.499435
 20
-113.211456
 40
2.100000
  0
CIRCLE
  8
0
 10
-22.500034
 20
-113.211456
 40
2.100000
  0
CIRCLE
  8
0
 10
-42.500034
 20
-113.211456
 40
2.100000
  0
CIRCLE
  8
0
 10
-22.500034
 20
-90.211472
 40
2.100000
  0
CIRCLE
  8
0
 62
     2
 10
-22.500034
 20
-90.211472
 40
2.500000
  0
ARC
  8
0
 10
-55.078739
 20
-95.804367
 40
5.078917
 50
343.915894
 51
0.000000
  0
CIRCLE
  8
0
 62
     2
 10
-42.500034
 20
-113.211456
 40
2.500000
  0
ARC
  8
0
 10
-49.921326
 20
-95.804367
 40
5.078918
 50
180.000000
 51
196.084106
  0
CIRCLE
  8
0
 62
     2
 10
-60.000034
 20
-113.211456
 40
2.500000
  0
CIRCLE
  8
0
 62
     2
 10
-42.500034
 20
-90.211472
 40
2.500000
  0
CIRCLE
  8
0
 62
     2
 10
-60.000034
 20
-93.211487
 40
2.500000
  0
ARC
  8
0
 10
-55.078739
 20
-110.618584
 40
5.078918
 50
359.999908
 51
16.084108
  0
ARC
  8
0
 10
-49.921326
 20
-110.618584
 40
5.078917
 50
163.915894
 51
180.000000
  0
CIRCLE
  8
0
 62
     2
 10
-22.500034
 20
-113.211456
 40
2.500000
  0
CIRCLE
  8
0
 62
     2
 10
53.499435
 20
-90.211472
 40
2.500000
  0
CIRCLE
  8
0
 62
     2
 10
53.499435
 20
-113.211456
 40
2.500000
  0
CIRCLE
  8
0
 10
-60.000034
 20
-93.211487
 40
2.100000
  0
CIRCLE
  8
0
 10
-60.000034
 20
-113.211456
 40
2.100000
  0
TEXT
  8
0
 10
196.250259
 20
180.830002
 40
6.300000
  1
Ver. 2.0
 50
0.000000
 41
1.052632
 51
0.000000
  7
STANDARD
  0
TEXT
  8
0
 10
167.564667
 20
-192.100006
 40
9.000000
  1
KOGANEI CORP.
 50
0.000000
 41
1.052632
 51
0.000000
  7
STANDARD
  0
TEXT
  8
0
 10
-262.849731
 20
180.830002
 40
6.300000
  1
AXIS CYLINDER
 50
0.000000
 41
1.052632
 51
0.000000
  7
STANDARD
  0
TEXT
  8
0
 10
-232.550003
 20
145.830002
 40
6.300000
  1
XDAA25*ST(25)-SSL
 50
0.000000
 41
1.052632
 51
0.000000
  7
STANDARD
  0
TEXT
  8
0
 10
-270.049988
 20
155.830002
 40
6.300000
  1
MODEL:XDA25*ST(25)-SSL
 50
0.000000
 41
1.052632
 51
0.000000
  7
STANDARD
  0
TEXT
  8
0
 10
-215.142853
 20
-164.050003
 40
4.500000
  1
25
 50
0.000000
 41
1.052632
 51
0.000000
  7
STANDARD
  0
TEXT
  8
0
 10
-193.142853
 20
-164.050003
 40
4.500000
  1
50
 50
0.000000
 41
1.052632
 51
0.000000
  7
STANDARD
  0
TEXT
  8
0
 10
-171.142853
 20
-164.050003
 40
4.500000
  1
75
 50
0.000000
 41
1.052632
 51
0.000000
  7
STANDARD
  0
TEXT
  8
0
 10
-151.392853
 20
-164.050003
 40
4.500000
  1
100
 50
0.000000
 41
1.052632
 51
0.000000
  7
STANDARD
  0
TEXT
  8
0
 10
-129.392853
 20
-164.050003
 40
4.500000
  1
125
 50
0.000000
 41
1.052632
 51
0.000000
  7
STANDARD
  0
TEXT
  8
0
 10
-212.892853
 20
-176.050003
 40
4.500000
  1
0
 50
0.000000
 41
1.052632
 51
0.000000
  7
STANDARD
  0
TEXT
  8
0
 10
-212.892853
 20
-184.050003
 40
4.500000
  1
0
 50
0.000000
 41
1.052632
 51
0.000000
  7
STANDARD
  0
TEXT
  8
0
 10
-193.142853
 20
-176.050003
 40
4.500000
  1
25
 50
0.000000
 41
1.052632
 51
0.000000
  7
STANDARD
  0
TEXT
  8
0
 10
-193.142853
 20
-184.050003
 40
4.500000
  1
25
 50
0.000000
 41
1.052632
 51
0.000000
  7
STANDARD
  0
TEXT
  8
0
 10
-171.142853
 20
-176.050003
 40
4.500000
  1
50
 50
0.000000
 41
1.052632
 51
0.000000
  7
STANDARD
  0
TEXT
  8
0
 10
-171.142853
 20
-184.050003
 40
4.500000
  1
50
 50
0.000000
 41
1.052632
 51
0.000000
  7
STANDARD
  0
TEXT
  8
0
 10
-149.142853
 20
-176.050003
 40
4.500000
  1
75
 50
0.000000
 41
1.052632
 51
0.000000
  7
STANDARD
  0
TEXT
  8
0
 10
-149.142853
 20
-184.050003
 40
4.500000
  1
75
 50
0.000000
 41
1.052632
 51
0.000000
  7
STANDARD
  0
TEXT
  8
0
 10
-129.392853
 20
-176.050003
 40
4.500000
  1
100
 50
0.000000
 41
1.052632
 51
0.000000
  7
STANDARD
  0
TEXT
  8
0
 10
-129.392853
 20
-184.050003
 40
4.500000
  1
100
 50
0.000000
 41
1.052632
 51
0.000000
  7
STANDARD
  0
TEXT
  8
0
 10
-250.377258
 20
-160.050003
 40
4.500000
  1
STROKE
 50
0.000000
 41
1.052632
 51
0.000000
  7
STANDARD
  0
TEXT
  8
0
 10
-265.408447
 20
-168.050003
 40
4.500000
  1
TYPE
 50
0.000000
 41
1.052632
 51
0.000000
  7
STANDARD
  0
TEXT
  8
0
 10
-264.000000
 20
-174.699997
 40
4.500000
  1
XDA25
 50
0.000000
 41
1.052632
 51
0.000000
  7
STANDARD
  0
TEXT
  8
0
 10
-264.000000
 20
-182.699997
 40
4.500000
  1
XDAA25
 50
0.000000
 41
1.052632
 51
0.000000
  7
STANDARD
  0
TEXT
  8
0
 10
-196.642853
 20
-151.050003
 40
4.500000
  1
STRETCH LIST
 50
0.000000
 41
1.052632
 51
0.000000
  7
STANDARD
  0
TEXT
  8
0
 10
-87.642860
 20
-152.050003
 40
4.500000
  1
(mm)
 50
0.000000
 41
1.052632
 51
0.000000
  7
STANDARD
  0
TEXT
  8
0
 10
-85.392853
 20
-164.050003
 40
4.500000
  1
175
 50
0.000000
 41
1.052632
 51
0.000000
  7
STANDARD
  0
TEXT
  8
0
 10
-85.392853
 20
-176.050003
 40
4.500000
  1
150
 50
0.000000
 41
1.052632
 51
0.000000
  7
STANDARD
  0
TEXT
  8
0
 10
-85.392853
 20
-184.050003
 40
4.500000
  1
150
 50
0.000000
 41
1.052632
 51
0.000000
  7
STANDARD
  0
TEXT
  8
0
 10
-107.392853
 20
-164.050003
 40
4.500000
  1
150
 50
0.000000
 41
1.052632
 51
0.000000
  7
STANDARD
  0
TEXT
  8
0
 10
-107.392853
 20
-176.050003
 40
4.500000
  1
125
 50
0.000000
 41
1.052632
 51
0.000000
  7
STANDARD
  0
TEXT
  8
0
 10
-107.392853
 20
-184.050003
 40
4.500000
  1
125
 50
0.000000
 41
1.052632
 51
0.000000
  7
STANDARD
  0
TEXT
  8
0
 62
     3
 10
-23.126894
 20
125.744949
 40
6.300000
  1
STRETCH LINE
 50
0.000000
 41
1.052632
 51
0.000000
  7
STANDARD
  0
ENDSEC
  0
EOF
