  0
SECTION
  2
HEADER
  0
ENDSEC
  0
SECTION
  2
TABLES
  0
TABLE
  2
LTYPE
 70
     4
  0
LTYPE
  2
CONTINUOUS
 70
    64
  3
Solid line
 72
    65
 73
     0
 40
0.000000
  0
LTYPE
  2
DASHED
 70
    64
  3
__ __ __ __ __ __ __ __ __ __ __ __ __ __ __
 72
    65
 73
     2
 40
3.500000
 49
2.000000
 49
-1.500000
  0
LTYPE
  2
CENTER
 70
    64
  3
____ _ ____ _ ____ _ ____ _ ____ _ ____ _ ____
 72
    65
 73
     4
 40
17.500000
 49
13.000000
 49
-1.500000
 49
1.500000
 49
-1.500000
  0
LTYPE
  2
PHANTOM
 70
    64
  3
_____ _ _ _____ _ _ _____ _ _ _____ _ _ ____  
 72
    65
 73
     6
 40
15.500000
 49
8.000000
 49
-1.500000
 49
1.500000
 49
-1.500000
 49
1.500000
 49
-1.500000
  0
LTYPE
  2
DASHED1
 70
    64
  3
__ __ __ __ __ __ __ __ __ __ __ __ __ __ __
 72
    65
 73
     2
 40
1.500000
 49
1.000000
 49
-0.500000
  0
LTYPE
  2
DASHED2
 70
    64
  3
__ __ __ __ __ __ __ __ __ __ __ __ __ __ __
 72
    65
 73
     2
 40
3.500000
 49
2.500000
 49
-1.000000
  0
LTYPE
  2
DASHED3
 70
    64
  3
__ __ __ __ __ __ __ __ __ __ __ __ __ __ __
 72
    65
 73
     2
 40
6.000000
 49
4.000000
 49
-2.000000
  0
LTYPE
  2
DASHED4
 70
    64
  3
__ __ __ __ __ __ __ __ __ __ __ __ __ __ __
 72
    65
 73
     2
 40
12.000000
 49
10.000000
 49
-2.000000
  0
LTYPE
  2
DASHED5
 70
    64
  3
__ __ __ __ __ __ __ __ __ __ __ __ __ __ __
 72
    65
 73
     2
 40
17.000000
 49
15.000000
 49
-2.000000
  0
LTYPE
  2
DASHED6
 70
    64
  3
__ __ __ __ __ __ __ __ __ __ __ __ __ __ __
 72
    65
 73
     2
 40
29.000000
 49
27.000000
 49
-2.000000
  0
LTYPE
  2
PHANTOM1
 70
    64
  3
_____ _ _ _____ _ _ _____ _ _ _____ _ _ ____  
 72
    65
 73
     6
 40
31.000000
 49
25.000000
 49
-1.500000
 49
1.000000
 49
-1.000000
 49
1.000000
 49
-1.500000
  0
LTYPE
  2
PHANTOM2
 70
    64
  3
_____ _ _ _____ _ _ _____ _ _ _____ _ _ ____  
 72
    65
 73
     6
 40
36.000000
 49
27.000000
 49
-1.500000
 49
2.500000
 49
-1.000000
 49
2.500000
 49
-1.500000
  0
LTYPE
  2
PHANTOM3
 70
    64
  3
_____ _ _ _____ _ _ _____ _ _ _____ _ _ ____  
 72
    65
 73
     6
 40
78.000000
 49
64.000000
 49
-2.000000
 49
4.000000
 49
-2.000000
 49
4.000000
 49
-2.000000
  0
LTYPE
  2
CENTER1
 70
    64
  3
____ _ ____ _ ____ _ ____ _ ____ _ ____ _ ____
 72
    65
 73
     4
 40
19.000000
 49
14.000000
 49
-1.000000
 49
3.000000
 49
-1.000000
  0
LTYPE
  2
CENTER2
 70
    64
  3
____ _ ____ _ ____ _ ____ _ ____ _ ____ _ ____
 72
    65
 73
     4
 40
28.500000
 49
25.000000
 49
-1.000000
 49
1.500000
 49
-1.000000
  0
LTYPE
  2
CENTER3
 70
    64
  3
____ _ ____ _ ____ _ ____ _ ____ _ ____ _ ____
 72
    65
 73
     4
 40
31.500000
 49
27.000000
 49
-1.000000
 49
2.500000
 49
-1.000000
  0
LTYPE
  2
CENTER4
 70
    64
  3
____ _ ____ _ ____ _ ____ _ ____ _ ____ _ ____
 72
    65
 73
     4
 40
50.000000
 49
45.000000
 49
-1.000000
 49
3.000000
 49
-1.000000
  0
LTYPE
  2
CENTER5
 70
    64
  3
____ _ ____ _ ____ _ ____ _ ____ _ ____ _ ____
 72
    65
 73
     4
 40
100.000000
 49
92.000000
 49
-2.000000
 49
4.000000
 49
-2.000000
  0
LTYPE
  2
SBK1
 70
    64
  3
______ _ _ _ ______ _ _ _ ______ _ _ _ _____  
 72
    65
 73
     8
 40
60.500000
 49
45.000000
 49
-2.000000
 49
2.500000
 49
-2.000000
 49
2.500000
 49
-2.000000
 49
2.500000
 49
-2.000000
  0
LTYPE
  2
SBK2
 70
    64
  3
______ _ _ _ ______ _ _ _ ______ _ _ _ _____  
 72
    65
 73
     8
 40
84.000000
 49
64.000000
 49
-2.000000
 49
4.000000
 49
-2.000000
 49
4.000000
 49
-2.000000
 49
4.000000
 49
-2.000000
  0
LTYPE
  2
STCH
 70
    64
  3
__ __ __ __ __ __ __ __ __ __ __ __ __ __ __
 72
    65
 73
     2
 40
3.000000
 49
1.000000
 49
-2.000000
  0
LTYPE
  2
MTCH
 70
    64
  3
_____ _ _ _____ _ _ _____ _ _ _____ _ _ ____  
 72
    65
 73
     6
 40
80.000000
 49
66.000000
 49
-2.000000
 49
4.000000
 49
-2.000000
 49
4.000000
 49
-2.000000
  0
ENDTAB
  0
TABLE
  2
LAYER
 70
     1
  0
LAYER
  2
0
 70
     0
 62
     7
  6
CONTINUOUS
  0
ENDTAB
  0
TABLE
  2
STYLE
 70
     1
  0
STYLE
  2
STANDARD
 70
     0
 40
0.000000
 41
1.000000
 50
0.000000
 71
     0
 42
0.200000
  3
txt
  4
BIGFONT
  0
ENDTAB
  0
TABLE
  2
VIEW
 70
     0
  0
ENDTAB
  0
ENDSEC
  0
SECTION
  2
BLOCKS
  0
ENDSEC
  0
SECTION
  2
ENTITIES
  0
LINE
  8
0
 10
-65.000008
 20
65.999992
 11
-65.000008
 21
-6.000008
  0
LINE
  8
0
 10
-57.000008
 20
65.999992
 11
-57.000008
 21
-6.000008
  0
LINE
  8
0
 10
-57.000008
 20
23.499992
 11
-52.000008
 21
23.499992
  0
LINE
  8
0
 10
-57.000008
 20
23.499992
 11
-52.000008
 21
23.499992
  0
LINE
  8
0
 10
-52.000008
 20
23.499992
 11
-52.000008
 21
36.499992
  0
LINE
  8
0
 10
-57.000008
 20
36.499992
 11
-52.000008
 21
36.499992
  0
LINE
  8
0
 10
-57.000008
 20
36.499992
 11
-52.000008
 21
36.499992
  0
LINE
  8
0
 10
-52.000008
 20
36.499992
 11
-52.000008
 21
23.499992
  0
LINE
  8
0
 10
-52.000008
 20
23.499992
 11
-57.000008
 21
23.499992
  0
LINE
  8
0
 10
-52.000008
 20
23.499992
 11
-57.000008
 21
23.499992
  0
LINE
  8
0
 10
-57.000008
 20
23.499992
 11
-57.000008
 21
36.499992
  0
LINE
  8
0
 10
-52.000008
 20
36.499992
 11
-57.000008
 21
36.499992
  0
LINE
  8
0
 10
-52.000008
 20
36.499992
 11
-57.000008
 21
36.499992
  0
LINE
  8
0
 10
-57.000008
 20
36.499992
 11
-57.000008
 21
23.499992
  0
LINE
  8
0
  6
CENTER
 62
     2
 10
-58.745522
 20
5.499992
 11
-47.429539
 21
5.499992
  0
LINE
  8
0
  6
CENTER
 62
     2
 10
-59.122723
 20
54.499992
 11
-47.618137
 21
54.499992
  0
LINE
  8
0
 10
-57.000008
 20
49.499992
 11
-50.000008
 21
49.499992
  0
LINE
  8
0
 10
-57.000008
 20
59.499992
 11
-50.000008
 21
59.499992
  0
LINE
  8
0
 10
-57.000008
 20
0.499992
 11
-50.000008
 21
0.499992
  0
LINE
  8
0
 10
-57.000008
 20
10.499992
 11
-50.000008
 21
10.499992
  0
LINE
  8
0
 10
-50.000008
 20
66.999992
 11
-20.000008
 21
66.999992
  0
LINE
  8
0
 10
-50.000008
 20
-7.000008
 11
-20.000008
 21
-7.000008
  0
LINE
  8
0
 10
-65.000008
 20
65.999992
 11
-57.000008
 21
65.999992
  0
LINE
  8
0
 10
-65.000008
 20
-6.000008
 11
-57.000008
 21
-6.000008
  0
LINE
  8
0
 10
-20.000008
 20
66.799995
 11
44.999992
 21
66.799995
  0
LINE
  8
0
 10
-20.000008
 20
-6.800007
 11
44.999992
 21
-6.800007
  0
LINE
  8
0
 10
44.999992
 20
66.999992
 11
55.999992
 21
66.999992
  0
LINE
  8
0
 10
44.999992
 20
-7.000008
 11
55.999992
 21
-7.000008
  0
LINE
  8
0
  6
CENTER
 62
     2
 10
-57.798458
 20
11.999992
 11
-63.500008
 21
11.999992
  0
LINE
  8
0
  6
CENTER
 62
     2
 10
-57.798458
 20
47.999992
 11
-63.500008
 21
47.999992
  0
LINE
  8
0
  6
CENTER
 62
     2
 10
-61.000008
 20
52.199677
 11
-61.000008
 21
45.041298
  0
LINE
  8
0
  6
CENTER
 62
     2
 10
-61.000008
 20
15.067598
 11
-61.000008
 21
8.975384
  0
LINE
  8
0
  6
CENTER
 62
     2
 10
-44.000008
 20
47.317833
 11
-44.000008
 21
35.024822
  0
LINE
  8
0
  6
CENTER
 62
     2
 10
-31.000008
 20
46.639420
 11
-31.000008
 21
34.835701
  0
LINE
  8
0
  6
CENTER
 62
     2
 10
-49.181297
 20
40.499992
 11
-39.000008
 21
40.499992
  0
LINE
  8
0
  6
CENTER
 62
     2
 10
-49.181297
 20
19.499992
 11
-38.884087
 21
19.499992
  0
LINE
  8
0
  6
CENTER
 62
     2
 10
-36.709167
 20
40.499992
 11
-26.000008
 21
40.499992
  0
LINE
  8
0
  6
CENTER
 62
     2
 10
-36.520042
 20
19.499992
 11
-26.000008
 21
19.499992
  0
LINE
  8
0
  6
CENTER
 62
     2
 10
-31.000008
 20
25.001293
 11
-31.000008
 21
14.032147
  0
LINE
  8
0
  6
CENTER
 62
     2
 10
-44.000008
 20
25.001293
 11
-44.000008
 21
13.748463
  0
LINE
  8
0
 10
-26.000008
 20
41.999992
 11
-26.000008
 21
17.999992
  0
LINE
  8
0
 10
-24.000008
 20
39.999992
 11
-24.000008
 21
19.999992
  0
LINE
  8
0
 10
-26.000008
 20
17.999992
 11
55.999992
 21
17.999992
  0
LINE
  8
0
 10
-26.000008
 20
41.999992
 11
55.999992
 21
41.999992
  0
LINE
  8
0
 10
-24.000008
 20
39.999992
 11
55.999992
 21
39.999992
  0
LINE
  8
0
 10
-24.000008
 20
19.999992
 11
55.999992
 21
19.999992
  0
LINE
  8
0
 10
-26.000004
 20
17.999994
 11
-24.000004
 21
19.999994
  0
LINE
  8
0
 10
-20.000008
 20
28.499992
 11
44.999992
 21
28.499992
  0
LINE
  8
0
 10
-20.000008
 20
31.499992
 11
44.999992
 21
31.499992
  0
LINE
  8
0
 10
-20.000008
 20
33.374992
 11
44.999992
 21
33.374992
  0
LINE
  8
0
 10
-20.000008
 20
26.624992
 11
44.999992
 21
26.624992
  0
LINE
  8
0
 10
-20.000008
 20
37.624992
 11
44.999992
 21
37.624992
  0
LINE
  8
0
 10
-20.000008
 20
22.374992
 11
44.999992
 21
22.374992
  0
LINE
  8
0
  6
CENTER
 62
     2
 10
49.223289
 20
24.499992
 11
59.497765
 21
24.499992
  0
LINE
  8
0
  6
CENTER
 62
     2
 10
48.812309
 20
35.499992
 11
59.497765
 21
35.499992
  0
LINE
  8
0
 10
53.249992
 20
37.249992
 11
55.999992
 21
37.249992
  0
LINE
  8
0
 10
53.249992
 20
33.749992
 11
55.999992
 21
33.749992
  0
LINE
  8
0
 10
53.249992
 20
26.249992
 11
55.999992
 21
26.249992
  0
LINE
  8
0
 10
53.249992
 20
22.749992
 11
55.999992
 21
22.749992
  0
LINE
  8
0
 10
24.749992
 20
31.249992
 11
25.499992
 21
31.249992
  0
LINE
  8
0
 10
24.749992
 20
28.749992
 11
25.499992
 21
28.749992
  0
LINE
  8
0
 10
26.499992
 20
31.249992
 11
27.249992
 21
31.249992
  0
LINE
  8
0
 10
26.499992
 20
28.749992
 11
27.249992
 21
28.749992
  0
LINE
  8
0
 10
-52.000008
 20
32.999992
 11
-50.000008
 21
32.999992
  0
LINE
  8
0
 10
-52.000008
 20
26.999992
 11
-50.000008
 21
26.999992
  0
LINE
  8
0
 62
     2
 10
-52.000008
 20
32.500004
 11
-51.133987
 21
33.000000
  0
LINE
  8
0
 62
     2
 10
-52.000008
 20
27.499987
 11
-51.133980
 21
26.999985
  0
LINE
  8
0
 10
-56.709846
 20
29.999992
 11
-52.290169
 21
29.999992
  0
LINE
  8
0
  6
CENTER
 62
     2
 10
-69.500008
 20
29.999992
 11
63.499992
 21
29.999992
  0
LINE
  8
0
 62
     4
 10
-20.000008
 20
87.799995
 11
44.999992
 21
87.799995
  0
LINE
  8
0
 10
-50.000008
 20
-7.000008
 11
-50.000008
 21
66.999992
  0
LINE
  8
0
 62
     4
 10
44.999992
 20
87.999992
 11
44.999992
 21
66.999992
  0
LINE
  8
0
 62
     4
 10
55.999992
 20
87.999992
 11
55.999992
 21
66.999992
  0
LINE
  8
0
 62
     4
 10
-20.000008
 20
87.999992
 11
-20.000008
 21
66.999992
  0
LINE
  8
0
 62
     4
 10
44.999992
 20
87.999992
 11
55.999992
 21
87.999992
  0
LINE
  8
0
  6
CENTER
 62
     1
 10
-43.689323
 20
74.999992
 11
68.128334
 21
74.999992
  0
LINE
  8
0
 62
     4
 10
63.999992
 20
80.999992
 11
63.999992
 21
68.999992
  0
LINE
  8
0
 62
     4
 10
55.999992
 20
81.999992
 11
62.999992
 21
81.999992
  0
LINE
  8
0
 62
     4
 10
55.999992
 20
67.999992
 11
62.999992
 21
67.999992
  0
LINE
  8
0
 62
     1
 10
55.999992
 20
80.999992
 11
63.999992
 21
80.999992
  0
LINE
  8
0
 62
     1
 10
55.999992
 20
68.999992
 11
63.999992
 21
68.999992
  0
LINE
  8
0
 62
     4
 10
62.999962
 20
81.999969
 11
63.999962
 21
80.999969
  0
LINE
  8
0
 62
     4
 10
63.999985
 20
68.999985
 11
62.999985
 21
67.999985
  0
LINE
  8
0
 62
     4
 10
62.999992
 20
67.999992
 11
62.999992
 21
81.999992
  0
LINE
  8
0
 10
-24.000010
 20
39.999992
 11
-26.000013
 21
41.999996
  0
LINE
  8
0
  6
CENTER
 62
     2
 10
53.249992
 20
38.333324
 11
53.249992
 21
20.999992
  0
LINE
  8
0
 10
-20.000008
 20
66.999992
 11
-20.000008
 21
-7.000008
  0
LINE
  8
0
 10
44.999992
 20
66.999992
 11
44.999992
 21
-7.000008
  0
LINE
  8
0
 10
55.999992
 20
66.999992
 11
55.999992
 21
-7.000008
  0
LINE
  8
0
 62
     4
 10
-31.000008
 20
87.999992
 11
-31.000008
 21
66.999992
  0
LINE
  8
0
 62
     4
 10
-20.000008
 20
87.999992
 11
-31.000008
 21
87.999992
  0
LINE
  8
0
 62
     4
 10
-38.000008
 20
67.999992
 11
-38.000008
 21
81.999992
  0
LINE
  8
0
 62
     4
 10
-39.000008
 20
80.999992
 11
-39.000008
 21
68.999992
  0
LINE
  8
0
 62
     4
 10
-31.000008
 20
81.999992
 11
-38.000008
 21
81.999992
  0
LINE
  8
0
 62
     4
 10
-31.000008
 20
67.999992
 11
-38.000008
 21
67.999992
  0
LINE
  8
0
 62
     1
 10
-31.000008
 20
80.999992
 11
-39.000008
 21
80.999992
  0
LINE
  8
0
 62
     1
 10
-31.000008
 20
68.999992
 11
-39.000008
 21
68.999992
  0
LINE
  8
0
 62
     4
 10
-37.999992
 20
81.999977
 11
-38.999996
 21
80.999985
  0
LINE
  8
0
 62
     4
 10
-39.000000
 20
68.999977
 11
-38.000004
 21
67.999985
  0
LINE
  8
0
  6
PHANTOM
 62
     3
 10
12.499992
 20
97.571770
 11
12.499992
 21
-44.400581
  0
LINE
  8
0
 10
-196.000000
 20
67.000015
 11
-196.000000
 21
-6.999985
  0
LINE
  8
0
 10
-167.000000
 20
67.000015
 11
-167.000000
 21
-6.999985
  0
LINE
  8
0
 10
-196.000000
 20
-6.999985
 11
-167.000000
 21
-6.999985
  0
LINE
  8
0
 10
-196.000000
 20
67.000015
 11
-167.000000
 21
67.000015
  0
LINE
  8
0
  6
CENTER
 62
     2
 10
-183.000000
 20
69.727020
 11
-183.000000
 21
-11.260635
  0
LINE
  8
0
 10
-179.250015
 20
36.495209
 11
-175.500031
 21
30.000017
  0
LINE
  8
0
 10
-175.499954
 20
29.999990
 11
-179.249954
 21
23.504805
  0
LINE
  8
0
 10
-179.250000
 20
23.504745
 11
-186.750000
 21
23.504745
  0
LINE
  8
0
 10
-186.750061
 20
23.504789
 11
-190.500061
 21
29.999981
  0
LINE
  8
0
 10
-190.500031
 20
30.000011
 11
-186.750031
 21
36.495197
  0
LINE
  8
0
 10
-186.750000
 20
36.495205
 11
-179.250000
 21
36.495205
  0
LINE
  8
0
 10
-195.000000
 20
66.000015
 11
-195.000000
 21
-5.999985
  0
LINE
  8
0
 10
-171.000000
 20
66.000015
 11
-171.000000
 21
-5.999985
  0
LINE
  8
0
 10
-171.000000
 20
-5.999985
 11
-195.000000
 21
-5.999985
  0
LINE
  8
0
 10
-171.000000
 20
66.000015
 11
-195.000000
 21
66.000015
  0
LINE
  8
0
  6
CENTER
 62
     2
 10
-178.600891
 20
16.000015
 11
-186.563446
 21
16.000015
  0
LINE
  8
0
  6
CENTER
 62
     2
 10
-180.105087
 20
44.000015
 11
-186.000000
 21
44.000015
  0
LINE
  8
0
  6
CENTER
 62
     2
 10
-178.500000
 20
54.500015
 11
-188.972961
 21
54.500015
  0
LINE
  8
0
  6
CENTER
 62
     2
 10
-178.016571
 20
5.500015
 11
-189.119049
 21
5.500015
  0
LINE
  8
0
 10
-182.100006
 20
7.058861
 11
-183.899994
 21
7.058861
  0
LINE
  8
0
 10
-183.900024
 20
7.058886
 11
-184.800034
 21
5.500041
  0
LINE
  8
0
 10
-184.800018
 20
5.500002
 11
-183.900009
 21
3.941158
  0
LINE
  8
0
 10
-183.899994
 20
3.941086
 11
-182.100006
 21
3.941086
  0
LINE
  8
0
 10
-182.100067
 20
3.941183
 11
-181.200058
 21
5.500043
  0
LINE
  8
0
 10
-181.200027
 20
5.500024
 11
-182.100037
 21
7.058869
  0
LINE
  8
0
 10
-182.100052
 20
56.058838
 11
-181.200043
 21
54.499992
  0
LINE
  8
0
 10
-181.200012
 20
54.500011
 11
-182.100021
 21
52.941170
  0
LINE
  8
0
 10
-182.100006
 20
52.941170
 11
-183.899994
 21
52.941170
  0
LINE
  8
0
 10
-183.900009
 20
52.941166
 11
-184.800018
 21
54.500011
  0
LINE
  8
0
 10
-184.800034
 20
54.500027
 11
-183.900024
 21
56.058876
  0
LINE
  8
0
 10
-183.899994
 20
56.058861
 11
-182.100006
 21
56.058861
  0
LINE
  8
0
 10
-165.000000
 20
40.000015
 11
-165.000000
 21
20.000011
  0
LINE
  8
0
 10
-167.000046
 20
41.999985
 11
-165.000046
 21
39.999985
  0
LINE
  8
0
 10
-167.000061
 20
18.000050
 11
-165.000061
 21
20.000053
  0
LINE
  8
0
  6
CENTER
 62
     2
 10
-198.593262
 20
30.000015
 11
-163.210571
 21
30.000015
  0
LINE
  8
0
 62
     4
 10
-196.000000
 20
88.000015
 11
-167.000000
 21
88.000015
  0
LINE
  8
0
 62
     4
 10
-196.000000
 20
88.000015
 11
-196.000000
 21
67.000015
  0
LINE
  8
0
 62
     4
 10
-167.000000
 20
67.000015
 11
-167.000000
 21
88.000015
  0
LINE
  8
0
  6
CENTER
 62
     1
 10
-190.117798
 20
75.000015
 11
-172.830017
 21
75.000015
  0
LINE
  8
0
  6
CENTER
 62
     1
 10
-181.500000
 20
83.514328
 11
-181.500000
 21
67.353996
  0
LINE
  8
0
 10
180.999954
 20
66.999962
 11
180.999954
 21
-7.000042
  0
LINE
  8
0
 10
151.999954
 20
66.999962
 11
151.999954
 21
40.199959
  0
LINE
  8
0
 10
151.999954
 20
66.999962
 11
180.999954
 21
66.999962
  0
LINE
  8
0
 10
151.999954
 20
-7.000042
 11
180.999954
 21
-7.000042
  0
LINE
  8
0
  6
CENTER
 62
     2
 10
147.887024
 20
29.999958
 11
183.553421
 21
29.999958
  0
LINE
  8
0
  6
CENTER
 62
     2
 10
167.999954
 20
69.027229
 11
167.999954
 21
-9.786606
  0
LINE
  8
0
  6
CENTER
 62
     2
 10
176.999954
 20
52.801552
 11
176.999954
 21
45.935307
  0
LINE
  8
0
  6
CENTER
 62
     2
 10
173.595016
 20
49.499958
 11
179.499954
 21
49.499958
  0
LINE
  8
0
  6
CENTER
 62
     2
 10
158.999954
 20
52.801552
 11
158.999954
 21
46.029270
  0
LINE
  8
0
  6
CENTER
 62
     2
 10
162.338165
 20
49.499958
 11
155.798782
 21
49.499958
  0
LINE
  8
0
  6
CENTER
 62
     2
 10
176.999954
 20
6.925381
 11
176.999954
 21
13.995930
  0
LINE
  8
0
  6
CENTER
 62
     2
 10
173.475876
 20
10.499958
 11
179.499954
 21
10.499958
  0
LINE
  8
0
  6
CENTER
 62
     2
 10
158.999954
 20
7.169193
 11
158.999954
 21
13.345764
  0
LINE
  8
0
  6
CENTER
 62
     2
 10
162.423050
 20
10.499958
 11
155.758865
 21
10.499958
  0
LINE
  8
0
  6
CENTER
 62
     2
 10
170.704742
 20
40.999958
 11
176.999954
 21
40.999958
  0
LINE
  8
0
  6
CENTER
 62
     2
 10
158.364014
 20
18.999958
 11
164.999954
 21
18.999958
  0
LINE
  8
0
  6
CENTER
 62
     2
 10
173.999954
 20
44.971428
 11
173.999954
 21
37.076801
  0
LINE
  8
0
  6
CENTER
 62
     2
 10
161.999954
 20
23.016495
 11
161.999954
 21
14.808637
  0
LINE
  8
0
  6
CENTER
 62
     2
 10
171.499954
 20
18.999958
 11
180.499954
 21
18.999958
  0
LINE
  8
0
  6
CENTER
 62
     2
 10
155.027420
 20
40.999958
 11
165.186264
 21
40.999958
  0
LINE
  8
0
  6
CENTER
 62
     2
 10
159.999954
 20
47.154369
 11
159.999954
 21
35.207577
  0
LINE
  8
0
  6
CENTER
 62
     2
 10
175.999954
 20
25.048740
 11
175.999954
 21
12.939411
  0
LINE
  8
0
 10
176.899857
 20
20.558783
 11
177.799866
 21
18.999931
  0
LINE
  8
0
 10
176.900146
 20
17.440998
 11
177.800156
 21
18.999842
  0
LINE
  8
0
 10
176.899948
 20
17.441113
 11
175.099960
 21
17.441113
  0
LINE
  8
0
 10
175.099991
 20
17.441143
 11
174.199982
 21
18.999987
  0
LINE
  8
0
 10
174.200012
 20
18.999926
 11
175.100021
 21
20.558771
  0
LINE
  8
0
 10
175.099960
 20
20.558804
 11
176.899948
 21
20.558804
  0
LINE
  8
0
 10
160.899994
 20
42.558849
 11
161.800003
 21
41.000004
  0
LINE
  8
0
 10
161.799973
 20
40.999935
 11
160.899963
 21
39.441093
  0
LINE
  8
0
 10
160.899948
 20
39.441113
 11
159.099960
 21
39.441113
  0
LINE
  8
0
 10
159.099991
 20
39.441151
 11
158.199982
 21
40.999989
  0
LINE
  8
0
 10
158.199982
 20
40.999931
 11
159.099991
 21
42.558777
  0
LINE
  8
0
 10
159.099960
 20
42.558804
 11
160.899948
 21
42.558804
  0
LINE
  8
0
 10
152.899948
 20
41.199959
 11
152.899948
 21
40.199959
  0
LINE
  8
0
 10
151.999954
 20
19.799957
 11
152.899948
 21
19.799957
  0
LINE
  8
0
 10
151.999954
 20
40.199959
 11
152.899948
 21
40.199959
  0
LINE
  8
0
 10
152.899948
 20
18.799957
 11
154.599960
 21
18.799957
  0
LINE
  8
0
 10
152.899948
 20
41.199959
 11
154.599960
 21
41.199959
  0
LINE
  8
0
 10
152.899948
 20
19.799957
 11
152.899948
 21
18.799957
  0
LINE
  8
0
 10
154.599960
 20
18.799957
 11
154.599960
 21
41.199959
  0
LINE
  8
0
 10
151.999954
 20
19.799957
 11
151.999954
 21
-7.000042
  0
LINE
  8
0
 10
150.000000
 20
39.999897
 11
151.999985
 21
41.999893
  0
LINE
  8
0
 10
149.999985
 20
20.000034
 11
151.999985
 21
18.000031
  0
LINE
  8
0
 10
149.999954
 20
19.999954
 11
149.999954
 21
39.999958
  0
LINE
  8
0
  6
CENTER
 62
     2
 10
148.790833
 20
35.499958
 11
156.220291
 21
35.499958
  0
LINE
  8
0
  6
CENTER
 62
     2
 10
149.034531
 20
24.499958
 11
156.043900
 21
24.499958
  0
LINE
  8
0
 10
149.999954
 20
37.249958
 11
154.599960
 21
37.249958
  0
LINE
  8
0
 10
149.999954
 20
33.749958
 11
154.599960
 21
33.749958
  0
LINE
  8
0
 10
149.999954
 20
26.249958
 11
154.599960
 21
26.249958
  0
LINE
  8
0
 10
149.999954
 20
22.749958
 11
154.599960
 21
22.749958
  0
LINE
  8
0
 62
     4
 10
151.999954
 20
87.999962
 11
180.999954
 21
87.999962
  0
LINE
  8
0
 62
     4
 10
151.999954
 20
87.999962
 11
151.999954
 21
66.999962
  0
LINE
  8
0
 62
     4
 10
180.999954
 20
66.999962
 11
180.999954
 21
87.999962
  0
LINE
  8
0
  6
CENTER
 62
     1
 10
157.882156
 20
74.999962
 11
175.169937
 21
74.999962
  0
LINE
  8
0
  6
CENTER
 62
     1
 10
166.499954
 20
83.514275
 11
166.499954
 21
67.353943
  0
LINE
  8
0
  6
CENTER
 62
     2
 10
152.649963
 20
21.837854
 11
152.649963
 21
37.869137
  0
LINE
  8
0
  6
CENTER
 62
     2
 10
-67.901237
 20
-103.181015
 11
58.745811
 21
-103.181015
  0
LINE
  8
0
 10
-57.000015
 20
-91.181015
 11
-57.000015
 21
-115.181015
  0
LINE
  8
0
 10
-50.000015
 20
-87.181015
 11
-50.000015
 21
-116.181015
  0
LINE
  8
0
 10
-20.000015
 20
-85.181015
 11
-20.000015
 21
-116.181015
  0
LINE
  8
0
 10
44.999985
 20
-85.181015
 11
44.999985
 21
-116.181015
  0
LINE
  8
0
 10
55.999985
 20
-85.181015
 11
55.999985
 21
-116.181015
  0
LINE
  8
0
 10
-65.000015
 20
-91.181015
 11
-65.000015
 21
-115.181015
  0
LINE
  8
0
 10
-50.000015
 20
-87.181015
 11
-20.000015
 21
-87.181015
  0
LINE
  8
0
 10
-50.000015
 20
-116.181015
 11
-20.000015
 21
-116.181015
  0
LINE
  8
0
  6
CENTER
 62
     2
 10
-61.000015
 20
-114.175186
 11
-61.000015
 21
-107.860344
  0
LINE
  8
0
  6
CENTER
 62
     2
 10
-63.500015
 20
-111.181015
 11
-58.461422
 21
-111.181015
  0
LINE
  8
0
  6
CENTER
 62
     2
 10
-63.500015
 20
-95.181015
 11
-58.265255
 21
-95.181015
  0
LINE
  8
0
  6
CENTER
 62
     2
 10
-61.000015
 20
-98.359619
 11
-61.000015
 21
-92.681015
  0
LINE
  8
0
  6
CENTER
 62
     2
 10
-44.500015
 20
-88.887009
 11
-44.500015
 21
-94.889297
  0
LINE
  8
0
  6
CENTER
 62
     2
 10
-25.500015
 20
-88.952400
 11
-25.500015
 21
-94.832405
  0
LINE
  8
0
  6
CENTER
 62
     2
 10
-47.000015
 20
-91.681015
 11
-41.656601
 21
-91.681015
  0
LINE
  8
0
  6
CENTER
 62
     2
 10
-47.000015
 20
-111.681015
 11
-41.460438
 21
-111.681015
  0
LINE
  8
0
  6
CENTER
 62
     2
 10
-44.500015
 20
-108.486137
 11
-44.500015
 21
-114.857872
  0
LINE
  8
0
  6
CENTER
 62
     2
 10
-28.382759
 20
-91.681015
 11
-22.693970
 21
-91.681015
  0
LINE
  8
0
  6
CENTER
 62
     2
 10
-25.500015
 20
-108.429245
 11
-25.500015
 21
-114.650040
  0
LINE
  8
0
  6
CENTER
 62
     2
 10
-28.317368
 20
-111.681015
 11
-22.628578
 21
-111.681015
  0
LINE
  8
0
  6
CENTER
 62
     2
 10
50.499985
 20
-88.874229
 11
50.499985
 21
-94.971291
  0
LINE
  8
0
  6
CENTER
 62
     2
 10
47.740891
 20
-91.681015
 11
53.522598
 21
-91.681015
  0
LINE
  8
0
  6
CENTER
 62
     2
 10
47.740891
 20
-111.681015
 11
53.522598
 21
-111.681015
  0
LINE
  8
0
  6
CENTER
 62
     2
 10
50.499985
 20
-108.499008
 11
50.499985
 21
-114.948929
  0
LINE
  8
0
 10
-24.000015
 20
-85.181015
 11
-20.000015
 21
-85.181015
  0
LINE
  8
0
 10
-26.000010
 20
-87.181038
 11
-24.000006
 21
-85.181038
  0
LINE
  8
0
 10
-20.000015
 20
-87.381020
 11
44.999985
 21
-87.381020
  0
LINE
  8
0
 10
-20.004147
 20
-115.981018
 11
44.999985
 21
-115.981018
  0
LINE
  8
0
 10
44.999985
 20
-116.181015
 11
55.999985
 21
-116.181015
  0
LINE
  8
0
 10
44.999985
 20
-87.181015
 11
55.999985
 21
-87.181015
  0
LINE
  8
0
 10
-20.000015
 20
-85.381020
 11
44.999985
 21
-85.381020
  0
LINE
  8
0
 10
44.999985
 20
-85.181015
 11
55.999985
 21
-85.181015
  0
LINE
  8
0
 10
-50.000015
 20
-108.181015
 11
-57.000015
 21
-108.181015
  0
LINE
  8
0
 10
-50.000015
 20
-98.181015
 11
-57.000015
 21
-98.181015
  0
LINE
  8
0
 10
-65.000015
 20
-115.181015
 11
-57.000015
 21
-115.181015
  0
LINE
  8
0
 10
-65.000015
 20
-91.181015
 11
-57.000015
 21
-91.181015
  0
LINE
  8
0
 62
     4
 10
63.999985
 20
-95.681015
 11
63.999985
 21
-107.681015
  0
LINE
  8
0
 62
     4
 10
55.999985
 20
-94.681015
 11
62.999985
 21
-94.681015
  0
LINE
  8
0
 62
     4
 10
55.999985
 20
-108.681015
 11
62.999985
 21
-108.681015
  0
LINE
  8
0
 62
     4
 10
62.999996
 20
-94.681007
 11
63.999996
 21
-95.681007
  0
LINE
  8
0
 62
     4
 10
63.999973
 20
-107.680984
 11
62.999973
 21
-108.680992
  0
LINE
  8
0
 62
     4
 10
62.999985
 20
-94.681015
 11
62.999985
 21
-108.681015
  0
LINE
  8
0
 62
     1
 10
55.999985
 20
-107.681015
 11
63.999985
 21
-107.681015
  0
LINE
  8
0
 62
     1
 10
55.999985
 20
-95.681015
 11
63.999985
 21
-95.681015
  0
LINE
  8
0
 10
-52.721703
 20
-110.681015
 11
-56.278328
 21
-110.681015
  0
LINE
  8
0
 10
-52.721703
 20
-95.681015
 11
-56.278328
 21
-95.681015
  0
LINE
  8
0
 10
-52.000015
 20
-97.556015
 11
-52.000015
 21
-98.181015
  0
LINE
  8
0
 10
-52.000015
 20
-108.181015
 11
-52.000015
 21
-108.806015
  0
LINE
  8
0
  6
CENTER
 62
     2
 10
54.787109
 20
-101.681015
 11
65.165756
 21
-101.681015
  0
LINE
  8
0
  6
PHANTOM
 62
     3
 10
12.499985
 20
-44.765976
 11
12.499985
 21
-127.855560
  0
LINE
  8
0
 10
-281.250000
 20
195.500000
 11
282.099976
 21
195.500000
  0
LINE
  8
0
 10
-281.250000
 20
195.500000
 11
-281.250000
 21
-195.000000
  0
LINE
  8
0
 10
282.099976
 20
195.500000
 11
282.099976
 21
-195.000000
  0
LINE
  8
0
 10
-281.250000
 20
-195.000000
 11
282.099976
 21
-195.000000
  0
LINE
  8
0
 10
162.099976
 20
-175.000000
 11
162.099976
 21
-195.000000
  0
LINE
  8
0
 10
162.099976
 20
-175.000000
 11
282.099976
 21
-175.000000
  0
LINE
  8
0
 10
162.099976
 20
175.500000
 11
282.099976
 21
175.500000
  0
LINE
  8
0
 10
-281.250000
 20
175.500000
 11
-161.250000
 21
175.500000
  0
LINE
  8
0
 10
162.099976
 20
195.500000
 11
162.099976
 21
175.500000
  0
LINE
  8
0
 10
-161.250000
 20
195.500000
 11
-161.250000
 21
175.500000
  0
LINE
  8
0
 10
-271.250000
 20
-185.000000
 11
-89.250000
 21
-185.000000
  0
LINE
  8
0
 10
-271.250000
 20
-177.000000
 11
-89.250000
 21
-177.000000
  0
LINE
  8
0
 10
-271.250000
 20
-169.000000
 11
-89.250000
 21
-169.000000
  0
LINE
  8
0
 10
-271.250000
 20
-153.000000
 11
-271.250000
 21
-185.000000
  0
LINE
  8
0
 10
-221.250000
 20
-153.000000
 11
-221.250000
 21
-185.000000
  0
LINE
  8
0
 10
-199.250000
 20
-153.000000
 11
-199.250000
 21
-185.000000
  0
LINE
  8
0
 10
-177.250000
 20
-153.000000
 11
-177.250000
 21
-185.000000
  0
LINE
  8
0
 10
-155.250000
 20
-153.000000
 11
-155.250000
 21
-185.000000
  0
LINE
  8
0
 10
-133.250000
 20
-153.000000
 11
-133.250000
 21
-185.000000
  0
LINE
  8
0
 10
-111.250000
 20
-153.000000
 11
-111.250000
 21
-185.000000
  0
LINE
  8
0
 10
-271.250000
 20
-153.000000
 11
-89.250000
 21
-153.000000
  0
LINE
  8
0
 10
-271.250000
 20
-153.000046
 11
-221.250000
 21
-169.000046
  0
LINE
  8
0
 10
-89.250000
 20
-153.000000
 11
-89.250000
 21
-185.000000
  0
CIRCLE
  8
0
 10
-61.000008
 20
47.999992
 40
1.650000
  0
CIRCLE
  8
0
 10
-61.000008
 20
11.999992
 40
1.650000
  0
ARC
  8
0
 10
53.249992
 20
24.499992
 40
1.750000
 50
90.000000
 51
270.000000
  0
ARC
  8
0
 10
27.249992
 20
29.999992
 40
1.250000
 50
270.000000
 51
90.000000
  0
ARC
  8
0
 10
53.249992
 20
35.499992
 40
1.750000
 50
90.000000
 51
270.000000
  0
ARC
  8
0
 10
25.999992
 20
28.749992
 40
0.500000
 50
0.000000
 51
180.000000
  0
ARC
  8
0
 10
25.999992
 20
31.249992
 40
0.500000
 50
180.000000
 51
0.000000
  0
ARC
  8
0
 10
24.749992
 20
29.999992
 40
1.250000
 50
90.000000
 51
270.000000
  0
ARC
  8
0
 10
-73.254051
 20
26.999992
 40
21.254044
 50
350.521606
 51
359.999939
  0
ARC
  8
0
 10
-73.254051
 20
26.499992
 40
21.254044
 50
359.999939
 51
9.478273
  0
ARC
  8
0
 10
-73.254051
 20
32.999992
 40
21.254044
 50
0.000000
 51
9.478329
  0
ARC
  8
0
 10
-73.254051
 20
33.499992
 40
21.254044
 50
350.521667
 51
0.000000
  0
ARC
  8
0
 10
-35.745964
 20
26.999992
 40
21.254044
 50
180.000092
 51
189.478424
  0
ARC
  8
0
 10
-35.745964
 20
26.499992
 40
21.254044
 50
170.521744
 51
180.000076
  0
ARC
  8
0
 10
-35.745964
 20
32.999992
 40
21.254044
 50
170.521683
 51
180.000015
  0
ARC
  8
0
 10
-35.745964
 20
33.499992
 40
21.254044
 50
180.000031
 51
189.478378
  0
CIRCLE
  8
0
 62
     2
 10
-61.000008
 20
47.999992
 40
2.000000
  0
CIRCLE
  8
0
 62
     2
 10
-61.000008
 20
11.999992
 40
2.000000
  0
CIRCLE
  8
0
 10
-31.000008
 20
40.499992
 40
4.000000
  0
CIRCLE
  8
0
 10
-44.000008
 20
40.499992
 40
4.000000
  0
CIRCLE
  8
0
 10
-44.000008
 20
19.499992
 40
4.000000
  0
CIRCLE
  8
0
 10
-31.000008
 20
19.499992
 40
4.000000
  0
CIRCLE
  8
0
 10
-31.000008
 20
19.499992
 40
2.250000
  0
CIRCLE
  8
0
 10
-44.000008
 20
19.499992
 40
2.250000
  0
CIRCLE
  8
0
 10
-44.000008
 20
40.499992
 40
2.250000
  0
CIRCLE
  8
0
 10
-31.000008
 20
40.499992
 40
2.250000
  0
CIRCLE
  8
0
 10
-183.000000
 20
30.000015
 40
3.000000
  0
CIRCLE
  8
0
 10
-183.000000
 20
44.000015
 40
2.100000
  0
CIRCLE
  8
0
 62
     1
 10
-181.500000
 20
75.000015
 40
6.000000
  0
CIRCLE
  8
0
 62
     4
 10
-181.500000
 20
75.000015
 40
7.000000
  0
CIRCLE
  8
0
 10
-183.000000
 20
16.000015
 40
2.100000
  0
CIRCLE
  8
0
 10
-183.000000
 20
30.000015
 40
10.000000
  0
CIRCLE
  8
0
 62
     2
 10
-183.000000
 20
30.000015
 40
2.500000
  0
CIRCLE
  8
0
 62
     2
 10
-183.000000
 20
16.000015
 40
2.500000
  0
CIRCLE
  8
0
 62
     2
 10
-183.000000
 20
44.000015
 40
2.500000
  0
CIRCLE
  8
0
 10
-183.000000
 20
5.500015
 40
4.000000
  0
CIRCLE
  8
0
 10
-183.000000
 20
54.500015
 40
4.000000
  0
CIRCLE
  8
0
 10
-183.000000
 20
54.500015
 40
3.500000
  0
CIRCLE
  8
0
 10
-183.000000
 20
5.500015
 40
3.500000
  0
CIRCLE
  8
0
 10
173.999954
 20
40.999958
 40
2.100000
  0
CIRCLE
  8
0
 10
161.999954
 20
18.999958
 40
2.100000
  0
CIRCLE
  8
0
 10
158.999954
 20
49.499958
 40
1.650000
  0
CIRCLE
  8
0
 10
176.999954
 20
10.499958
 40
1.650000
  0
CIRCLE
  8
0
 10
176.999954
 20
49.499958
 40
1.650000
  0
CIRCLE
  8
0
 62
     4
 10
166.499954
 20
74.999962
 40
7.000000
  0
CIRCLE
  8
0
 62
     1
 10
166.499954
 20
74.999962
 40
6.000000
  0
CIRCLE
  8
0
 62
     2
 10
176.999954
 20
49.499958
 40
2.000000
  0
CIRCLE
  8
0
 62
     2
 10
158.999954
 20
49.499958
 40
2.000000
  0
CIRCLE
  8
0
 62
     2
 10
176.999954
 20
10.499958
 40
2.000000
  0
CIRCLE
  8
0
 62
     2
 10
158.999954
 20
10.499958
 40
2.000000
  0
CIRCLE
  8
0
 62
     2
 10
173.999954
 20
40.999958
 40
2.500000
  0
CIRCLE
  8
0
 62
     2
 10
161.999954
 20
18.999958
 40
2.500000
  0
CIRCLE
  8
0
 10
159.999954
 20
40.999958
 40
4.000000
  0
CIRCLE
  8
0
 10
175.999954
 20
18.999958
 40
4.000000
  0
CIRCLE
  8
0
 10
159.999954
 20
40.999958
 40
3.500000
  0
CIRCLE
  8
0
 10
175.999954
 20
18.999958
 40
3.500000
  0
ARC
  8
0
 10
152.649948
 20
35.499958
 40
1.750000
 50
90.000000
 51
270.000000
  0
ARC
  8
0
 10
152.649948
 20
24.499958
 40
1.750000
 50
90.000000
 51
270.000000
  0
CIRCLE
  8
0
 10
158.999954
 20
10.499958
 40
1.650000
  0
CIRCLE
  8
0
 10
-44.500015
 20
-111.681015
 40
1.650000
  0
CIRCLE
  8
0
 10
-25.500015
 20
-111.681015
 40
1.650000
  0
CIRCLE
  8
0
 10
-44.500015
 20
-91.681015
 40
1.650000
  0
CIRCLE
  8
0
 10
50.499985
 20
-111.681015
 40
1.650000
  0
CIRCLE
  8
0
 10
-25.500015
 20
-91.681015
 40
1.650000
  0
CIRCLE
  8
0
 10
50.499985
 20
-91.681015
 40
1.650000
  0
CIRCLE
  8
0
 62
     2
 10
50.499985
 20
-91.681015
 40
2.000000
  0
CIRCLE
  8
0
 62
     2
 10
-44.500015
 20
-111.681015
 40
2.000000
  0
CIRCLE
  8
0
 62
     2
 10
50.499985
 20
-111.681015
 40
2.000000
  0
CIRCLE
  8
0
 62
     2
 10
-61.000015
 20
-95.181015
 40
2.000000
  0
CIRCLE
  8
0
 62
     2
 10
-61.000015
 20
-111.181015
 40
2.000000
  0
CIRCLE
  8
0
 62
     2
 10
-44.500015
 20
-91.681015
 40
2.000000
  0
CIRCLE
  8
0
 62
     2
 10
-25.500015
 20
-91.681015
 40
2.000000
  0
CIRCLE
  8
0
 62
     2
 10
-25.500015
 20
-111.681015
 40
2.000000
  0
ARC
  8
0
 10
-54.796555
 20
-97.556015
 40
2.796539
 50
347.085876
 51
42.103455
  0
ARC
  8
0
 10
-54.796555
 20
-108.806015
 40
2.796540
 50
317.896545
 51
12.914133
  0
ARC
  8
0
 10
-54.203476
 20
-108.806015
 40
2.796539
 50
167.085861
 51
222.103409
  0
ARC
  8
0
 10
-54.203476
 20
-97.556015
 40
2.796542
 50
137.896378
 51
192.914139
  0
CIRCLE
  8
0
 10
-61.000015
 20
-95.181015
 40
1.650000
  0
CIRCLE
  8
0
 10
-61.000015
 20
-111.181015
 40
1.650000
  0
TEXT
  8
0
 10
196.250259
 20
180.830002
 40
6.300000
  1
Ver. 2.0
 50
0.000000
 41
1.052632
 51
0.000000
  7
STANDARD
  0
TEXT
  8
0
 10
167.564667
 20
-192.100006
 40
9.000000
  1
KOGANEI CORP.
 50
0.000000
 41
1.052632
 51
0.000000
  7
STANDARD
  0
TEXT
  8
0
 10
-262.849731
 20
180.830002
 40
6.300000
  1
AXIS CYLINDER
 50
0.000000
 41
1.052632
 51
0.000000
  7
STANDARD
  0
TEXT
  8
0
 10
-232.550003
 20
145.830002
 40
6.300000
  1
XDAA20*ST(25)-SSL
 50
0.000000
 41
1.052632
 51
0.000000
  7
STANDARD
  0
TEXT
  8
0
 10
-270.049988
 20
155.830002
 40
6.300000
  1
MODEL:XDA20*ST(25)-SSL
 50
0.000000
 41
1.052632
 51
0.000000
  7
STANDARD
  0
TEXT
  8
0
 10
-215.142853
 20
-164.050003
 40
4.500000
  1
25
 50
0.000000
 41
1.052632
 51
0.000000
  7
STANDARD
  0
TEXT
  8
0
 10
-193.142853
 20
-164.050003
 40
4.500000
  1
50
 50
0.000000
 41
1.052632
 51
0.000000
  7
STANDARD
  0
TEXT
  8
0
 10
-171.142853
 20
-164.050003
 40
4.500000
  1
75
 50
0.000000
 41
1.052632
 51
0.000000
  7
STANDARD
  0
TEXT
  8
0
 10
-151.392853
 20
-164.050003
 40
4.500000
  1
100
 50
0.000000
 41
1.052632
 51
0.000000
  7
STANDARD
  0
TEXT
  8
0
 10
-107.392853
 20
-164.050003
 40
4.500000
  1
150
 50
0.000000
 41
1.052632
 51
0.000000
  7
STANDARD
  0
TEXT
  8
0
 10
-212.892853
 20
-176.050003
 40
4.500000
  1
0
 50
0.000000
 41
1.052632
 51
0.000000
  7
STANDARD
  0
TEXT
  8
0
 10
-212.892853
 20
-184.050003
 40
4.500000
  1
0
 50
0.000000
 41
1.052632
 51
0.000000
  7
STANDARD
  0
TEXT
  8
0
 10
-193.142853
 20
-176.050003
 40
4.500000
  1
25
 50
0.000000
 41
1.052632
 51
0.000000
  7
STANDARD
  0
TEXT
  8
0
 10
-193.142853
 20
-184.050003
 40
4.500000
  1
25
 50
0.000000
 41
1.052632
 51
0.000000
  7
STANDARD
  0
TEXT
  8
0
 10
-171.142853
 20
-176.050003
 40
4.500000
  1
50
 50
0.000000
 41
1.052632
 51
0.000000
  7
STANDARD
  0
TEXT
  8
0
 10
-171.142853
 20
-184.050003
 40
4.500000
  1
50
 50
0.000000
 41
1.052632
 51
0.000000
  7
STANDARD
  0
TEXT
  8
0
 10
-149.142853
 20
-176.050003
 40
4.500000
  1
75
 50
0.000000
 41
1.052632
 51
0.000000
  7
STANDARD
  0
TEXT
  8
0
 10
-149.142853
 20
-184.050003
 40
4.500000
  1
75
 50
0.000000
 41
1.052632
 51
0.000000
  7
STANDARD
  0
TEXT
  8
0
 10
-107.392853
 20
-176.050003
 40
4.500000
  1
125
 50
0.000000
 41
1.052632
 51
0.000000
  7
STANDARD
  0
TEXT
  8
0
 10
-107.392853
 20
-184.050003
 40
4.500000
  1
125
 50
0.000000
 41
1.052632
 51
0.000000
  7
STANDARD
  0
TEXT
  8
0
 10
-250.377258
 20
-160.050003
 40
4.500000
  1
STROKE
 50
0.000000
 41
1.052632
 51
0.000000
  7
STANDARD
  0
TEXT
  8
0
 10
-265.408447
 20
-168.050003
 40
4.500000
  1
TYPE
 50
0.000000
 41
1.052632
 51
0.000000
  7
STANDARD
  0
TEXT
  8
0
 10
-264.000000
 20
-174.699997
 40
4.500000
  1
XDA20
 50
0.000000
 41
1.052632
 51
0.000000
  7
STANDARD
  0
TEXT
  8
0
 10
-264.000000
 20
-182.699997
 40
4.500000
  1
XDAA20
 50
0.000000
 41
1.052632
 51
0.000000
  7
STANDARD
  0
TEXT
  8
0
 10
-207.642853
 20
-151.050003
 40
4.500000
  1
STRETCH LIST
 50
0.000000
 41
1.052632
 51
0.000000
  7
STANDARD
  0
TEXT
  8
0
 10
-109.642860
 20
-152.050003
 40
4.500000
  1
(mm)
 50
0.000000
 41
1.052632
 51
0.000000
  7
STANDARD
  0
TEXT
  8
0
 10
-129.392853
 20
-164.050003
 40
4.500000
  1
125
 50
0.000000
 41
1.052632
 51
0.000000
  7
STANDARD
  0
TEXT
  8
0
 10
-129.392853
 20
-176.050003
 40
4.500000
  1
100
 50
0.000000
 41
1.052632
 51
0.000000
  7
STANDARD
  0
TEXT
  8
0
 10
-129.392853
 20
-184.050003
 40
4.500000
  1
100
 50
0.000000
 41
1.052632
 51
0.000000
  7
STANDARD
  0
TEXT
  8
0
 62
     3
 10
-26.296230
 20
108.132713
 40
6.300000
  1
STRETCH LINE
 50
0.000000
 41
1.052632
 51
0.000000
  7
STANDARD
  0
ENDSEC
  0
EOF
