  0
SECTION
  2
HEADER
  0
ENDSEC
  0
SECTION
  2
TABLES
  0
TABLE
  2
LTYPE
 70
     4
  0
LTYPE
  2
CONTINUOUS
 70
    64
  3
Solid line
 72
    65
 73
     0
 40
0.000000
  0
LTYPE
  2
DASHED
 70
    64
  3
__ __ __ __ __ __ __ __ __ __ __ __ __ __ __
 72
    65
 73
     2
 40
3.500000
 49
2.000000
 49
-1.500000
  0
LTYPE
  2
CENTER
 70
    64
  3
____ _ ____ _ ____ _ ____ _ ____ _ ____ _ ____
 72
    65
 73
     4
 40
17.500000
 49
13.000000
 49
-1.500000
 49
1.500000
 49
-1.500000
  0
LTYPE
  2
PHANTOM
 70
    64
  3
_____ _ _ _____ _ _ _____ _ _ _____ _ _ ____  
 72
    65
 73
     6
 40
15.500000
 49
8.000000
 49
-1.500000
 49
1.500000
 49
-1.500000
 49
1.500000
 49
-1.500000
  0
LTYPE
  2
DASHED1
 70
    64
  3
__ __ __ __ __ __ __ __ __ __ __ __ __ __ __
 72
    65
 73
     2
 40
1.500000
 49
1.000000
 49
-0.500000
  0
LTYPE
  2
DASHED2
 70
    64
  3
__ __ __ __ __ __ __ __ __ __ __ __ __ __ __
 72
    65
 73
     2
 40
3.500000
 49
2.500000
 49
-1.000000
  0
LTYPE
  2
DASHED3
 70
    64
  3
__ __ __ __ __ __ __ __ __ __ __ __ __ __ __
 72
    65
 73
     2
 40
6.000000
 49
4.000000
 49
-2.000000
  0
LTYPE
  2
DASHED4
 70
    64
  3
__ __ __ __ __ __ __ __ __ __ __ __ __ __ __
 72
    65
 73
     2
 40
12.000000
 49
10.000000
 49
-2.000000
  0
LTYPE
  2
DASHED5
 70
    64
  3
__ __ __ __ __ __ __ __ __ __ __ __ __ __ __
 72
    65
 73
     2
 40
17.000000
 49
15.000000
 49
-2.000000
  0
LTYPE
  2
DASHED6
 70
    64
  3
__ __ __ __ __ __ __ __ __ __ __ __ __ __ __
 72
    65
 73
     2
 40
29.000000
 49
27.000000
 49
-2.000000
  0
LTYPE
  2
PHANTOM1
 70
    64
  3
_____ _ _ _____ _ _ _____ _ _ _____ _ _ ____  
 72
    65
 73
     6
 40
31.000000
 49
25.000000
 49
-1.500000
 49
1.000000
 49
-1.000000
 49
1.000000
 49
-1.500000
  0
LTYPE
  2
PHANTOM2
 70
    64
  3
_____ _ _ _____ _ _ _____ _ _ _____ _ _ ____  
 72
    65
 73
     6
 40
36.000000
 49
27.000000
 49
-1.500000
 49
2.500000
 49
-1.000000
 49
2.500000
 49
-1.500000
  0
LTYPE
  2
PHANTOM3
 70
    64
  3
_____ _ _ _____ _ _ _____ _ _ _____ _ _ ____  
 72
    65
 73
     6
 40
78.000000
 49
64.000000
 49
-2.000000
 49
4.000000
 49
-2.000000
 49
4.000000
 49
-2.000000
  0
LTYPE
  2
CENTER1
 70
    64
  3
____ _ ____ _ ____ _ ____ _ ____ _ ____ _ ____
 72
    65
 73
     4
 40
19.000000
 49
14.000000
 49
-1.000000
 49
3.000000
 49
-1.000000
  0
LTYPE
  2
CENTER2
 70
    64
  3
____ _ ____ _ ____ _ ____ _ ____ _ ____ _ ____
 72
    65
 73
     4
 40
28.500000
 49
25.000000
 49
-1.000000
 49
1.500000
 49
-1.000000
  0
LTYPE
  2
CENTER3
 70
    64
  3
____ _ ____ _ ____ _ ____ _ ____ _ ____ _ ____
 72
    65
 73
     4
 40
31.500000
 49
27.000000
 49
-1.000000
 49
2.500000
 49
-1.000000
  0
LTYPE
  2
CENTER4
 70
    64
  3
____ _ ____ _ ____ _ ____ _ ____ _ ____ _ ____
 72
    65
 73
     4
 40
50.000000
 49
45.000000
 49
-1.000000
 49
3.000000
 49
-1.000000
  0
LTYPE
  2
CENTER5
 70
    64
  3
____ _ ____ _ ____ _ ____ _ ____ _ ____ _ ____
 72
    65
 73
     4
 40
100.000000
 49
92.000000
 49
-2.000000
 49
4.000000
 49
-2.000000
  0
LTYPE
  2
SBK1
 70
    64
  3
______ _ _ _ ______ _ _ _ ______ _ _ _ _____  
 72
    65
 73
     8
 40
60.500000
 49
45.000000
 49
-2.000000
 49
2.500000
 49
-2.000000
 49
2.500000
 49
-2.000000
 49
2.500000
 49
-2.000000
  0
LTYPE
  2
SBK2
 70
    64
  3
______ _ _ _ ______ _ _ _ ______ _ _ _ _____  
 72
    65
 73
     8
 40
84.000000
 49
64.000000
 49
-2.000000
 49
4.000000
 49
-2.000000
 49
4.000000
 49
-2.000000
 49
4.000000
 49
-2.000000
  0
LTYPE
  2
STCH
 70
    64
  3
__ __ __ __ __ __ __ __ __ __ __ __ __ __ __
 72
    65
 73
     2
 40
3.000000
 49
1.000000
 49
-2.000000
  0
LTYPE
  2
MTCH
 70
    64
  3
_____ _ _ _____ _ _ _____ _ _ _____ _ _ ____  
 72
    65
 73
     6
 40
80.000000
 49
66.000000
 49
-2.000000
 49
4.000000
 49
-2.000000
 49
4.000000
 49
-2.000000
  0
ENDTAB
  0
TABLE
  2
LAYER
 70
     1
  0
LAYER
  2
0
 70
     0
 62
     7
  6
CONTINUOUS
  0
ENDTAB
  0
TABLE
  2
STYLE
 70
     1
  0
STYLE
  2
STANDARD
 70
     0
 40
0.000000
 41
1.000000
 50
0.000000
 71
     0
 42
0.200000
  3
txt
  4
BIGFONT
  0
ENDTAB
  0
TABLE
  2
VIEW
 70
     0
  0
ENDTAB
  0
ENDSEC
  0
SECTION
  2
BLOCKS
  0
ENDSEC
  0
SECTION
  2
ENTITIES
  0
LINE
  8
0
 10
-46.000000
 20
72.000000
 11
-21.000000
 21
72.000000
  0
LINE
  8
0
 10
-60.000000
 20
71.000000
 11
-52.000000
 21
71.000000
  0
LINE
  8
0
 10
-60.000000
 20
9.000000
 11
-52.000000
 21
9.000000
  0
LINE
  8
0
 10
-46.000000
 20
8.000000
 11
-21.000000
 21
8.000000
  0
LINE
  8
0
 10
-52.000000
 20
71.000000
 11
-52.000000
 21
9.000000
  0
LINE
  8
0
  6
CENTER
 62
     2
 10
-61.873650
 20
40.000000
 11
53.771927
 21
40.000000
  0
LINE
  8
0
 10
-60.000000
 20
71.000000
 11
-60.000000
 21
9.000000
  0
LINE
  8
0
  6
CENTER
 62
     2
 10
-58.466339
 20
56.000000
 11
-53.067558
 21
56.000000
  0
LINE
  8
0
  6
CENTER
 62
     2
 10
-56.000000
 20
27.070709
 11
-56.000000
 21
20.959635
  0
LINE
  8
0
  6
CENTER
 62
     2
 10
-58.544502
 20
24.000000
 11
-52.980255
 21
24.000000
  0
LINE
  8
0
 10
-52.000000
 20
57.500000
 11
-46.000000
 21
57.500000
  0
LINE
  8
0
 10
-52.000000
 20
65.500000
 11
-46.000000
 21
65.500000
  0
LINE
  8
0
 10
-52.000000
 20
14.500000
 11
-46.000000
 21
14.500000
  0
LINE
  8
0
 10
-52.000000
 20
22.500000
 11
-46.000000
 21
22.500000
  0
LINE
  8
0
  6
CENTER
 62
     2
 10
-53.338768
 20
61.500000
 11
-44.307938
 21
61.500000
  0
LINE
  8
0
  6
CENTER
 62
     2
 10
-53.338768
 20
18.500000
 11
-44.521309
 21
18.500000
  0
LINE
  8
0
  6
CENTER
 62
     2
 10
-31.500000
 20
55.618149
 11
-31.500000
 21
43.893398
  0
LINE
  8
0
  6
CENTER
 62
     2
 10
-45.404694
 20
49.500000
 11
-26.064827
 21
49.500000
  0
LINE
  8
0
  6
CENTER
 62
     2
 10
-45.527859
 20
30.500000
 11
-26.171509
 21
30.500000
  0
LINE
  8
0
  6
CENTER
 62
     2
 10
-40.500000
 20
35.909004
 11
-40.500000
 21
24.784683
  0
LINE
  8
0
  6
CENTER
 62
     2
 10
-31.500000
 20
35.909004
 11
-31.500000
 21
24.964108
  0
LINE
  8
0
 10
-27.000000
 20
52.000000
 11
-27.000000
 21
28.000000
  0
LINE
  8
0
 10
-27.000000
 20
28.000000
 11
51.000000
 21
28.000000
  0
LINE
  8
0
 10
-27.000000
 20
52.000000
 11
51.000000
 21
52.000000
  0
LINE
  8
0
 10
-25.000000
 20
30.000000
 11
51.000000
 21
30.000000
  0
LINE
  8
0
 10
-25.000000
 20
50.000000
 11
-25.000000
 21
30.000000
  0
LINE
  8
0
 10
-26.999998
 20
51.999996
 11
-24.999998
 21
49.999996
  0
LINE
  8
0
 10
-27.000000
 20
28.000000
 11
-25.000000
 21
30.000000
  0
LINE
  8
0
 10
40.000000
 20
72.000000
 11
51.000000
 21
72.000000
  0
LINE
  8
0
 10
40.000000
 20
8.000000
 11
51.000000
 21
8.000000
  0
LINE
  8
0
 10
-21.000000
 20
8.200001
 11
40.000000
 21
8.200001
  0
LINE
  8
0
 10
-21.000000
 20
71.800003
 11
40.000000
 21
71.800003
  0
LINE
  8
0
 10
-21.000000
 20
38.500000
 11
40.000000
 21
38.500000
  0
LINE
  8
0
 10
-21.000000
 20
41.500000
 11
40.000000
 21
41.500000
  0
LINE
  8
0
 10
-21.000000
 20
43.375000
 11
40.000000
 21
43.375000
  0
LINE
  8
0
 10
-21.000000
 20
36.625000
 11
40.000000
 21
36.625000
  0
LINE
  8
0
 10
-21.000000
 20
32.375000
 11
40.000000
 21
32.375000
  0
LINE
  8
0
 10
-21.000000
 20
47.625000
 11
40.000000
 21
47.625000
  0
LINE
  8
0
 10
20.250000
 20
41.250000
 11
21.000000
 21
41.250000
  0
LINE
  8
0
 10
22.000000
 20
41.250000
 11
22.750000
 21
41.250000
  0
LINE
  8
0
 10
20.250000
 20
38.750000
 11
21.000000
 21
38.750000
  0
LINE
  8
0
 10
22.000000
 20
38.750000
 11
22.750000
 21
38.750000
  0
LINE
  8
0
 10
-48.000000
 20
46.000000
 11
-48.000000
 21
34.000000
  0
LINE
  8
0
 10
-49.464100
 20
40.000000
 11
-48.535904
 21
40.000000
  0
LINE
  8
0
 10
48.250000
 20
47.250000
 11
51.000000
 21
47.250000
  0
LINE
  8
0
 10
48.250000
 20
43.750000
 11
51.000000
 21
43.750000
  0
LINE
  8
0
 10
48.250000
 20
36.250000
 11
51.000000
 21
36.250000
  0
LINE
  8
0
 10
48.250000
 20
32.750000
 11
51.000000
 21
32.750000
  0
LINE
  8
0
 10
-52.000000
 20
46.000000
 11
-48.000000
 21
46.000000
  0
LINE
  8
0
 10
-52.000000
 20
34.000000
 11
-48.000000
 21
34.000000
  0
LINE
  8
0
 10
-51.464100
 20
40.000000
 11
-48.535904
 21
40.000000
  0
LINE
  8
0
 10
-48.000000
 20
37.500000
 11
-46.000000
 21
37.500000
  0
LINE
  8
0
 10
-48.000000
 20
42.499996
 11
-46.000000
 21
42.499996
  0
LINE
  8
0
  6
CENTER
 62
     2
 10
44.634270
 20
45.500000
 11
53.566399
 21
45.500000
  0
LINE
  8
0
  6
CENTER
 62
     2
 10
44.634270
 20
34.500000
 11
54.737213
 21
34.500000
  0
LINE
  8
0
 62
     2
 10
-48.000004
 20
42.000008
 11
-47.133984
 21
42.500008
  0
LINE
  8
0
 62
     2
 10
-47.999992
 20
38.000000
 11
-47.133972
 21
37.500000
  0
LINE
  8
0
 62
     4
 10
-21.000000
 20
90.800003
 11
40.000000
 21
90.800003
  0
LINE
  8
0
 62
     4
 10
40.000000
 20
91.000000
 11
51.000000
 21
91.000000
  0
LINE
  8
0
 62
     4
 10
-21.000000
 20
91.000000
 11
-21.000000
 21
72.000000
  0
LINE
  8
0
 62
     4
 10
40.000000
 20
91.000000
 11
40.000000
 21
72.000000
  0
LINE
  8
0
 62
     4
 10
51.000000
 20
91.000000
 11
51.000000
 21
72.000000
  0
LINE
  8
0
  6
CENTER
 62
     1
 10
-37.388359
 20
79.500000
 11
55.354897
 21
79.500000
  0
LINE
  8
0
 62
     4
 10
52.000000
 20
84.500008
 11
52.000000
 21
74.500000
  0
LINE
  8
0
 62
     4
 10
51.000015
 20
73.500008
 11
52.000015
 21
74.500008
  0
LINE
  8
0
 62
     4
 10
51.000057
 20
85.500038
 11
52.000053
 21
84.500046
  0
LINE
  8
0
 62
     1
 10
51.000000
 20
84.500008
 11
52.000000
 21
84.500008
  0
LINE
  8
0
 62
     1
 10
51.000000
 20
74.500000
 11
52.000000
 21
74.500000
  0
LINE
  8
0
 10
-25.000000
 20
50.000000
 11
51.000000
 21
50.000000
  0
LINE
  8
0
  6
CENTER
 62
     2
 10
-40.500000
 20
55.503841
 11
-40.500000
 21
43.754215
  0
LINE
  8
0
  6
CENTER
 62
     2
 10
-56.000000
 20
58.954128
 11
-56.000000
 21
53.079315
  0
LINE
  8
0
  6
CENTER
 62
     2
 10
48.250000
 20
48.164875
 11
48.250000
 21
31.591396
  0
LINE
  8
0
 10
-46.000000
 20
72.000000
 11
-46.000000
 21
8.000000
  0
LINE
  8
0
 10
-21.000000
 20
72.000000
 11
-21.000000
 21
8.000000
  0
LINE
  8
0
 10
40.000000
 20
72.000000
 11
40.000000
 21
8.000000
  0
LINE
  8
0
 10
51.000000
 20
72.000000
 11
51.000000
 21
8.000000
  0
LINE
  8
0
 62
     4
 10
-21.000000
 20
91.000000
 11
-32.000000
 21
91.000000
  0
LINE
  8
0
 62
     4
 10
-32.000000
 20
91.000000
 11
-32.000000
 21
72.000000
  0
LINE
  8
0
 62
     1
 10
-32.000000
 20
74.500000
 11
-33.000000
 21
74.500000
  0
LINE
  8
0
 62
     4
 10
-33.000000
 20
84.500008
 11
-33.000000
 21
74.500000
  0
LINE
  8
0
 62
     4
 10
-32.000004
 20
73.500000
 11
-33.000004
 21
74.500000
  0
LINE
  8
0
 62
     4
 10
-32.000046
 20
85.500038
 11
-33.000038
 21
84.500046
  0
LINE
  8
0
 62
     1
 10
-32.000000
 20
84.500008
 11
-33.000000
 21
84.500008
  0
LINE
  8
0
  6
PHANTOM
 62
     3
 10
9.500000
 20
108.505737
 11
9.500000
 21
-33.036819
  0
LINE
  8
0
  6
CENTER
 62
     2
 10
-189.054810
 20
40.000000
 11
-157.645813
 21
40.000000
  0
LINE
  8
0
 10
-187.000000
 20
8.000000
 11
-162.000000
 21
8.000000
  0
LINE
  8
0
 10
-187.000000
 20
72.000000
 11
-162.000000
 21
72.000000
  0
LINE
  8
0
 10
-187.000000
 20
72.000000
 11
-187.000000
 21
8.000000
  0
LINE
  8
0
  6
CENTER
 62
     2
 10
-176.000000
 20
72.000000
 11
-176.000000
 21
5.006157
  0
LINE
  8
0
 10
-166.000000
 20
71.000000
 11
-166.000000
 21
9.000000
  0
LINE
  8
0
 10
-186.000000
 20
71.000000
 11
-186.000000
 21
9.000000
  0
LINE
  8
0
 10
-186.000000
 20
9.000000
 11
-166.000000
 21
9.000000
  0
LINE
  8
0
 10
-186.000000
 20
71.000000
 11
-166.000000
 21
71.000000
  0
LINE
  8
0
 10
-162.000000
 20
72.000000
 11
-162.000000
 21
8.000000
  0
LINE
  8
0
 10
-172.524979
 20
46.018871
 11
-169.049988
 21
39.999992
  0
LINE
  8
0
 10
-169.050018
 20
40.000008
 11
-172.525024
 21
33.981136
  0
LINE
  8
0
 10
-172.525009
 20
33.981037
 11
-179.475006
 21
33.981037
  0
LINE
  8
0
 10
-179.475006
 20
33.981129
 11
-182.949997
 21
40.000000
  0
LINE
  8
0
 10
-182.950027
 20
40.000004
 11
-179.475052
 21
46.018879
  0
LINE
  8
0
 10
-179.475006
 20
46.018875
 11
-172.524994
 21
46.018875
  0
LINE
  8
0
  6
CENTER
 62
     2
 10
-179.611389
 20
27.500000
 11
-172.744766
 21
27.500000
  0
LINE
  8
0
  6
CENTER
 62
     2
 10
-179.262238
 20
52.500000
 11
-172.628372
 21
52.500000
  0
LINE
  8
0
  6
CENTER
 62
     2
 10
-181.124374
 20
18.500000
 11
-171.115387
 21
18.500000
  0
LINE
  8
0
  6
CENTER
 62
     2
 10
-181.240753
 20
61.500000
 11
-171.231781
 21
61.500000
  0
LINE
  8
0
 10
-175.100052
 20
63.058834
 11
-174.200058
 21
61.499996
  0
LINE
  8
0
 10
-174.199997
 20
61.500034
 11
-175.100006
 21
59.941185
  0
LINE
  8
0
 10
-175.100006
 20
59.941154
 11
-176.899994
 21
59.941154
  0
LINE
  8
0
 10
-176.899994
 20
59.941143
 11
-177.800003
 21
61.500004
  0
LINE
  8
0
 10
-177.800034
 20
61.500004
 11
-176.900024
 21
63.058846
  0
LINE
  8
0
 10
-176.899994
 20
63.058846
 11
-175.100006
 21
63.058846
  0
LINE
  8
0
 10
-175.099945
 20
20.058870
 11
-174.199936
 21
18.500025
  0
LINE
  8
0
 10
-174.200150
 20
18.500090
 11
-175.100159
 21
16.941236
  0
LINE
  8
0
 10
-175.100006
 20
16.941154
 11
-176.899994
 21
16.941154
  0
LINE
  8
0
 10
-176.900024
 20
16.941149
 11
-177.800034
 21
18.499992
  0
LINE
  8
0
 10
-177.800003
 20
18.499989
 11
-176.899994
 21
20.058842
  0
LINE
  8
0
 10
-176.899994
 20
20.058846
 11
-175.100006
 21
20.058846
  0
LINE
  8
0
 10
-162.000015
 20
52.000008
 11
-160.000000
 21
50.000000
  0
LINE
  8
0
 10
-160.000000
 20
50.000000
 11
-160.000000
 21
30.000000
  0
LINE
  8
0
 10
-161.999969
 20
27.999969
 11
-159.999969
 21
29.999962
  0
LINE
  8
0
 62
     4
 10
-187.000000
 20
91.000000
 11
-162.000000
 21
91.000000
  0
LINE
  8
0
 62
     4
 10
-187.000000
 20
72.000000
 11
-187.000000
 21
91.000000
  0
LINE
  8
0
 62
     4
 10
-162.000000
 20
91.000000
 11
-162.000000
 21
72.000000
  0
LINE
  8
0
  6
CENTER
 62
     1
 10
-181.158600
 20
79.500000
 11
-167.270203
 21
79.500000
  0
LINE
  8
0
  6
CENTER
 62
     1
 10
-174.500000
 20
86.581528
 11
-174.500000
 21
72.506500
  0
LINE
  8
0
 10
184.399994
 20
28.941151
 11
182.600006
 21
28.941151
  0
LINE
  8
0
 10
182.600037
 20
28.941175
 11
181.700027
 21
30.500019
  0
LINE
  8
0
 10
172.300049
 20
49.499996
 11
171.400024
 21
47.941135
  0
LINE
  8
0
  6
CENTER
 62
     2
 10
178.310669
 20
48.499996
 11
185.430862
 21
48.499996
  0
LINE
  8
0
  6
CENTER
 62
     2
 10
172.000000
 20
34.660763
 11
172.000000
 21
28.040188
  0
LINE
  8
0
 10
171.399994
 20
47.941151
 11
169.600006
 21
47.941151
  0
LINE
  8
0
  6
CENTER
 62
     2
 10
183.500000
 20
36.209202
 11
183.500000
 21
25.646381
  0
LINE
  8
0
  6
CENTER
 62
     2
 10
168.432892
 20
31.499996
 11
175.674225
 21
31.499996
  0
LINE
  8
0
  6
CENTER
 62
     2
 10
178.500000
 20
30.499996
 11
188.440826
 21
30.499996
  0
LINE
  8
0
 10
163.000000
 20
30.099995
 11
163.000000
 21
7.999996
  0
LINE
  8
0
 10
162.999985
 20
51.900017
 11
161.000000
 21
49.900024
  0
LINE
  8
0
 10
161.000000
 20
49.899998
 11
161.000000
 21
30.099995
  0
LINE
  8
0
 10
160.999969
 20
30.099977
 11
162.999969
 21
28.099974
  0
LINE
  8
0
 10
163.000000
 20
49.899998
 11
164.100006
 21
49.899998
  0
LINE
  8
0
 10
163.000000
 20
30.099995
 11
164.100006
 21
30.099995
  0
LINE
  8
0
 10
164.100006
 20
29.099995
 11
165.400009
 21
29.099995
  0
LINE
  8
0
 10
184.399994
 20
32.058842
 11
182.600006
 21
32.058842
  0
LINE
  8
0
 10
169.600006
 20
51.058842
 11
171.399994
 21
51.058842
  0
LINE
  8
0
 10
164.100006
 20
50.899998
 11
165.400009
 21
50.899998
  0
LINE
  8
0
 10
164.100006
 20
50.899998
 11
164.100006
 21
49.899998
  0
LINE
  8
0
 10
184.399963
 20
32.058834
 11
185.299973
 21
30.499981
  0
LINE
  8
0
 10
185.300217
 20
30.499886
 11
184.400208
 21
28.941042
  0
LINE
  8
0
 10
164.100006
 20
30.099995
 11
164.100006
 21
29.099995
  0
LINE
  8
0
 10
165.400009
 20
29.099995
 11
165.400009
 21
50.899998
  0
LINE
  8
0
  6
CENTER
 62
     2
 10
170.000000
 20
59.981556
 11
170.000000
 21
54.012989
  0
LINE
  8
0
  6
CENTER
 62
     2
 10
160.136246
 20
34.599995
 11
166.535522
 21
34.599995
  0
LINE
  8
0
 10
181.699921
 20
30.499996
 11
181.699936
 21
30.496658
  0
LINE
  8
0
 10
182.600037
 20
32.058796
 11
181.700027
 21
30.499954
  0
LINE
  8
0
  6
CENTER
 62
     2
 10
159.969177
 20
45.599995
 11
166.535522
 21
45.599995
  0
LINE
  8
0
 10
161.000000
 20
47.349995
 11
165.400009
 21
47.349995
  0
LINE
  8
0
 10
161.000000
 20
43.849995
 11
165.400009
 21
43.849995
  0
LINE
  8
0
 10
161.000000
 20
36.349995
 11
165.400009
 21
36.349995
  0
LINE
  8
0
 10
161.000000
 20
32.849995
 11
165.400009
 21
32.849995
  0
LINE
  8
0
 62
     4
 10
163.000000
 20
91.000000
 11
188.000000
 21
91.000000
  0
LINE
  8
0
 62
     4
 10
163.000000
 20
72.000000
 11
163.000000
 21
91.000000
  0
LINE
  8
0
 62
     4
 10
188.000000
 20
91.000000
 11
188.000000
 21
72.000000
  0
LINE
  8
0
 10
169.600021
 20
47.941162
 11
168.700012
 21
49.500008
  0
LINE
  8
0
  6
CENTER
 62
     1
 10
168.841400
 20
79.500000
 11
182.729797
 21
79.500000
  0
LINE
  8
0
  6
CENTER
 62
     1
 10
175.500000
 20
86.581528
 11
175.500000
 21
72.506500
  0
LINE
  8
0
 10
168.700043
 20
49.499989
 11
169.600052
 21
51.058834
  0
LINE
  8
0
 10
188.000000
 20
72.000000
 11
188.000000
 21
7.999996
  0
LINE
  8
0
 10
163.000000
 20
72.000000
 11
163.000000
 21
49.899998
  0
LINE
  8
0
 10
163.000000
 20
72.000000
 11
188.000000
 21
72.000000
  0
LINE
  8
0
 10
163.000000
 20
7.999996
 11
188.000000
 21
7.999996
  0
LINE
  8
0
  6
CENTER
 62
     2
 10
177.000000
 20
74.443985
 11
177.000000
 21
4.301563
  0
LINE
  8
0
  6
CENTER
 62
     2
 10
184.000000
 20
59.552586
 11
184.000000
 21
54.012989
  0
LINE
  8
0
  6
CENTER
 62
     2
 10
180.885605
 20
56.999996
 11
186.411453
 21
56.999996
  0
LINE
  8
0
  6
CENTER
 62
     2
 10
166.980988
 20
56.999996
 11
173.013672
 21
56.999996
  0
LINE
  8
0
  6
CENTER
 62
     2
 10
170.000000
 20
19.950371
 11
170.000000
 21
25.768318
  0
LINE
  8
0
  6
CENTER
 62
     2
 10
166.686707
 20
22.999996
 11
173.307953
 21
22.999996
  0
LINE
  8
0
  6
CENTER
 62
     2
 10
184.000000
 20
19.803232
 11
184.000000
 21
26.056629
  0
LINE
  8
0
  6
CENTER
 62
     2
 10
180.812027
 20
22.999996
 11
186.862091
 21
22.999996
  0
LINE
  8
0
  6
CENTER
 62
     2
 10
165.579086
 20
49.499996
 11
175.500000
 21
49.499996
  0
LINE
  8
0
  6
CENTER
 62
     2
 10
182.000000
 20
52.083328
 11
182.000000
 21
44.963955
  0
LINE
  8
0
  6
CENTER
 62
     2
 10
170.500000
 20
54.941734
 11
170.500000
 21
44.228260
  0
LINE
  8
0
 10
171.400055
 20
51.058914
 11
172.300064
 21
49.500072
  0
LINE
  8
0
  6
CENTER
 62
     2
 10
159.325516
 20
39.999996
 11
190.733139
 21
39.999996
  0
LINE
  8
0
  6
CENTER
 62
     2
 10
163.649994
 20
48.289085
 11
163.649994
 21
31.865780
  0
LINE
  8
0
 10
-60.000000
 20
-75.000000
 11
-60.000000
 21
-95.000000
  0
LINE
  8
0
  6
CENTER
 62
     2
 10
-63.905674
 20
-85.000000
 11
54.255295
 21
-85.000000
  0
LINE
  8
0
 10
-46.000000
 20
-96.000000
 11
-21.000000
 21
-96.000000
  0
LINE
  8
0
 10
40.000000
 20
-96.000000
 11
51.000000
 21
-96.000000
  0
LINE
  8
0
 10
-21.000000
 20
-95.800003
 11
40.000000
 21
-95.800003
  0
LINE
  8
0
 10
-46.000000
 20
-71.000000
 11
-21.000000
 21
-71.000000
  0
LINE
  8
0
 10
-25.000000
 20
-69.000000
 11
-21.000000
 21
-69.000000
  0
LINE
  8
0
 10
-26.999998
 20
-71.000000
 11
-24.999996
 21
-69.000000
  0
LINE
  8
0
 10
-46.000000
 20
-71.000000
 11
-46.000000
 21
-96.000000
  0
LINE
  8
0
 10
-21.000000
 20
-69.000000
 11
-21.000000
 21
-96.000000
  0
LINE
  8
0
 10
40.000000
 20
-69.000000
 11
40.000000
 21
-96.000000
  0
LINE
  8
0
 10
51.000000
 20
-69.000000
 11
51.000000
 21
-96.000000
  0
LINE
  8
0
 10
-60.000000
 20
-95.000000
 11
-52.000000
 21
-95.000000
  0
LINE
  8
0
 10
-60.000000
 20
-75.000000
 11
-52.000000
 21
-75.000000
  0
LINE
  8
0
 10
-52.000000
 20
-75.000000
 11
-52.000000
 21
-95.000000
  0
LINE
  8
0
  6
CENTER
 62
     2
 10
42.054306
 20
-92.000000
 11
48.730377
 21
-92.000000
  0
LINE
  8
0
  6
CENTER
 62
     2
 10
42.162369
 20
-75.000000
 11
48.730377
 21
-75.000000
  0
LINE
  8
0
  6
CENTER
 62
     2
 10
45.500000
 20
-72.500000
 11
45.500000
 21
-78.455963
  0
LINE
  8
0
  6
CENTER
 62
     2
 10
-26.500000
 20
-72.500000
 11
-26.500000
 21
-78.171158
  0
LINE
  8
0
  6
CENTER
 62
     2
 10
-40.500000
 20
-72.245850
 11
-40.500000
 21
-77.855705
  0
LINE
  8
0
  6
CENTER
 62
     2
 10
-29.798796
 20
-75.000000
 11
-23.358910
 21
-75.000000
  0
LINE
  8
0
  6
CENTER
 62
     2
 10
-40.500000
 20
-88.956024
 11
-40.500000
 21
-95.240738
  0
LINE
  8
0
  6
CENTER
 62
     2
 10
-26.500000
 20
-88.878448
 11
-26.500000
 21
-95.240738
  0
LINE
  8
0
  6
CENTER
 62
     2
 10
-29.953974
 20
-92.000000
 11
-23.126141
 21
-92.000000
  0
LINE
  8
0
  6
CENTER
 62
     2
 10
45.500000
 20
-88.614349
 11
45.500000
 21
-95.314545
  0
LINE
  8
0
  6
CENTER
 62
     2
 10
-56.000000
 20
-76.000000
 11
-56.000000
 21
-81.598267
  0
LINE
  8
0
  6
CENTER
 62
     2
 10
-56.000000
 20
-88.383667
 11
-56.000000
 21
-93.648193
  0
LINE
  8
0
 10
-51.530056
 20
-91.949997
 11
-48.469944
 21
-91.949997
  0
LINE
  8
0
 10
-51.530056
 20
-78.050003
 11
-48.469940
 21
-78.050003
  0
LINE
  8
0
 10
-48.000000
 20
-79.803848
 11
-48.000000
 21
-81.000000
  0
LINE
  8
0
 10
-48.000011
 20
-79.803833
 11
-48.469955
 21
-78.049995
  0
LINE
  8
0
 10
-48.000000
 20
-90.196152
 11
-48.469940
 21
-91.949989
  0
LINE
  8
0
 10
-48.000000
 20
-90.196152
 11
-48.000000
 21
-89.000000
  0
LINE
  8
0
 10
-52.000004
 20
-79.803841
 11
-51.530064
 21
-78.050018
  0
LINE
  8
0
 10
-51.999992
 20
-90.196152
 11
-51.530052
 21
-91.950005
  0
LINE
  8
0
 10
-52.000000
 20
-89.000000
 11
-46.000000
 21
-89.000000
  0
LINE
  8
0
 10
-52.000000
 20
-81.000000
 11
-46.000000
 21
-81.000000
  0
LINE
  8
0
 10
-21.000000
 20
-71.199997
 11
40.000000
 21
-71.199997
  0
LINE
  8
0
 10
-21.000000
 20
-69.199997
 11
40.000000
 21
-69.199997
  0
LINE
  8
0
 10
40.000000
 20
-69.000000
 11
51.000000
 21
-69.000000
  0
LINE
  8
0
 10
40.000000
 20
-71.000000
 11
51.000000
 21
-71.000000
  0
LINE
  8
0
  6
CENTER
 62
     2
 10
-58.952267
 20
-91.000000
 11
-53.258251
 21
-91.000000
  0
LINE
  8
0
  6
CENTER
 62
     2
 10
-58.952267
 20
-79.000000
 11
-53.258251
 21
-79.000000
  0
LINE
  8
0
  6
CENTER
 62
     2
 10
-43.593750
 20
-92.000000
 11
-37.409325
 21
-92.000000
  0
LINE
  8
0
  6
CENTER
 62
     2
 10
-43.236961
 20
-75.000000
 11
-37.290398
 21
-75.000000
  0
LINE
  8
0
 62
     4
 10
52.000000
 20
-78.500000
 11
52.000000
 21
-88.500000
  0
LINE
  8
0
 62
     4
 10
51.000004
 20
-77.499992
 11
52.000015
 21
-78.500000
  0
LINE
  8
0
 62
     4
 10
51.999969
 20
-88.499985
 11
50.999969
 21
-89.499992
  0
LINE
  8
0
 62
     1
 10
51.000000
 20
-88.500000
 11
52.000000
 21
-88.500000
  0
LINE
  8
0
 62
     1
 10
51.000000
 20
-78.500000
 11
52.000000
 21
-78.500000
  0
LINE
  8
0
  6
CENTER
 62
     1
 10
48.366730
 20
-83.500000
 11
54.091721
 21
-83.500000
  0
LINE
  8
0
  6
PHANTOM
 62
     3
 10
9.500000
 20
-33.040192
 11
9.500000
 21
-107.521561
  0
LINE
  8
0
 10
-281.250000
 20
195.500000
 11
282.099976
 21
195.500000
  0
LINE
  8
0
 10
-281.250000
 20
195.500000
 11
-281.250000
 21
-195.000000
  0
LINE
  8
0
 10
282.099976
 20
195.500000
 11
282.099976
 21
-195.000000
  0
LINE
  8
0
 10
-281.250000
 20
-195.000000
 11
282.099976
 21
-195.000000
  0
LINE
  8
0
 10
162.099976
 20
-175.000000
 11
162.099976
 21
-195.000000
  0
LINE
  8
0
 10
162.099976
 20
-175.000000
 11
282.099976
 21
-175.000000
  0
LINE
  8
0
 10
162.099976
 20
175.500000
 11
282.099976
 21
175.500000
  0
LINE
  8
0
 10
-281.250000
 20
175.500000
 11
-161.250000
 21
175.500000
  0
LINE
  8
0
 10
162.099976
 20
195.500000
 11
162.099976
 21
175.500000
  0
LINE
  8
0
 10
-161.250000
 20
195.500000
 11
-161.250000
 21
175.500000
  0
LINE
  8
0
 10
-271.250000
 20
-185.000000
 11
-111.250000
 21
-185.000000
  0
LINE
  8
0
 10
-271.250000
 20
-177.000000
 11
-111.250000
 21
-177.000000
  0
LINE
  8
0
 10
-271.250000
 20
-169.000000
 11
-111.250000
 21
-169.000000
  0
LINE
  8
0
 10
-271.250000
 20
-153.000000
 11
-271.250000
 21
-185.000000
  0
LINE
  8
0
 10
-221.250000
 20
-153.000000
 11
-221.250000
 21
-185.000000
  0
LINE
  8
0
 10
-199.250000
 20
-153.000000
 11
-199.250000
 21
-185.000000
  0
LINE
  8
0
 10
-177.250000
 20
-153.000000
 11
-177.250000
 21
-185.000000
  0
LINE
  8
0
 10
-155.250000
 20
-153.000000
 11
-155.250000
 21
-185.000000
  0
LINE
  8
0
 10
-133.250000
 20
-153.000000
 11
-133.250000
 21
-185.000000
  0
LINE
  8
0
 10
-111.250000
 20
-153.000000
 11
-111.250000
 21
-185.000000
  0
LINE
  8
0
 10
-271.250000
 20
-153.000000
 11
-111.250000
 21
-153.000000
  0
LINE
  8
0
 10
-271.250000
 20
-153.000000
 11
-221.250000
 21
-169.000000
  0
CIRCLE
  8
0
 10
-31.500000
 20
30.500000
 40
4.000000
  0
CIRCLE
  8
0
 10
-31.500000
 20
49.500000
 40
4.000000
  0
CIRCLE
  8
0
 10
-56.000000
 20
24.000000
 40
1.650000
  0
CIRCLE
  8
0
 10
-40.500000
 20
30.500000
 40
4.000000
  0
CIRCLE
  8
0
 10
-56.000000
 20
56.000000
 40
1.650000
  0
ARC
  8
0
 10
-56.665039
 20
37.000000
 40
8.665039
 50
339.743774
 51
20.256170
  0
ARC
  8
0
 10
-43.334961
 20
37.000000
 40
8.665037
 50
159.743744
 51
200.256134
  0
ARC
  8
0
 10
48.250000
 20
45.500000
 40
1.749998
 50
85.733139
 51
270.000000
  0
ARC
  8
0
 10
48.250000
 20
34.500000
 40
1.749999
 50
88.565804
 51
271.359222
  0
ARC
  8
0
 10
-56.665039
 20
43.000000
 40
8.665039
 50
339.743774
 51
20.256170
  0
CIRCLE
  8
0
 62
     2
 10
-56.000000
 20
56.000000
 40
2.000000
  0
CIRCLE
  8
0
 62
     2
 10
-56.000000
 20
24.000000
 40
2.000000
  0
CIRCLE
  8
0
 10
-40.500000
 20
49.500000
 40
2.250000
  0
CIRCLE
  8
0
 10
-31.500000
 20
49.500000
 40
2.250000
  0
CIRCLE
  8
0
 10
-40.500000
 20
30.500000
 40
2.250000
  0
CIRCLE
  8
0
 10
-31.500000
 20
30.500000
 40
2.250000
  0
ARC
  8
0
 10
20.250000
 20
40.000000
 40
1.249999
 50
87.337433
 51
272.663452
  0
ARC
  8
0
 10
21.500000
 20
41.250000
 40
0.500000
 50
180.000000
 51
0.000000
  0
ARC
  8
0
 10
21.500000
 20
38.750000
 40
0.500000
 50
0.000000
 51
180.000000
  0
ARC
  8
0
 10
22.750000
 20
40.000000
 40
1.250000
 50
270.000000
 51
90.000000
  0
ARC
  8
0
 10
-43.334961
 20
43.000000
 40
8.665037
 50
159.743805
 51
200.256195
  0
CIRCLE
  8
0
 10
-40.500000
 20
49.500000
 40
4.000000
  0
CIRCLE
  8
0
 10
-176.000000
 20
52.500000
 40
2.100000
  0
CIRCLE
  8
0
 62
     2
 10
-176.000000
 20
40.000000
 40
2.100000
  0
CIRCLE
  8
0
 10
-176.000000
 20
27.500000
 40
2.100000
  0
CIRCLE
  8
0
 62
     1
 10
-174.500000
 20
79.500000
 40
5.000000
  0
CIRCLE
  8
0
 10
-176.000000
 20
40.000000
 40
9.000000
  0
CIRCLE
  8
0
 62
     2
 10
-176.000000
 20
52.500000
 40
2.500000
  0
CIRCLE
  8
0
 62
     2
 10
-176.000000
 20
27.500000
 40
2.500000
  0
CIRCLE
  8
0
 10
-176.000000
 20
61.500000
 40
4.000000
  0
CIRCLE
  8
0
 10
-176.000000
 20
18.500000
 40
4.000000
  0
CIRCLE
  8
0
 10
-176.000000
 20
61.500000
 40
3.500000
  0
CIRCLE
  8
0
 10
-176.000000
 20
18.500000
 40
3.500000
  0
CIRCLE
  8
0
 10
-176.000000
 20
40.000000
 40
2.500000
  0
CIRCLE
  8
0
 62
     4
 10
-174.500000
 20
79.500000
 40
6.000000
  0
CIRCLE
  8
0
 10
170.000000
 20
56.999996
 40
1.650000
  0
CIRCLE
  8
0
 10
184.000000
 20
56.999996
 40
1.650000
  0
CIRCLE
  8
0
 10
182.000000
 20
48.499996
 40
2.100000
  0
CIRCLE
  8
0
 10
170.000000
 20
22.999996
 40
1.650000
  0
CIRCLE
  8
0
 10
184.000000
 20
22.999996
 40
1.650000
  0
CIRCLE
  8
0
 62
     2
 10
170.000000
 20
56.999996
 40
2.000000
  0
CIRCLE
  8
0
 62
     2
 10
184.000000
 20
56.999996
 40
2.000000
  0
CIRCLE
  8
0
 62
     2
 10
170.000000
 20
22.999996
 40
2.000000
  0
CIRCLE
  8
0
 62
     2
 10
184.000000
 20
22.999996
 40
2.000000
  0
CIRCLE
  8
0
 62
     2
 10
182.000000
 20
48.499996
 40
2.500000
  0
CIRCLE
  8
0
 62
     2
 10
172.000000
 20
31.499996
 40
2.500000
  0
CIRCLE
  8
0
 10
170.500000
 20
49.499996
 40
4.000000
  0
CIRCLE
  8
0
 10
183.500000
 20
30.499996
 40
4.000000
  0
CIRCLE
  8
0
 10
183.500000
 20
30.499996
 40
3.500000
  0
CIRCLE
  8
0
 10
170.500000
 20
49.499996
 40
3.500000
  0
ARC
  8
0
 10
163.649994
 20
45.599995
 40
1.750000
 50
90.000000
 51
270.000000
  0
ARC
  8
0
 10
163.649994
 20
34.599995
 40
1.750000
 50
90.000000
 51
270.000000
  0
CIRCLE
  8
0
 62
     4
 10
175.500000
 20
79.500000
 40
6.000000
  0
CIRCLE
  8
0
 62
     1
 10
175.500000
 20
79.500000
 40
5.000000
  0
CIRCLE
  8
0
 10
172.000000
 20
31.499996
 40
2.100000
  0
CIRCLE
  8
0
 10
-40.500000
 20
-92.000000
 40
1.650000
  0
CIRCLE
  8
0
 10
-26.500000
 20
-92.000000
 40
1.650000
  0
CIRCLE
  8
0
 10
45.500000
 20
-92.000000
 40
1.650000
  0
CIRCLE
  8
0
 10
-40.500000
 20
-75.000000
 40
1.650000
  0
CIRCLE
  8
0
 10
-56.000000
 20
-91.000000
 40
1.650000
  0
CIRCLE
  8
0
 10
-26.500000
 20
-75.000000
 40
1.650000
  0
ARC
  8
0
 10
-48.532963
 20
-79.792953
 40
3.467056
 50
180.000000
 51
200.374039
  0
CIRCLE
  8
0
 62
     2
 10
-56.000000
 20
-79.000000
 40
2.000000
  0
ARC
  8
0
 10
-48.532963
 20
-90.207047
 40
3.467056
 50
159.625961
 51
180.000000
  0
CIRCLE
  8
0
 62
     2
 10
-56.000000
 20
-91.000000
 40
2.000000
  0
ARC
  8
0
 10
-51.467037
 20
-79.792953
 40
3.467055
 50
339.625824
 51
0.000000
  0
ARC
  8
0
 10
-51.467037
 20
-90.207047
 40
3.467056
 50
0.000000
 51
20.374043
  0
CIRCLE
  8
0
 62
     2
 10
45.500000
 20
-75.000000
 40
2.000000
  0
CIRCLE
  8
0
 62
     2
 10
45.500000
 20
-92.000000
 40
2.000000
  0
CIRCLE
  8
0
 62
     2
 10
-26.500000
 20
-75.000000
 40
2.000000
  0
CIRCLE
  8
0
 62
     2
 10
-40.500000
 20
-75.000000
 40
2.000000
  0
CIRCLE
  8
0
 62
     2
 10
-40.500000
 20
-92.000000
 40
2.000000
  0
CIRCLE
  8
0
 62
     2
 10
-26.500000
 20
-92.000000
 40
2.000000
  0
CIRCLE
  8
0
 10
45.500000
 20
-75.000000
 40
1.650000
  0
CIRCLE
  8
0
 10
-56.000000
 20
-79.000000
 40
1.650000
  0
TEXT
  8
0
 10
196.250259
 20
180.830002
 40
6.300000
  1
Ver. 2.0
 50
0.000000
 41
1.052632
 51
0.000000
  7
STANDARD
  0
TEXT
  8
0
 10
167.564667
 20
-192.100006
 40
9.000000
  1
KOGANEI CORP.
 50
0.000000
 41
1.052632
 51
0.000000
  7
STANDARD
  0
TEXT
  8
0
 10
-262.849731
 20
180.830002
 40
6.300000
  1
AXIS CYLINDER
 50
0.000000
 41
1.052632
 51
0.000000
  7
STANDARD
  0
TEXT
  8
0
 10
-232.550003
 20
145.830002
 40
6.300000
  1
XDAA16*ST(25)-SSL
 50
0.000000
 41
1.052632
 51
0.000000
  7
STANDARD
  0
TEXT
  8
0
 10
-270.049988
 20
155.830002
 40
6.300000
  1
MODEL:XDA16*ST(25)-SSL
 50
0.000000
 41
1.052632
 51
0.000000
  7
STANDARD
  0
TEXT
  8
0
 10
-215.142853
 20
-164.050003
 40
4.500000
  1
25
 50
0.000000
 41
1.052632
 51
0.000000
  7
STANDARD
  0
TEXT
  8
0
 10
-193.142853
 20
-164.050003
 40
4.500000
  1
50
 50
0.000000
 41
1.052632
 51
0.000000
  7
STANDARD
  0
TEXT
  8
0
 10
-171.142853
 20
-164.050003
 40
4.500000
  1
75
 50
0.000000
 41
1.052632
 51
0.000000
  7
STANDARD
  0
TEXT
  8
0
 10
-151.392853
 20
-164.050003
 40
4.500000
  1
100
 50
0.000000
 41
1.052632
 51
0.000000
  7
STANDARD
  0
TEXT
  8
0
 10
-129.392853
 20
-164.050003
 40
4.500000
  1
125
 50
0.000000
 41
1.052632
 51
0.000000
  7
STANDARD
  0
TEXT
  8
0
 10
-212.892853
 20
-176.050003
 40
4.500000
  1
0
 50
0.000000
 41
1.052632
 51
0.000000
  7
STANDARD
  0
TEXT
  8
0
 10
-212.892853
 20
-184.050003
 40
4.500000
  1
0
 50
0.000000
 41
1.052632
 51
0.000000
  7
STANDARD
  0
TEXT
  8
0
 10
-193.142853
 20
-176.050003
 40
4.500000
  1
25
 50
0.000000
 41
1.052632
 51
0.000000
  7
STANDARD
  0
TEXT
  8
0
 10
-193.142853
 20
-184.050003
 40
4.500000
  1
25
 50
0.000000
 41
1.052632
 51
0.000000
  7
STANDARD
  0
TEXT
  8
0
 10
-171.142853
 20
-176.050003
 40
4.500000
  1
50
 50
0.000000
 41
1.052632
 51
0.000000
  7
STANDARD
  0
TEXT
  8
0
 10
-171.142853
 20
-184.050003
 40
4.500000
  1
50
 50
0.000000
 41
1.052632
 51
0.000000
  7
STANDARD
  0
TEXT
  8
0
 10
-149.142853
 20
-176.050003
 40
4.500000
  1
75
 50
0.000000
 41
1.052632
 51
0.000000
  7
STANDARD
  0
TEXT
  8
0
 10
-149.142853
 20
-184.050003
 40
4.500000
  1
75
 50
0.000000
 41
1.052632
 51
0.000000
  7
STANDARD
  0
TEXT
  8
0
 10
-129.392853
 20
-176.050003
 40
4.500000
  1
100
 50
0.000000
 41
1.052632
 51
0.000000
  7
STANDARD
  0
TEXT
  8
0
 10
-129.392853
 20
-184.050003
 40
4.500000
  1
100
 50
0.000000
 41
1.052632
 51
0.000000
  7
STANDARD
  0
TEXT
  8
0
 10
-250.377258
 20
-160.050003
 40
4.500000
  1
STROKE
 50
0.000000
 41
1.052632
 51
0.000000
  7
STANDARD
  0
TEXT
  8
0
 10
-265.408447
 20
-168.050003
 40
4.500000
  1
TYPE
 50
0.000000
 41
1.052632
 51
0.000000
  7
STANDARD
  0
TEXT
  8
0
 10
-264.000000
 20
-174.699997
 40
4.500000
  1
XDA16
 50
0.000000
 41
1.052632
 51
0.000000
  7
STANDARD
  0
TEXT
  8
0
 10
-264.000000
 20
-182.699997
 40
4.500000
  1
XDAA16
 50
0.000000
 41
1.052632
 51
0.000000
  7
STANDARD
  0
TEXT
  8
0
 10
-218.642853
 20
-151.050003
 40
4.500000
  1
STRETCH LIST
 50
0.000000
 41
1.052632
 51
0.000000
  7
STANDARD
  0
TEXT
  8
0
 10
-131.642853
 20
-152.050003
 40
4.500000
  1
(mm)
 50
0.000000
 41
1.052632
 51
0.000000
  7
STANDARD
  0
TEXT
  8
0
 62
     3
 10
-28.987017
 20
118.017960
 40
6.300000
  1
STRETCH LINE
 50
0.000000
 41
1.052632
 51
0.000000
  7
STANDARD
  0
ENDSEC
  0
EOF
