  0
SECTION
  2
HEADER
  0
ENDSEC
  0
SECTION
  2
TABLES
  0
TABLE
  2
LTYPE
 70
     4
  0
LTYPE
  2
CONTINUOUS
 70
    64
  3
Solid line
 72
    65
 73
     0
 40
0.000000
  0
LTYPE
  2
DASHED
 70
    64
  3
__ __ __ __ __ __ __ __ __ __ __ __ __ __ __
 72
    65
 73
     2
 40
3.500000
 49
2.000000
 49
-1.500000
  0
LTYPE
  2
CENTER
 70
    64
  3
____ _ ____ _ ____ _ ____ _ ____ _ ____ _ ____
 72
    65
 73
     4
 40
17.500000
 49
13.000000
 49
-1.500000
 49
1.500000
 49
-1.500000
  0
LTYPE
  2
PHANTOM
 70
    64
  3
_____ _ _ _____ _ _ _____ _ _ _____ _ _ ____  
 72
    65
 73
     6
 40
15.500000
 49
8.000000
 49
-1.500000
 49
1.500000
 49
-1.500000
 49
1.500000
 49
-1.500000
  0
LTYPE
  2
DASHED1
 70
    64
  3
__ __ __ __ __ __ __ __ __ __ __ __ __ __ __
 72
    65
 73
     2
 40
1.500000
 49
1.000000
 49
-0.500000
  0
LTYPE
  2
DASHED2
 70
    64
  3
__ __ __ __ __ __ __ __ __ __ __ __ __ __ __
 72
    65
 73
     2
 40
3.500000
 49
2.500000
 49
-1.000000
  0
LTYPE
  2
DASHED3
 70
    64
  3
__ __ __ __ __ __ __ __ __ __ __ __ __ __ __
 72
    65
 73
     2
 40
6.000000
 49
4.000000
 49
-2.000000
  0
LTYPE
  2
DASHED4
 70
    64
  3
__ __ __ __ __ __ __ __ __ __ __ __ __ __ __
 72
    65
 73
     2
 40
12.000000
 49
10.000000
 49
-2.000000
  0
LTYPE
  2
DASHED5
 70
    64
  3
__ __ __ __ __ __ __ __ __ __ __ __ __ __ __
 72
    65
 73
     2
 40
17.000000
 49
15.000000
 49
-2.000000
  0
LTYPE
  2
DASHED6
 70
    64
  3
__ __ __ __ __ __ __ __ __ __ __ __ __ __ __
 72
    65
 73
     2
 40
29.000000
 49
27.000000
 49
-2.000000
  0
LTYPE
  2
PHANTOM1
 70
    64
  3
_____ _ _ _____ _ _ _____ _ _ _____ _ _ ____  
 72
    65
 73
     6
 40
31.000000
 49
25.000000
 49
-1.500000
 49
1.000000
 49
-1.000000
 49
1.000000
 49
-1.500000
  0
LTYPE
  2
PHANTOM2
 70
    64
  3
_____ _ _ _____ _ _ _____ _ _ _____ _ _ ____  
 72
    65
 73
     6
 40
36.000000
 49
27.000000
 49
-1.500000
 49
2.500000
 49
-1.000000
 49
2.500000
 49
-1.500000
  0
LTYPE
  2
PHANTOM3
 70
    64
  3
_____ _ _ _____ _ _ _____ _ _ _____ _ _ ____  
 72
    65
 73
     6
 40
78.000000
 49
64.000000
 49
-2.000000
 49
4.000000
 49
-2.000000
 49
4.000000
 49
-2.000000
  0
LTYPE
  2
CENTER1
 70
    64
  3
____ _ ____ _ ____ _ ____ _ ____ _ ____ _ ____
 72
    65
 73
     4
 40
19.000000
 49
14.000000
 49
-1.000000
 49
3.000000
 49
-1.000000
  0
LTYPE
  2
CENTER2
 70
    64
  3
____ _ ____ _ ____ _ ____ _ ____ _ ____ _ ____
 72
    65
 73
     4
 40
28.500000
 49
25.000000
 49
-1.000000
 49
1.500000
 49
-1.000000
  0
LTYPE
  2
CENTER3
 70
    64
  3
____ _ ____ _ ____ _ ____ _ ____ _ ____ _ ____
 72
    65
 73
     4
 40
31.500000
 49
27.000000
 49
-1.000000
 49
2.500000
 49
-1.000000
  0
LTYPE
  2
CENTER4
 70
    64
  3
____ _ ____ _ ____ _ ____ _ ____ _ ____ _ ____
 72
    65
 73
     4
 40
50.000000
 49
45.000000
 49
-1.000000
 49
3.000000
 49
-1.000000
  0
LTYPE
  2
CENTER5
 70
    64
  3
____ _ ____ _ ____ _ ____ _ ____ _ ____ _ ____
 72
    65
 73
     4
 40
100.000000
 49
92.000000
 49
-2.000000
 49
4.000000
 49
-2.000000
  0
LTYPE
  2
SBK1
 70
    64
  3
______ _ _ _ ______ _ _ _ ______ _ _ _ _____  
 72
    65
 73
     8
 40
60.500000
 49
45.000000
 49
-2.000000
 49
2.500000
 49
-2.000000
 49
2.500000
 49
-2.000000
 49
2.500000
 49
-2.000000
  0
LTYPE
  2
SBK2
 70
    64
  3
______ _ _ _ ______ _ _ _ ______ _ _ _ _____  
 72
    65
 73
     8
 40
84.000000
 49
64.000000
 49
-2.000000
 49
4.000000
 49
-2.000000
 49
4.000000
 49
-2.000000
 49
4.000000
 49
-2.000000
  0
LTYPE
  2
STCH
 70
    64
  3
__ __ __ __ __ __ __ __ __ __ __ __ __ __ __
 72
    65
 73
     2
 40
3.000000
 49
1.000000
 49
-2.000000
  0
LTYPE
  2
MTCH
 70
    64
  3
_____ _ _ _____ _ _ _____ _ _ _____ _ _ ____  
 72
    65
 73
     6
 40
80.000000
 49
66.000000
 49
-2.000000
 49
4.000000
 49
-2.000000
 49
4.000000
 49
-2.000000
  0
ENDTAB
  0
TABLE
  2
LAYER
 70
     1
  0
LAYER
  2
0
 70
     0
 62
     7
  6
CONTINUOUS
  0
ENDTAB
  0
TABLE
  2
STYLE
 70
     1
  0
STYLE
  2
STANDARD
 70
     0
 40
0.000000
 41
1.000000
 50
0.000000
 71
     0
 42
0.200000
  3
txt
  4
BIGFONT
  0
ENDTAB
  0
TABLE
  2
VIEW
 70
     0
  0
ENDTAB
  0
ENDSEC
  0
SECTION
  2
BLOCKS
  0
ENDSEC
  0
SECTION
  2
ENTITIES
  0
LINE
  8
0
 10
399.799988
 20
276.250000
 11
399.799988
 21
-276.750000
  0
LINE
  8
0
 10
-399.250000
 20
276.250000
 11
-399.250000
 21
-276.750000
  0
LINE
  8
0
 10
-399.250000
 20
276.250000
 11
399.799988
 21
276.250000
  0
LINE
  8
0
 10
-399.250000
 20
-276.750000
 11
399.799988
 21
-276.750000
  0
LINE
  8
0
 10
133.449997
 20
-251.750000
 11
399.799988
 21
-251.750000
  0
LINE
  8
0
 10
239.799988
 20
251.250000
 11
399.799988
 21
251.250000
  0
LINE
  8
0
 10
-399.250000
 20
251.250000
 11
-239.250000
 21
251.250000
  0
LINE
  8
0
 10
239.799988
 20
-251.750000
 11
239.799988
 21
-276.750000
  0
LINE
  8
0
 10
239.799988
 20
251.250000
 11
239.799988
 21
276.250000
  0
LINE
  8
0
 10
-239.250000
 20
276.250000
 11
-239.250000
 21
251.250000
  0
LINE
  8
0
 10
-399.250000
 20
-0.250000
 11
399.799988
 21
-0.250000
  0
LINE
  8
0
 10
-399.250000
 20
-261.750000
 11
133.449997
 21
-261.750000
  0
LINE
  8
0
 10
-399.250000
 20
14.750000
 11
399.799988
 21
14.750000
  0
LINE
  8
0
 10
-132.900009
 20
276.250000
 11
-132.900009
 21
-276.750000
  0
LINE
  8
0
 10
133.449997
 20
276.250000
 11
133.449997
 21
-276.750000
  0
LINE
  8
0
 10
133.449997
 20
-236.750000
 11
399.799988
 21
-236.750000
  0
LINE
  8
0
  6
PHANTOM
 62
     2
 10
212.503387
 20
-24.237030
 11
185.503387
 21
-24.237030
  0
LINE
  8
0
  6
PHANTOM
 62
     2
 10
212.503387
 20
-24.237030
 11
212.503387
 21
-122.237030
  0
LINE
  8
0
  6
PHANTOM
 62
     2
 10
212.503387
 20
-122.237030
 11
185.503387
 21
-122.237030
  0
LINE
  8
0
  6
PHANTOM
 62
     2
 10
185.503387
 20
-122.237030
 11
185.503387
 21
-24.237030
  0
LINE
  8
0
  6
PHANTOM
 62
     2
 10
-320.196564
 20
237.262970
 11
-347.196564
 21
237.262970
  0
LINE
  8
0
  6
PHANTOM
 62
     2
 10
-320.196564
 20
237.262970
 11
-320.196564
 21
139.262970
  0
LINE
  8
0
  6
PHANTOM
 62
     2
 10
-320.196564
 20
139.262970
 11
-347.196564
 21
139.262970
  0
LINE
  8
0
  6
PHANTOM
 62
     2
 10
-347.196564
 20
139.262970
 11
-347.196564
 21
237.262970
  0
LINE
  8
0
  6
PHANTOM
 62
     2
 10
-53.846588
 20
237.262970
 11
-80.846588
 21
237.262970
  0
LINE
  8
0
  6
PHANTOM
 62
     2
 10
-53.846588
 20
237.262970
 11
-53.846588
 21
139.262970
  0
LINE
  8
0
  6
PHANTOM
 62
     2
 10
-53.846588
 20
139.262970
 11
-80.846588
 21
139.262970
  0
LINE
  8
0
  6
PHANTOM
 62
     2
 10
-80.846588
 20
139.262970
 11
-80.846588
 21
237.262970
  0
LINE
  8
0
  6
PHANTOM
 62
     2
 10
212.503448
 20
237.262970
 11
185.503448
 21
237.262970
  0
LINE
  8
0
  6
PHANTOM
 62
     2
 10
212.503448
 20
237.262970
 11
212.503448
 21
139.262970
  0
LINE
  8
0
  6
PHANTOM
 62
     2
 10
212.503448
 20
139.262970
 11
185.503448
 21
139.262970
  0
LINE
  8
0
  6
PHANTOM
 62
     2
 10
185.503448
 20
139.262970
 11
185.503448
 21
237.262970
  0
LINE
  8
0
  6
PHANTOM
 62
     2
 10
-320.196564
 20
-24.237030
 11
-347.196564
 21
-24.237030
  0
LINE
  8
0
  6
PHANTOM
 62
     2
 10
-320.196564
 20
-24.237030
 11
-320.196564
 21
-122.237030
  0
LINE
  8
0
  6
PHANTOM
 62
     2
 10
-320.196564
 20
-122.237030
 11
-347.196564
 21
-122.237030
  0
LINE
  8
0
  6
PHANTOM
 62
     2
 10
-347.196564
 20
-122.237030
 11
-347.196564
 21
-24.237030
  0
LINE
  8
0
  6
PHANTOM
 62
     2
 10
-53.846588
 20
-24.237030
 11
-80.846588
 21
-24.237030
  0
LINE
  8
0
  6
PHANTOM
 62
     2
 10
-53.846588
 20
-24.237030
 11
-53.846588
 21
-122.237030
  0
LINE
  8
0
  6
PHANTOM
 62
     2
 10
-53.846588
 20
-122.237030
 11
-80.846588
 21
-122.237030
  0
LINE
  8
0
  6
PHANTOM
 62
     2
 10
-80.846588
 20
-122.237030
 11
-80.846588
 21
-24.237030
  0
LINE
  8
0
 10
-199.196625
 20
139.262970
 11
-180.196625
 21
139.262970
  0
LINE
  8
0
 10
-199.196625
 20
237.262970
 11
-197.196640
 21
237.262970
  0
LINE
  8
0
 10
-180.196625
 20
237.262970
 11
-180.196625
 21
139.262970
  0
LINE
  8
0
 10
-199.196625
 20
237.262970
 11
-199.196625
 21
139.262970
  0
LINE
  8
0
 10
-182.196625
 20
237.262970
 11
-180.196625
 21
237.262970
  0
LINE
  8
0
 10
-182.196625
 20
240.462952
 11
-182.196625
 21
237.462952
  0
LINE
  8
0
 10
-197.196640
 20
240.462952
 11
-197.196640
 21
237.462952
  0
LINE
  8
0
 10
-197.196640
 20
237.462952
 11
-182.196625
 21
237.462952
  0
LINE
  8
0
 10
-191.696625
 20
237.462952
 11
-191.696625
 21
230.862961
  0
LINE
  8
0
 10
-191.696625
 20
230.862961
 11
-184.196625
 21
230.862961
  0
LINE
  8
0
 10
-184.196625
 20
237.462952
 11
-184.196625
 21
230.862961
  0
LINE
  8
0
 10
-191.696625
 20
230.362961
 11
-191.696625
 21
223.862961
  0
LINE
  8
0
 10
-191.696625
 20
230.362961
 11
-184.196625
 21
230.362961
  0
LINE
  8
0
 10
-184.196625
 20
230.362961
 11
-184.196625
 21
223.862961
  0
LINE
  8
0
 10
-191.696625
 20
223.862961
 11
-184.196625
 21
223.862961
  0
LINE
  8
0
 10
-195.196625
 20
237.462952
 11
-195.196625
 21
223.862961
  0
LINE
  8
0
 10
-192.196625
 20
237.462952
 11
-192.196625
 21
223.862961
  0
LINE
  8
0
 10
-195.196625
 20
223.862961
 11
-192.196625
 21
223.862961
  0
LINE
  8
0
 10
-195.196625
 20
237.462952
 11
-192.196625
 21
237.462952
  0
LINE
  8
0
 10
-193.696625
 20
218.612976
 11
-190.196625
 21
218.612976
  0
LINE
  8
0
 10
-193.696625
 20
220.612961
 11
-193.696625
 21
218.612976
  0
LINE
  8
0
 10
-193.696625
 20
220.612961
 11
-190.196625
 21
220.612961
  0
LINE
  8
0
 10
-190.196625
 20
220.612961
 11
-190.196625
 21
218.612976
  0
LINE
  8
0
 10
-189.196625
 20
218.612976
 11
-185.696625
 21
218.612976
  0
LINE
  8
0
 10
-189.196625
 20
220.612961
 11
-189.196625
 21
218.612976
  0
LINE
  8
0
 10
-189.196625
 20
220.612961
 11
-185.696625
 21
220.612961
  0
LINE
  8
0
 10
-185.696625
 20
220.612961
 11
-185.696625
 21
218.612976
  0
LINE
  8
0
 10
-195.196625
 20
223.362961
 11
-184.196625
 21
223.362961
  0
LINE
  8
0
 10
-184.196625
 20
223.362961
 11
-184.196625
 21
214.362976
  0
LINE
  8
0
 10
-195.196625
 20
223.362961
 11
-195.196625
 21
214.362976
  0
LINE
  8
0
 10
-195.196625
 20
214.362976
 11
-184.196625
 21
214.362976
  0
LINE
  8
0
 10
-182.196625
 20
202.462967
 11
-182.196625
 21
212.462967
  0
LINE
  8
0
 10
-197.196625
 20
202.462967
 11
-197.196625
 21
212.462967
  0
LINE
  8
0
 10
-181.696655
 20
202.462967
 11
-197.696625
 21
202.462967
  0
LINE
  8
0
 10
-197.196625
 20
212.462967
 11
-182.196625
 21
212.462967
  0
LINE
  8
0
 10
-196.696625
 20
202.462967
 11
-196.696625
 21
210.462967
  0
LINE
  8
0
 10
-182.696625
 20
202.462967
 11
-182.696625
 21
210.462967
  0
LINE
  8
0
 10
-182.696625
 20
210.462967
 11
-187.196625
 21
210.462967
  0
LINE
  8
0
 10
-192.196625
 20
207.762970
 11
-192.196625
 21
210.462967
  0
LINE
  8
0
 10
-187.196625
 20
207.762970
 11
-187.196625
 21
210.462967
  0
LINE
  8
0
 10
-192.196625
 20
210.462967
 11
-196.696625
 21
210.462967
  0
LINE
  8
0
 10
-180.196625
 20
190.262970
 11
-199.196625
 21
190.262970
  0
LINE
  8
0
 10
-199.196625
 20
200.962967
 11
-197.696609
 21
202.462982
  0
LINE
  8
0
 10
-180.196625
 20
200.962952
 11
-181.696640
 21
202.462967
  0
LINE
  8
0
 10
-199.196625
 20
148.262970
 11
-180.196625
 21
148.262970
  0
LINE
  8
0
 10
-180.196625
 20
139.862961
 11
-199.196625
 21
139.862961
  0
LINE
  8
0
 10
-181.696655
 20
202.462967
 11
-197.696625
 21
202.462967
  0
LINE
  8
0
 10
-181.696655
 20
202.462967
 11
-197.696625
 21
202.462967
  0
LINE
  8
0
 10
-181.696655
 20
202.462967
 11
-197.696625
 21
202.462967
  0
LINE
  8
0
 10
-183.196625
 20
202.962967
 11
-196.196625
 21
202.962967
  0
LINE
  8
0
 10
-183.196625
 20
209.962967
 11
-186.696625
 21
209.962967
  0
LINE
  8
0
 10
-196.196625
 20
202.962967
 11
-196.196625
 21
209.962967
  0
LINE
  8
0
 10
-183.196625
 20
202.962967
 11
-183.196625
 21
209.962967
  0
LINE
  8
0
 10
-192.696625
 20
207.962967
 11
-192.696625
 21
209.962967
  0
LINE
  8
0
 10
-186.696625
 20
207.962967
 11
-186.696625
 21
209.962967
  0
LINE
  8
0
 10
-196.196625
 20
209.962967
 11
-192.696625
 21
209.962967
  0
LINE
  8
0
 10
-197.196640
 20
239.830490
 11
-182.196625
 21
239.830490
  0
LINE
  8
0
 10
-182.196625
 20
237.462952
 11
-182.196625
 21
212.462982
  0
LINE
  8
0
 10
-197.196640
 20
237.462952
 11
-197.196640
 21
212.462982
  0
LINE
  8
0
 10
-197.196640
 20
240.462952
 11
-182.196625
 21
240.462952
  0
LINE
  8
0
 10
-185.467972
 20
206.223877
 11
-186.407669
 21
206.565903
  0
LINE
  8
0
 10
-193.925247
 20
206.223877
 11
-192.985550
 21
206.565903
  0
LINE
  8
0
 10
-191.775085
 20
207.462967
 11
-187.618164
 21
207.462967
  0
LINE
  8
0
 10
-191.775085
 20
208.062958
 11
-187.618164
 21
208.062958
  0
LINE
  8
0
 10
-189.396622
 20
205.684509
 11
-189.396622
 21
206.662964
  0
LINE
  8
0
 10
-189.996628
 20
205.684509
 11
-189.996628
 21
206.662964
  0
LINE
  8
0
 10
-189.996628
 20
206.662964
 11
-189.396622
 21
206.662964
  0
LINE
  8
0
 10
-193.455383
 20
206.394897
 11
-193.157043
 21
204.702850
  0
LINE
  8
0
 10
-193.455353
 20
206.394989
 11
-192.139130
 21
205.290558
  0
LINE
  8
0
 10
-185.937866
 20
206.394867
 11
-186.236221
 21
204.702820
  0
LINE
  8
0
 10
-185.937912
 20
206.394958
 11
-187.254120
 21
205.290527
  0
LINE
  8
0
  6
CENTER
 62
     2
 10
-189.696625
 20
242.462952
 11
-189.696625
 21
133.862976
  0
LINE
  8
0
 10
-182.296600
 20
135.862976
 11
-197.096649
 21
135.862976
  0
LINE
  8
0
 10
-187.296600
 20
137.062973
 11
-187.296600
 21
135.862976
  0
LINE
  8
0
 10
-197.096649
 20
137.062973
 11
-197.096649
 21
135.862976
  0
LINE
  8
0
 10
-187.296600
 20
137.062973
 11
-197.096649
 21
137.062973
  0
LINE
  8
0
 10
-194.696625
 20
138.562973
 11
-194.696625
 21
137.062973
  0
LINE
  8
0
 10
-189.696625
 20
138.562973
 11
-189.696625
 21
137.062973
  0
LINE
  8
0
 10
-197.296600
 20
139.262970
 11
-197.296600
 21
138.562973
  0
LINE
  8
0
 10
-187.096649
 20
139.262970
 11
-187.096649
 21
138.562973
  0
LINE
  8
0
 10
-197.296600
 20
138.562973
 11
-182.096649
 21
138.562973
  0
LINE
  8
0
  6
CENTER
 62
     2
 10
-192.196625
 20
143.262970
 11
-192.196625
 21
133.862976
  0
LINE
  8
0
 10
-182.296600
 20
137.062973
 11
-182.296600
 21
135.862976
  0
LINE
  8
0
 10
-182.296600
 20
137.062973
 11
-192.096649
 21
137.062973
  0
LINE
  8
0
 10
-184.696625
 20
138.562973
 11
-184.696625
 21
137.062973
  0
LINE
  8
0
 10
-182.096649
 20
139.262970
 11
-182.096649
 21
138.562973
  0
LINE
  8
0
  6
CENTER
 62
     2
 10
-187.196625
 20
143.262970
 11
-187.196625
 21
133.862976
  0
LINE
  8
0
 10
-289.196564
 20
240.462982
 11
-285.196564
 21
239.757675
  0
LINE
  8
0
 10
-289.196594
 20
212.462967
 11
-287.281677
 21
212.976059
  0
LINE
  8
0
 10
-289.196533
 20
212.462967
 11
-319.196533
 21
212.462967
  0
LINE
  8
0
 10
-319.196533
 20
237.462967
 11
-285.196533
 21
237.462967
  0
LINE
  8
0
 10
-289.196533
 20
240.462967
 11
-289.196533
 21
202.462967
  0
LINE
  8
0
 10
-285.196533
 20
239.757675
 11
-285.196533
 21
222.462967
  0
LINE
  8
0
 10
-289.196533
 20
240.462967
 11
-318.696533
 21
240.462967
  0
LINE
  8
0
 10
-319.196533
 20
239.962967
 11
-319.196533
 21
139.862961
  0
LINE
  8
0
 10
-289.196533
 20
139.862961
 11
-319.196533
 21
139.862961
  0
LINE
  8
0
 10
-289.196533
 20
148.262970
 11
-289.196533
 21
139.862961
  0
LINE
  8
0
 10
-289.196533
 20
190.262970
 11
-289.196533
 21
148.262970
  0
LINE
  8
0
 10
-289.196533
 20
148.262970
 11
-319.196533
 21
148.262970
  0
LINE
  8
0
 10
-289.196533
 20
190.262970
 11
-289.196533
 21
202.462967
  0
LINE
  8
0
 10
-319.196533
 20
190.262970
 11
-289.196533
 21
190.262970
  0
LINE
  8
0
 10
-319.196533
 20
202.462967
 11
-289.196533
 21
202.462967
  0
LINE
  8
0
 10
-335.296539
 20
135.862976
 11
-345.096588
 21
135.862976
  0
LINE
  8
0
 10
-335.296539
 20
137.062973
 11
-335.296539
 21
135.862976
  0
LINE
  8
0
 10
-345.096588
 20
137.062973
 11
-345.096588
 21
135.862976
  0
LINE
  8
0
 10
-335.296539
 20
137.062973
 11
-345.096588
 21
137.062973
  0
LINE
  8
0
 10
-342.696564
 20
138.562973
 11
-342.696564
 21
137.062973
  0
LINE
  8
0
 10
-337.696564
 20
138.562973
 11
-337.696564
 21
137.062973
  0
LINE
  8
0
 10
-345.296539
 20
139.262970
 11
-345.296539
 21
138.562973
  0
LINE
  8
0
 10
-335.096588
 20
139.262970
 11
-335.096588
 21
138.562973
  0
LINE
  8
0
 10
-345.296539
 20
138.562973
 11
-335.096588
 21
138.562973
  0
LINE
  8
0
  6
CENTER
 62
     2
 10
-340.196564
 20
143.262970
 11
-340.196564
 21
133.862976
  0
LINE
  8
0
 10
-324.296539
 20
135.862976
 11
-334.096588
 21
135.862976
  0
LINE
  8
0
 10
-324.296539
 20
137.062973
 11
-324.296539
 21
135.862976
  0
LINE
  8
0
 10
-334.096588
 20
137.062973
 11
-334.096588
 21
135.862976
  0
LINE
  8
0
 10
-324.296539
 20
137.062973
 11
-334.096588
 21
137.062973
  0
LINE
  8
0
 10
-331.696564
 20
138.562973
 11
-331.696564
 21
137.062973
  0
LINE
  8
0
 10
-326.696564
 20
138.562973
 11
-326.696564
 21
137.062973
  0
LINE
  8
0
 10
-334.296539
 20
139.262970
 11
-334.296539
 21
138.562973
  0
LINE
  8
0
 10
-324.096588
 20
139.262970
 11
-324.096588
 21
138.562973
  0
LINE
  8
0
 10
-334.296539
 20
138.562973
 11
-324.096588
 21
138.562973
  0
LINE
  8
0
  6
CENTER
 62
     2
 10
-329.196564
 20
143.262970
 11
-329.196564
 21
133.862976
  0
LINE
  8
0
 10
-320.196533
 20
235.162964
 11
-319.196533
 21
235.162964
  0
LINE
  8
0
 10
-319.196533
 20
148.262955
 11
-320.196564
 21
148.262955
  0
LINE
  8
0
 10
-180.196625
 20
81.763000
 11
-180.196625
 21
54.763000
  0
LINE
  8
0
 10
-199.196625
 20
81.763000
 11
-199.196625
 21
54.763000
  0
LINE
  8
0
 10
-199.196625
 20
54.763000
 11
-180.196625
 21
54.763000
  0
LINE
  8
0
 10
-199.196625
 20
81.763000
 11
-180.196625
 21
81.763000
  0
LINE
  8
0
 10
-198.696625
 20
112.763000
 11
-198.696625
 21
81.763000
  0
LINE
  8
0
 10
-180.696625
 20
112.763000
 11
-180.696625
 21
81.763000
  0
LINE
  8
0
 10
-198.696625
 20
112.763000
 11
-180.696625
 21
112.763000
  0
LINE
  8
0
 10
-197.196686
 20
112.762978
 11
-196.564224
 21
116.349823
  0
LINE
  8
0
 10
-182.196564
 20
112.763008
 11
-182.829025
 21
116.349823
  0
LINE
  8
0
 10
-183.321503
 20
116.763000
 11
-196.071777
 21
116.763000
  0
LINE
  8
0
 10
-196.491333
 20
114.919495
 11
-182.901917
 21
114.919495
  0
LINE
  8
0
 10
-195.196625
 20
115.448441
 11
-195.196625
 21
116.763000
  0
LINE
  8
0
 10
-184.196625
 20
115.448441
 11
-184.196625
 21
116.763000
  0
LINE
  8
0
 10
-196.491333
 20
114.919479
 11
-196.491333
 21
116.534988
  0
LINE
  8
0
 10
-182.901932
 20
114.919479
 11
-182.901932
 21
116.534958
  0
LINE
  8
0
 10
-195.196625
 20
115.448441
 11
-184.196625
 21
115.448441
  0
LINE
  8
0
 10
-184.196625
 20
116.563004
 11
-195.196625
 21
116.563004
  0
LINE
  8
0
 10
-197.196655
 20
112.762993
 11
-196.491364
 21
114.919472
  0
LINE
  8
0
 10
-182.196609
 20
112.762985
 11
-182.901886
 21
114.919487
  0
LINE
  8
0
 10
-198.696625
 20
82.763000
 11
-180.696625
 21
82.763000
  0
LINE
  8
0
  6
CENTER
 62
     2
 10
-189.696625
 20
118.763000
 11
-189.696625
 21
52.763000
  0
LINE
  8
0
  6
CENTER
 62
     2
 10
-192.196625
 20
78.423111
 11
-192.196625
 21
67.148773
  0
LINE
  8
0
  6
CENTER
 62
     2
 10
-186.521393
 20
72.763000
 11
-198.137360
 21
72.763000
  0
LINE
  8
0
 10
-188.296600
 20
73.763000
 11
-188.296600
 21
71.763000
  0
LINE
  8
0
 10
-196.096649
 20
73.763000
 11
-196.096649
 21
71.763000
  0
LINE
  8
0
  6
CENTER
 62
     2
 10
-187.196625
 20
67.423111
 11
-187.196625
 21
56.148773
  0
LINE
  8
0
  6
CENTER
 62
     2
 10
-181.521393
 20
61.763000
 11
-193.137360
 21
61.763000
  0
LINE
  8
0
 10
-183.296600
 20
62.763000
 11
-183.296600
 21
60.763000
  0
LINE
  8
0
 10
-191.096649
 20
62.763000
 11
-191.096649
 21
60.763000
  0
LINE
  8
0
 10
67.153358
 20
139.262970
 11
86.153358
 21
139.262970
  0
LINE
  8
0
 10
67.153358
 20
237.262970
 11
69.153343
 21
237.262970
  0
LINE
  8
0
 10
86.153358
 20
237.262970
 11
86.153358
 21
139.262970
  0
LINE
  8
0
 10
67.153358
 20
237.262970
 11
67.153358
 21
139.262970
  0
LINE
  8
0
 10
84.153358
 20
237.262970
 11
86.153358
 21
237.262970
  0
LINE
  8
0
 10
69.153343
 20
237.462952
 11
84.153358
 21
237.462952
  0
LINE
  8
0
 10
74.653358
 20
237.462952
 11
74.653358
 21
230.862961
  0
LINE
  8
0
 10
74.653358
 20
230.862961
 11
82.153358
 21
230.862961
  0
LINE
  8
0
 10
82.153358
 20
237.462952
 11
82.153358
 21
230.862961
  0
LINE
  8
0
 10
74.653358
 20
230.362961
 11
74.653358
 21
223.862961
  0
LINE
  8
0
 10
74.653358
 20
230.362961
 11
82.153358
 21
230.362961
  0
LINE
  8
0
 10
82.153358
 20
230.362961
 11
82.153358
 21
223.862961
  0
LINE
  8
0
 10
74.653358
 20
223.862961
 11
82.153358
 21
223.862961
  0
LINE
  8
0
 10
71.153358
 20
237.462952
 11
71.153358
 21
223.862961
  0
LINE
  8
0
 10
74.153358
 20
237.462952
 11
74.153358
 21
223.862961
  0
LINE
  8
0
 10
71.153358
 20
223.862961
 11
74.153358
 21
223.862961
  0
LINE
  8
0
 10
71.153358
 20
237.462952
 11
74.153358
 21
237.462952
  0
LINE
  8
0
 10
72.653358
 20
218.612976
 11
76.153358
 21
218.612976
  0
LINE
  8
0
 10
72.653358
 20
220.612961
 11
72.653358
 21
218.612976
  0
LINE
  8
0
 10
72.653358
 20
220.612961
 11
76.153358
 21
220.612961
  0
LINE
  8
0
 10
76.153358
 20
220.612961
 11
76.153358
 21
218.612976
  0
LINE
  8
0
 10
77.153358
 20
218.612976
 11
80.653358
 21
218.612976
  0
LINE
  8
0
 10
77.153358
 20
220.612961
 11
77.153358
 21
218.612976
  0
LINE
  8
0
 10
77.153358
 20
220.612961
 11
80.653358
 21
220.612961
  0
LINE
  8
0
 10
80.653358
 20
220.612961
 11
80.653358
 21
218.612976
  0
LINE
  8
0
 10
71.153358
 20
223.362961
 11
82.153358
 21
223.362961
  0
LINE
  8
0
 10
82.153358
 20
223.362961
 11
82.153358
 21
214.362976
  0
LINE
  8
0
 10
71.153358
 20
223.362961
 11
71.153358
 21
214.362976
  0
LINE
  8
0
 10
71.153358
 20
214.362976
 11
82.153358
 21
214.362976
  0
LINE
  8
0
 10
84.153358
 20
202.462967
 11
84.153358
 21
212.462967
  0
LINE
  8
0
 10
69.153358
 20
202.462967
 11
69.153358
 21
212.462967
  0
LINE
  8
0
 10
84.653328
 20
202.462967
 11
68.653358
 21
202.462967
  0
LINE
  8
0
 10
69.153358
 20
212.462967
 11
84.153358
 21
212.462967
  0
LINE
  8
0
 10
69.653358
 20
202.462967
 11
69.653358
 21
210.462967
  0
LINE
  8
0
 10
83.653358
 20
202.462967
 11
83.653358
 21
210.462967
  0
LINE
  8
0
 10
83.653358
 20
210.462967
 11
79.153358
 21
210.462967
  0
LINE
  8
0
 10
74.153358
 20
207.762970
 11
74.153358
 21
210.462967
  0
LINE
  8
0
 10
79.153358
 20
207.762970
 11
79.153358
 21
210.462967
  0
LINE
  8
0
 10
74.153358
 20
210.462967
 11
69.653358
 21
210.462967
  0
LINE
  8
0
 10
86.153358
 20
190.262970
 11
67.153358
 21
190.262970
  0
LINE
  8
0
 10
67.153358
 20
200.962982
 11
68.653374
 21
202.462997
  0
LINE
  8
0
 10
86.153358
 20
200.962936
 11
84.653343
 21
202.462952
  0
LINE
  8
0
 10
67.153358
 20
148.262970
 11
86.153358
 21
148.262970
  0
LINE
  8
0
 10
86.153358
 20
139.862961
 11
67.153358
 21
139.862961
  0
LINE
  8
0
 10
84.653328
 20
202.462967
 11
68.653358
 21
202.462967
  0
LINE
  8
0
 10
84.653328
 20
202.462967
 11
68.653358
 21
202.462967
  0
LINE
  8
0
 10
84.653328
 20
202.462967
 11
68.653358
 21
202.462967
  0
LINE
  8
0
 10
83.153358
 20
202.962967
 11
70.153358
 21
202.962967
  0
LINE
  8
0
 10
83.153358
 20
209.962967
 11
79.653358
 21
209.962967
  0
LINE
  8
0
 10
70.153358
 20
202.962967
 11
70.153358
 21
209.962967
  0
LINE
  8
0
 10
83.153358
 20
202.962967
 11
83.153358
 21
209.962967
  0
LINE
  8
0
 10
73.653358
 20
207.962967
 11
73.653358
 21
209.962967
  0
LINE
  8
0
 10
79.653358
 20
207.962967
 11
79.653358
 21
209.962967
  0
LINE
  8
0
 10
70.153358
 20
209.962967
 11
73.653358
 21
209.962967
  0
LINE
  8
0
 10
84.153358
 20
240.462952
 11
84.153358
 21
212.462982
  0
LINE
  8
0
 10
69.153343
 20
240.462952
 11
69.153343
 21
212.462982
  0
LINE
  8
0
 10
69.153343
 20
240.462952
 11
84.153358
 21
240.462952
  0
LINE
  8
0
 10
80.881989
 20
206.223862
 11
79.942299
 21
206.565887
  0
LINE
  8
0
 10
72.424751
 20
206.223877
 11
73.364441
 21
206.565887
  0
LINE
  8
0
 10
74.574898
 20
207.462967
 11
78.731819
 21
207.462967
  0
LINE
  8
0
 10
74.574898
 20
208.062958
 11
78.731819
 21
208.062958
  0
LINE
  8
0
 10
76.953362
 20
205.684509
 11
76.953362
 21
206.662964
  0
LINE
  8
0
 10
76.353355
 20
205.684509
 11
76.353355
 21
206.662964
  0
LINE
  8
0
 10
76.353355
 20
206.662964
 11
76.953362
 21
206.662964
  0
LINE
  8
0
  6
CENTER
 62
     2
 10
68.253357
 20
133.762970
 11
80.053360
 21
133.762970
  0
LINE
  8
0
  6
CENTER
 62
     2
 10
74.153351
 20
141.262970
 11
74.153351
 21
127.762970
  0
LINE
  8
0
 10
68.003349
 20
139.262970
 11
68.003349
 21
138.462982
  0
LINE
  8
0
 10
80.003372
 20
138.462967
 11
79.103363
 21
137.462952
  0
LINE
  8
0
 10
68.903358
 20
137.462982
 11
68.003357
 21
138.462982
  0
LINE
  8
0
 10
70.253357
 20
132.762970
 11
70.253357
 21
134.762970
  0
LINE
  8
0
 10
78.053360
 20
132.762970
 11
78.053360
 21
134.762970
  0
LINE
  8
0
 10
68.903358
 20
137.462967
 11
71.339104
 21
137.462967
  0
LINE
  8
0
 10
80.003349
 20
138.462982
 11
80.003349
 21
139.262970
  0
LINE
  8
0
 10
80.003349
 20
138.462982
 11
75.386230
 21
138.462982
  0
LINE
  8
0
 10
70.153351
 20
137.462967
 11
70.153351
 21
136.462967
  0
LINE
  8
0
 10
78.153351
 20
137.462967
 11
78.153351
 21
136.462967
  0
LINE
  8
0
 10
70.153358
 20
136.462967
 11
70.643372
 21
136.462967
  0
LINE
  8
0
 10
77.759468
 20
136.248199
 11
78.153328
 21
136.463028
  0
LINE
  8
0
 10
70.547211
 20
136.248138
 11
70.153351
 21
136.462967
  0
LINE
  8
0
 10
77.663345
 20
136.462967
 11
78.153358
 21
136.462967
  0
LINE
  8
0
 10
76.967613
 20
137.462967
 11
79.103355
 21
137.462967
  0
LINE
  8
0
 10
72.920486
 20
138.462982
 11
68.003357
 21
138.462982
  0
LINE
  8
0
 10
75.153351
 20
127.762970
 11
75.153351
 21
126.763016
  0
LINE
  8
0
 10
83.153351
 20
127.762970
 11
83.153351
 21
126.762970
  0
LINE
  8
0
 10
75.153358
 20
126.762970
 11
75.805214
 21
126.762970
  0
LINE
  8
0
 10
82.650665
 20
126.488853
 11
83.153320
 21
126.763031
  0
LINE
  8
0
 10
75.656006
 20
126.488815
 11
75.153343
 21
126.762993
  0
LINE
  8
0
  6
CENTER
 62
     2
 10
79.153351
 20
141.262970
 11
79.153351
 21
117.762970
  0
LINE
  8
0
  6
CENTER
 62
     2
 10
73.253349
 20
123.762970
 11
85.053352
 21
123.762970
  0
LINE
  8
0
 10
79.373375
 20
137.762970
 11
85.003365
 21
137.762970
  0
LINE
  8
0
 10
74.403358
 20
127.762970
 11
76.661362
 21
127.762970
  0
LINE
  8
0
 10
84.253349
 20
137.762970
 11
84.253349
 21
128.162979
  0
LINE
  8
0
 10
74.053352
 20
128.864258
 11
74.053352
 21
128.162979
  0
LINE
  8
0
 10
74.053360
 20
128.162979
 11
77.242867
 21
128.162979
  0
LINE
  8
0
 10
84.253357
 20
128.162979
 11
83.903358
 21
127.762978
  0
LINE
  8
0
 10
74.053352
 20
128.162979
 11
74.403351
 21
127.762978
  0
LINE
  8
0
 10
85.003349
 20
139.262970
 11
85.003349
 21
137.762970
  0
LINE
  8
0
 10
75.253349
 20
122.762970
 11
75.253349
 21
124.762970
  0
LINE
  8
0
 10
83.053352
 20
122.762970
 11
83.053352
 21
124.762970
  0
LINE
  8
0
 10
82.501488
 20
126.762970
 11
83.153351
 21
126.762970
  0
LINE
  8
0
 10
81.645340
 20
127.762970
 11
83.903358
 21
127.762970
  0
LINE
  8
0
 10
81.063835
 20
128.162979
 11
84.253365
 21
128.162979
  0
LINE
  8
0
 10
72.894638
 20
206.394897
 11
73.192993
 21
204.702850
  0
LINE
  8
0
 10
72.894684
 20
206.395020
 11
74.210907
 21
205.290573
  0
LINE
  8
0
 10
80.412094
 20
206.394928
 11
79.095917
 21
205.290527
  0
LINE
  8
0
 10
80.412117
 20
206.394882
 11
80.113762
 21
204.702850
  0
LINE
  8
0
  6
CENTER
 62
     2
 10
76.653358
 20
242.462952
 11
76.653358
 21
117.466461
  0
LINE
  8
0
 10
-22.846584
 20
240.462997
 11
-18.846588
 21
239.757690
  0
LINE
  8
0
 10
-22.846596
 20
212.462967
 11
-20.931679
 21
212.976074
  0
LINE
  8
0
 10
-22.846592
 20
212.462967
 11
-52.846592
 21
212.462967
  0
LINE
  8
0
 10
-52.846592
 20
237.462967
 11
-18.846592
 21
237.462967
  0
LINE
  8
0
 10
-22.846592
 20
240.462982
 11
-22.846592
 21
202.462967
  0
LINE
  8
0
 10
-18.846592
 20
239.757675
 11
-18.846592
 21
222.462967
  0
LINE
  8
0
 10
-22.846592
 20
240.462967
 11
-52.346592
 21
240.462967
  0
LINE
  8
0
 10
-52.846592
 20
239.962967
 11
-52.846592
 21
139.862961
  0
LINE
  8
0
 10
-22.846592
 20
139.862961
 11
-52.846592
 21
139.862961
  0
LINE
  8
0
 10
-22.846592
 20
190.262970
 11
-22.846592
 21
139.862961
  0
LINE
  8
0
 10
-22.846592
 20
148.262970
 11
-52.846592
 21
148.262970
  0
LINE
  8
0
 10
-22.846592
 20
190.262970
 11
-22.846592
 21
202.462967
  0
LINE
  8
0
 10
-52.846592
 20
190.262970
 11
-22.846592
 21
190.262970
  0
LINE
  8
0
 10
-52.846592
 20
202.462967
 11
-22.846592
 21
202.462967
  0
LINE
  8
0
 10
-56.996643
 20
138.462997
 11
-57.896637
 21
137.463013
  0
LINE
  8
0
 10
-68.096596
 20
137.462967
 11
-68.996597
 21
138.462967
  0
LINE
  8
0
 10
-68.096588
 20
137.462982
 11
-57.896595
 21
137.462982
  0
LINE
  8
0
 10
-56.996601
 20
138.462982
 11
-56.996601
 21
139.262985
  0
LINE
  8
0
 10
-56.996601
 20
138.462982
 11
-68.996582
 21
138.462982
  0
LINE
  8
0
 10
-49.446598
 20
131.262985
 11
-48.846607
 21
131.262985
  0
LINE
  8
0
 10
-48.846607
 20
138.662979
 11
-47.646595
 21
138.662979
  0
LINE
  8
0
 10
-66.846588
 20
137.462982
 11
-66.846588
 21
132.862976
  0
LINE
  8
0
 10
-58.846592
 20
137.462982
 11
-58.846592
 21
136.462982
  0
LINE
  8
0
 10
-66.846588
 20
136.462982
 11
-58.846592
 21
136.462982
  0
LINE
  8
0
 10
-59.946625
 20
135.862976
 11
-58.846603
 21
136.462982
  0
LINE
  8
0
 10
-65.746536
 20
135.863037
 11
-66.846542
 21
136.463043
  0
LINE
  8
0
 10
-65.746582
 20
135.862991
 11
-65.746582
 21
132.862976
  0
LINE
  8
0
 10
-63.746586
 20
129.762985
 11
-50.246601
 21
129.762985
  0
LINE
  8
0
 10
-57.146595
 20
137.762985
 11
-50.246601
 21
137.762985
  0
LINE
  8
0
 10
-59.946568
 20
135.862991
 11
-65.746582
 21
135.862991
  0
LINE
  8
0
 10
-58.846592
 20
136.662979
 11
-57.646595
 21
136.662979
  0
LINE
  8
0
 10
-63.746586
 20
130.862976
 11
-57.646595
 21
130.862976
  0
LINE
  8
0
 10
-57.646595
 20
136.662979
 11
-57.646595
 21
130.862976
  0
LINE
  8
0
 10
-57.146595
 20
137.762985
 11
-57.146595
 21
129.762985
  0
LINE
  8
0
 10
-50.246601
 20
137.762985
 11
-50.246601
 21
129.762985
  0
LINE
  8
0
 10
-49.446598
 20
137.662979
 11
-49.446598
 21
129.862976
  0
LINE
  8
0
 10
-47.646595
 20
138.662979
 11
-47.646595
 21
128.862976
  0
LINE
  8
0
 10
-48.846607
 20
138.662979
 11
-48.846607
 21
128.862976
  0
LINE
  8
0
 10
-57.646595
 20
130.862961
 11
-57.146595
 21
129.762970
  0
LINE
  8
0
 10
-57.646610
 20
136.663010
 11
-57.146610
 21
137.763000
  0
LINE
  8
0
 10
-50.246601
 20
129.862976
 11
-49.446598
 21
129.862976
  0
LINE
  8
0
 10
-50.246601
 20
137.662979
 11
-49.446598
 21
137.662979
  0
LINE
  8
0
 10
-49.446598
 20
136.262985
 11
-48.846607
 21
136.262985
  0
LINE
  8
0
 10
-68.996582
 20
139.262985
 11
-68.996582
 21
138.462982
  0
LINE
  8
0
 10
-48.846607
 20
128.862976
 11
-47.646595
 21
128.862976
  0
LINE
  8
0
 10
-77.846588
 20
127.762985
 11
-77.846588
 21
122.862976
  0
LINE
  8
0
 10
-69.846588
 20
127.762985
 11
-69.846588
 21
126.762985
  0
LINE
  8
0
 10
-77.846588
 20
126.762985
 11
-69.846588
 21
126.762985
  0
LINE
  8
0
 10
-70.946632
 20
126.162971
 11
-69.846626
 21
126.762978
  0
LINE
  8
0
 10
-76.746552
 20
126.163055
 11
-77.846535
 21
126.763054
  0
LINE
  8
0
 10
-79.996582
 20
139.262985
 11
-79.996582
 21
137.762985
  0
LINE
  8
0
 10
-76.746582
 20
126.162979
 11
-76.746582
 21
122.862976
  0
LINE
  8
0
 10
-74.746582
 20
119.762985
 11
-61.246586
 21
119.762985
  0
LINE
  8
0
 10
-68.146591
 20
127.762985
 11
-61.246586
 21
127.762985
  0
LINE
  8
0
 10
-70.946564
 20
126.162979
 11
-76.746567
 21
126.162979
  0
LINE
  8
0
 10
-70.029907
 20
126.662979
 11
-68.646591
 21
126.662979
  0
LINE
  8
0
 10
-74.746582
 20
120.862976
 11
-68.646591
 21
120.862976
  0
LINE
  8
0
 10
-68.646591
 20
126.662979
 11
-68.646591
 21
120.862976
  0
LINE
  8
0
 10
-68.146591
 20
127.762985
 11
-68.146591
 21
119.762985
  0
LINE
  8
0
 10
-61.246586
 20
127.762985
 11
-61.246586
 21
119.762985
  0
LINE
  8
0
 10
-60.446598
 20
127.662979
 11
-60.446598
 21
119.862976
  0
LINE
  8
0
 10
-58.646595
 20
128.662979
 11
-58.646595
 21
118.862976
  0
LINE
  8
0
 10
-59.846592
 20
128.662979
 11
-59.846592
 21
118.862976
  0
LINE
  8
0
 10
-68.646622
 20
120.862976
 11
-68.146614
 21
119.762970
  0
LINE
  8
0
 10
-68.646660
 20
126.662971
 11
-68.146652
 21
127.762978
  0
LINE
  8
0
 10
-61.246586
 20
119.862976
 11
-60.446598
 21
119.862976
  0
LINE
  8
0
 10
-61.246586
 20
127.662979
 11
-60.446598
 21
127.662979
  0
LINE
  8
0
 10
-60.446598
 20
126.262985
 11
-59.846592
 21
126.262985
  0
LINE
  8
0
 10
-60.446598
 20
121.262985
 11
-59.846592
 21
121.262985
  0
LINE
  8
0
 10
-59.846592
 20
128.662979
 11
-58.646595
 21
128.662979
  0
LINE
  8
0
 10
-59.846592
 20
118.862976
 11
-58.646595
 21
118.862976
  0
LINE
  8
0
 10
-79.996582
 20
137.762985
 11
-68.366608
 21
137.762985
  0
LINE
  8
0
 10
-78.596588
 20
127.762985
 11
-69.096588
 21
127.762985
  0
LINE
  8
0
 10
-68.746582
 20
137.762985
 11
-68.746582
 21
128.162979
  0
LINE
  8
0
 10
-78.946579
 20
137.762985
 11
-78.946579
 21
128.162979
  0
LINE
  8
0
 10
-78.946579
 20
128.162979
 11
-68.746582
 21
128.162979
  0
LINE
  8
0
 10
-68.746590
 20
128.162979
 11
-69.096573
 21
127.762985
  0
LINE
  8
0
 10
-78.946617
 20
128.163010
 11
-78.596619
 21
127.763016
  0
LINE
  8
0
 10
-52.846592
 20
235.162964
 11
-53.846607
 21
235.162964
  0
LINE
  8
0
 10
-53.846592
 20
148.262985
 11
-52.846592
 21
148.262985
  0
LINE
  8
0
 10
-52.846592
 20
190.262985
 11
-52.846592
 21
148.262985
  0
LINE
  8
0
 10
-52.846592
 20
203.762970
 11
-52.846592
 21
196.762970
  0
LINE
  8
0
  6
CENTER
 62
     2
 10
-68.846588
 20
133.762970
 11
-45.646595
 21
133.762970
  0
LINE
  8
0
  6
CENTER
 62
     2
 10
-79.846588
 20
123.762970
 11
-56.646595
 21
123.762970
  0
LINE
  8
0
 10
67.653358
 20
92.763000
 11
67.653358
 21
61.763000
  0
LINE
  8
0
 10
85.653358
 20
92.763000
 11
85.653358
 21
61.763000
  0
LINE
  8
0
 10
67.653358
 20
92.763000
 11
85.653358
 21
92.763000
  0
LINE
  8
0
 10
69.153313
 20
92.763000
 11
69.785767
 21
96.349831
  0
LINE
  8
0
 10
84.153435
 20
92.763008
 11
83.520981
 21
96.349823
  0
LINE
  8
0
 10
83.028488
 20
96.763000
 11
70.278206
 21
96.763000
  0
LINE
  8
0
 10
69.858658
 20
94.919495
 11
83.448067
 21
94.919495
  0
LINE
  8
0
 10
71.153351
 20
95.448441
 11
71.153351
 21
96.763000
  0
LINE
  8
0
 10
82.153351
 20
95.448441
 11
82.153351
 21
96.763000
  0
LINE
  8
0
 10
69.858650
 20
94.919479
 11
69.858650
 21
96.534988
  0
LINE
  8
0
 10
83.448051
 20
94.919479
 11
83.448051
 21
96.534958
  0
LINE
  8
0
 10
71.153358
 20
95.448441
 11
82.153358
 21
95.448441
  0
LINE
  8
0
 10
82.153358
 20
96.563004
 11
71.153358
 21
96.563004
  0
LINE
  8
0
 10
69.153328
 20
92.762985
 11
69.858627
 21
94.919464
  0
LINE
  8
0
 10
84.153351
 20
92.762985
 11
83.448074
 21
94.919487
  0
LINE
  8
0
 10
86.153358
 20
61.763000
 11
86.153358
 21
34.763000
  0
LINE
  8
0
 10
67.153358
 20
61.763000
 11
67.153358
 21
34.763000
  0
LINE
  8
0
 10
67.153358
 20
34.763000
 11
86.153358
 21
34.763000
  0
LINE
  8
0
 10
75.253357
 20
54.362995
 11
75.253357
 21
55.162998
  0
LINE
  8
0
 10
81.653351
 20
55.162998
 11
81.653351
 21
55.762989
  0
LINE
  8
0
 10
82.553360
 20
47.112991
 11
82.553360
 21
41.763000
  0
LINE
  8
0
 10
75.753357
 20
47.112991
 11
75.753357
 21
41.763000
  0
LINE
  8
0
 10
78.653351
 20
37.895187
 11
78.653351
 21
47.612991
  0
LINE
  8
0
 10
79.653351
 20
37.895187
 11
79.653351
 21
47.612991
  0
LINE
  8
0
 10
83.053360
 20
55.762989
 11
75.253357
 21
55.762989
  0
LINE
  8
0
 10
83.153351
 20
47.612991
 11
83.153351
 21
54.362995
  0
LINE
  8
0
 10
82.553360
 20
47.113007
 11
79.653366
 21
47.113007
  0
LINE
  8
0
 10
76.653351
 20
55.162998
 11
76.653351
 21
55.762989
  0
LINE
  8
0
 10
83.153358
 20
54.362995
 11
75.153366
 21
54.362995
  0
LINE
  8
0
 10
78.653366
 20
47.113007
 11
75.753357
 21
47.113007
  0
LINE
  8
0
 10
83.153358
 20
47.613007
 11
75.153366
 21
47.613007
  0
LINE
  8
0
 10
75.153343
 20
47.612968
 11
75.753334
 21
47.112972
  0
LINE
  8
0
 10
82.553329
 20
47.113003
 11
83.153328
 21
47.613003
  0
LINE
  8
0
 10
83.053360
 20
55.162998
 11
75.253357
 21
55.162998
  0
LINE
  8
0
 10
83.053360
 20
54.362995
 11
83.053360
 21
55.162998
  0
LINE
  8
0
 10
75.153351
 20
47.612991
 11
75.153351
 21
54.362995
  0
LINE
  8
0
 10
75.253357
 20
55.762989
 11
75.253357
 21
56.963001
  0
LINE
  8
0
 10
83.053360
 20
55.762989
 11
83.053360
 21
56.963001
  0
LINE
  8
0
 10
83.053360
 20
56.963001
 11
75.253357
 21
56.963001
  0
LINE
  8
0
 10
73.653358
 20
48.895172
 11
73.653358
 21
58.612991
  0
LINE
  8
0
 10
74.653358
 20
48.895172
 11
74.653358
 21
58.612991
  0
LINE
  8
0
 10
77.553360
 20
58.112991
 11
77.553360
 21
56.963001
  0
LINE
  8
0
 10
70.753357
 20
58.112991
 11
70.753357
 21
52.763000
  0
LINE
  8
0
 10
73.653366
 20
58.112991
 11
70.753365
 21
58.112991
  0
LINE
  8
0
 10
77.553368
 20
58.112991
 11
74.653366
 21
58.112991
  0
LINE
  8
0
 10
78.153366
 20
58.612991
 11
70.153366
 21
58.612991
  0
LINE
  8
0
 10
77.553337
 20
58.113007
 11
78.153336
 21
58.613003
  0
LINE
  8
0
 10
70.153358
 20
58.612976
 11
70.753357
 21
58.112980
  0
LINE
  8
0
 10
78.153366
 20
65.363007
 11
70.153366
 21
65.363007
  0
LINE
  8
0
 10
70.253357
 20
65.362991
 11
70.253357
 21
66.162994
  0
LINE
  8
0
 10
78.053368
 20
66.162994
 11
70.253365
 21
66.162994
  0
LINE
  8
0
 10
78.053360
 20
65.362991
 11
78.053360
 21
66.162994
  0
LINE
  8
0
 10
76.653358
 20
66.162994
 11
76.653358
 21
66.763000
  0
LINE
  8
0
 10
78.053360
 20
66.763000
 11
70.253357
 21
66.763000
  0
LINE
  8
0
 10
71.653358
 20
66.162994
 11
71.653358
 21
66.763000
  0
LINE
  8
0
 10
70.253357
 20
66.763000
 11
70.253357
 21
67.962997
  0
LINE
  8
0
 10
78.053360
 20
67.962997
 11
70.253357
 21
67.962997
  0
LINE
  8
0
 10
78.053360
 20
66.763000
 11
78.053360
 21
67.962997
  0
LINE
  8
0
 10
70.153358
 20
58.612991
 11
70.153358
 21
65.362991
  0
LINE
  8
0
 10
78.153358
 20
58.612991
 11
78.153358
 21
65.362991
  0
LINE
  8
0
 10
67.153358
 20
61.763000
 11
70.153358
 21
61.763000
  0
LINE
  8
0
 10
67.653358
 20
62.763000
 11
70.153358
 21
62.763000
  0
LINE
  8
0
 10
78.153358
 20
62.763000
 11
85.653358
 21
62.763000
  0
LINE
  8
0
 10
78.153358
 20
61.763000
 11
86.153358
 21
61.763000
  0
LINE
  8
0
  6
CENTER
 62
     2
 10
76.653358
 20
98.563004
 11
76.653358
 21
32.763000
  0
LINE
  8
0
  6
CENTER
 62
     2
 10
79.153358
 20
60.495842
 11
79.153358
 21
35.770126
  0
LINE
  8
0
  6
CENTER
 62
     2
 10
74.153358
 20
71.654114
 11
74.153358
 21
46.294403
  0
LINE
  8
0
 10
333.503448
 20
139.263000
 11
352.503448
 21
139.263000
  0
LINE
  8
0
 10
333.503448
 20
237.263000
 11
335.503418
 21
237.263000
  0
LINE
  8
0
 10
352.503448
 20
237.263000
 11
352.503448
 21
139.263000
  0
LINE
  8
0
 10
333.503448
 20
237.263000
 11
333.503448
 21
139.263000
  0
LINE
  8
0
 10
350.503448
 20
237.263000
 11
352.503448
 21
237.263000
  0
LINE
  8
0
 10
335.503418
 20
237.462982
 11
350.503448
 21
237.462982
  0
LINE
  8
0
 10
341.003448
 20
237.462982
 11
341.003448
 21
230.862991
  0
LINE
  8
0
 10
341.003448
 20
230.862991
 11
348.503448
 21
230.862991
  0
LINE
  8
0
 10
348.503448
 20
237.462982
 11
348.503448
 21
230.862991
  0
LINE
  8
0
 10
341.003448
 20
230.362991
 11
341.003448
 21
223.862991
  0
LINE
  8
0
 10
341.003448
 20
230.362991
 11
348.503448
 21
230.362991
  0
LINE
  8
0
 10
348.503448
 20
230.362991
 11
348.503448
 21
223.862991
  0
LINE
  8
0
 10
341.003448
 20
223.862991
 11
348.503448
 21
223.862991
  0
LINE
  8
0
 10
337.503448
 20
237.462982
 11
337.503448
 21
223.862991
  0
LINE
  8
0
 10
340.503448
 20
237.462982
 11
340.503448
 21
223.862991
  0
LINE
  8
0
 10
337.503448
 20
223.862991
 11
340.503448
 21
223.862991
  0
LINE
  8
0
 10
337.503448
 20
237.462982
 11
340.503448
 21
237.462982
  0
LINE
  8
0
 10
339.003448
 20
218.613007
 11
342.503448
 21
218.613007
  0
LINE
  8
0
 10
339.003448
 20
220.612991
 11
339.003448
 21
218.613007
  0
LINE
  8
0
 10
339.003448
 20
220.612991
 11
342.503448
 21
220.612991
  0
LINE
  8
0
 10
342.503448
 20
220.612991
 11
342.503448
 21
218.613007
  0
LINE
  8
0
 10
343.503448
 20
218.613007
 11
347.003448
 21
218.613007
  0
LINE
  8
0
 10
343.503448
 20
220.612991
 11
343.503448
 21
218.613007
  0
LINE
  8
0
 10
343.503448
 20
220.612991
 11
347.003448
 21
220.612991
  0
LINE
  8
0
 10
347.003448
 20
220.612991
 11
347.003448
 21
218.613007
  0
LINE
  8
0
 10
337.503448
 20
223.362991
 11
348.503448
 21
223.362991
  0
LINE
  8
0
 10
348.503448
 20
223.362991
 11
348.503448
 21
214.363007
  0
LINE
  8
0
 10
337.503448
 20
223.362991
 11
337.503448
 21
214.363007
  0
LINE
  8
0
 10
337.503448
 20
214.363007
 11
348.503448
 21
214.363007
  0
LINE
  8
0
 10
350.503448
 20
202.462997
 11
350.503448
 21
212.462997
  0
LINE
  8
0
 10
335.503448
 20
202.462997
 11
335.503448
 21
212.462997
  0
LINE
  8
0
 10
351.003418
 20
202.462997
 11
335.003448
 21
202.462997
  0
LINE
  8
0
 10
335.503448
 20
212.462997
 11
350.503448
 21
212.462997
  0
LINE
  8
0
 10
336.003448
 20
202.462997
 11
336.003448
 21
210.462997
  0
LINE
  8
0
 10
350.003448
 20
202.462997
 11
350.003448
 21
210.462997
  0
LINE
  8
0
 10
350.003448
 20
210.462997
 11
345.503448
 21
210.462997
  0
LINE
  8
0
 10
340.503448
 20
207.763000
 11
340.503448
 21
210.462997
  0
LINE
  8
0
 10
345.503448
 20
207.763000
 11
345.503448
 21
210.462997
  0
LINE
  8
0
 10
340.503448
 20
210.462997
 11
336.003448
 21
210.462997
  0
LINE
  8
0
 10
352.503448
 20
190.263000
 11
333.503448
 21
190.263000
  0
LINE
  8
0
 10
333.503448
 20
200.963013
 11
335.003448
 21
202.463028
  0
LINE
  8
0
 10
352.503418
 20
200.962967
 11
351.003418
 21
202.462982
  0
LINE
  8
0
 10
333.503448
 20
148.263000
 11
352.503448
 21
148.263000
  0
LINE
  8
0
 10
352.503448
 20
139.862991
 11
333.503448
 21
139.862991
  0
LINE
  8
0
 10
351.003418
 20
202.462997
 11
335.003448
 21
202.462997
  0
LINE
  8
0
 10
351.003418
 20
202.462997
 11
335.003448
 21
202.462997
  0
LINE
  8
0
 10
351.003418
 20
202.462997
 11
335.003448
 21
202.462997
  0
LINE
  8
0
 10
349.503448
 20
202.962997
 11
336.503448
 21
202.962997
  0
LINE
  8
0
 10
349.503448
 20
209.962997
 11
346.003448
 21
209.962997
  0
LINE
  8
0
 10
336.503448
 20
202.962997
 11
336.503448
 21
209.962997
  0
LINE
  8
0
 10
349.503448
 20
202.962997
 11
349.503448
 21
209.962997
  0
LINE
  8
0
 10
340.003448
 20
207.962997
 11
340.003448
 21
209.962997
  0
LINE
  8
0
 10
346.003448
 20
207.962997
 11
346.003448
 21
209.962997
  0
LINE
  8
0
 10
336.503448
 20
209.962997
 11
340.003448
 21
209.962997
  0
LINE
  8
0
 10
350.503448
 20
240.462982
 11
350.503448
 21
212.463013
  0
LINE
  8
0
 10
335.503418
 20
240.462982
 11
335.503418
 21
212.463013
  0
LINE
  8
0
 10
335.503418
 20
240.462982
 11
350.503448
 21
240.462982
  0
LINE
  8
0
 10
347.232086
 20
206.223907
 11
346.292389
 21
206.565933
  0
LINE
  8
0
 10
338.774841
 20
206.223907
 11
339.714539
 21
206.565933
  0
LINE
  8
0
 10
340.924988
 20
207.462997
 11
345.081909
 21
207.462997
  0
LINE
  8
0
 10
340.924988
 20
208.062988
 11
345.081909
 21
208.062988
  0
LINE
  8
0
 10
343.303467
 20
205.684540
 11
343.303467
 21
206.662994
  0
LINE
  8
0
 10
342.703430
 20
205.684540
 11
342.703430
 21
206.662994
  0
LINE
  8
0
 10
342.703430
 20
206.662994
 11
343.303467
 21
206.662994
  0
LINE
  8
0
  6
CENTER
 62
     2
 10
334.603455
 20
132.763000
 11
346.403442
 21
132.763000
  0
LINE
  8
0
  6
CENTER
 62
     2
 10
340.503448
 20
141.263000
 11
340.503448
 21
126.763000
  0
LINE
  8
0
 10
334.353455
 20
139.263000
 11
334.353455
 21
137.463013
  0
LINE
  8
0
 10
346.353455
 20
137.462982
 11
345.453461
 21
136.462982
  0
LINE
  8
0
 10
335.253448
 20
136.463013
 11
334.353455
 21
137.463013
  0
LINE
  8
0
 10
336.603455
 20
131.763000
 11
336.603455
 21
133.763000
  0
LINE
  8
0
 10
344.403442
 20
131.763000
 11
344.403442
 21
133.763000
  0
LINE
  8
0
 10
335.253448
 20
136.462997
 11
337.689209
 21
136.462997
  0
LINE
  8
0
 10
346.353455
 20
137.463013
 11
346.353455
 21
139.263000
  0
LINE
  8
0
 10
346.353455
 20
137.463013
 11
341.736328
 21
137.463013
  0
LINE
  8
0
 10
336.503448
 20
136.462997
 11
336.503448
 21
135.462997
  0
LINE
  8
0
 10
344.503448
 20
136.462997
 11
344.503448
 21
135.462997
  0
LINE
  8
0
 10
336.503448
 20
135.462997
 11
336.993469
 21
135.462997
  0
LINE
  8
0
 10
344.109558
 20
135.248245
 11
344.503418
 21
135.463074
  0
LINE
  8
0
 10
336.897308
 20
135.248184
 11
336.503448
 21
135.463013
  0
LINE
  8
0
 10
344.013428
 20
135.462997
 11
344.503448
 21
135.462997
  0
LINE
  8
0
 10
343.317688
 20
136.462997
 11
345.453430
 21
136.462997
  0
LINE
  8
0
 10
339.270569
 20
137.463013
 11
334.353455
 21
137.463013
  0
LINE
  8
0
 10
341.503448
 20
124.763000
 11
341.503448
 21
123.763046
  0
LINE
  8
0
 10
349.503448
 20
124.763000
 11
349.503448
 21
123.763000
  0
LINE
  8
0
 10
341.503448
 20
123.763000
 11
342.155304
 21
123.763000
  0
LINE
  8
0
 10
349.000763
 20
123.488884
 11
349.503418
 21
123.763062
  0
LINE
  8
0
 10
342.006073
 20
123.488846
 11
341.503418
 21
123.763023
  0
LINE
  8
0
  6
CENTER
 62
     2
 10
345.503448
 20
138.263000
 11
345.503448
 21
114.763000
  0
LINE
  8
0
  6
CENTER
 62
     2
 10
339.603455
 20
120.763000
 11
351.403442
 21
120.763000
  0
LINE
  8
0
 10
346.353455
 20
137.763000
 11
351.353455
 21
137.763000
  0
LINE
  8
0
 10
340.753448
 20
124.763000
 11
343.011444
 21
124.763000
  0
LINE
  8
0
 10
350.603455
 20
137.763000
 11
350.603455
 21
125.163010
  0
LINE
  8
0
 10
340.403442
 20
127.864288
 11
340.403442
 21
125.163010
  0
LINE
  8
0
 10
340.403442
 20
125.163010
 11
343.592957
 21
125.163010
  0
LINE
  8
0
 10
350.603455
 20
125.163025
 11
350.253448
 21
124.763016
  0
LINE
  8
0
 10
340.403442
 20
125.162994
 11
340.753448
 21
124.762993
  0
LINE
  8
0
 10
351.353455
 20
139.263000
 11
351.353455
 21
137.763000
  0
LINE
  8
0
 10
341.603455
 20
119.763000
 11
341.603455
 21
121.763000
  0
LINE
  8
0
 10
349.403442
 20
119.763000
 11
349.403442
 21
121.763000
  0
LINE
  8
0
 10
348.851562
 20
123.763000
 11
349.503448
 21
123.763000
  0
LINE
  8
0
 10
347.995422
 20
124.763000
 11
350.253448
 21
124.763000
  0
LINE
  8
0
 10
347.413940
 20
125.163010
 11
350.603455
 21
125.163010
  0
LINE
  8
0
 10
339.244751
 20
206.394928
 11
339.543091
 21
204.702881
  0
LINE
  8
0
 10
339.244843
 20
206.395065
 11
340.561066
 21
205.290619
  0
LINE
  8
0
 10
346.762177
 20
206.394943
 11
345.446014
 21
205.290543
  0
LINE
  8
0
 10
346.762207
 20
206.394882
 11
346.463867
 21
204.702850
  0
LINE
  8
0
  6
CENTER
 62
     2
 10
343.003448
 20
239.462982
 11
343.003448
 21
114.466492
  0
LINE
  8
0
 10
243.503494
 20
240.463013
 11
247.503494
 21
239.757706
  0
LINE
  8
0
 10
243.503464
 20
212.462997
 11
245.418396
 21
212.976105
  0
LINE
  8
0
 10
243.503464
 20
212.462982
 11
213.503464
 21
212.462982
  0
LINE
  8
0
 10
213.503464
 20
237.462982
 11
247.503464
 21
237.462982
  0
LINE
  8
0
 10
243.503464
 20
240.462982
 11
243.503464
 21
202.462982
  0
LINE
  8
0
 10
247.503464
 20
239.757690
 11
247.503464
 21
222.462982
  0
LINE
  8
0
 10
243.503464
 20
240.462982
 11
214.003464
 21
240.462982
  0
LINE
  8
0
 10
213.503464
 20
239.962982
 11
213.503464
 21
139.862976
  0
LINE
  8
0
 10
243.503464
 20
139.862976
 11
213.503464
 21
139.862976
  0
LINE
  8
0
 10
243.503464
 20
190.262985
 11
243.503464
 21
139.862976
  0
LINE
  8
0
 10
243.503464
 20
148.262985
 11
213.503464
 21
148.262985
  0
LINE
  8
0
 10
243.503464
 20
190.262985
 11
243.503464
 21
202.462982
  0
LINE
  8
0
 10
213.503464
 20
190.262985
 11
243.503464
 21
190.262985
  0
LINE
  8
0
 10
213.503464
 20
202.462982
 11
243.503464
 21
202.462982
  0
LINE
  8
0
 10
209.503418
 20
137.463013
 11
208.603424
 21
136.463028
  0
LINE
  8
0
 10
198.403473
 20
136.462967
 11
197.503464
 21
137.462982
  0
LINE
  8
0
 10
198.403473
 20
136.462997
 11
208.603455
 21
136.462997
  0
LINE
  8
0
 10
209.503448
 20
137.462997
 11
209.503448
 21
139.263000
  0
LINE
  8
0
 10
209.503448
 20
137.462997
 11
197.503479
 21
137.462997
  0
LINE
  8
0
 10
217.953461
 20
130.263000
 11
218.553452
 21
130.263000
  0
LINE
  8
0
 10
218.553452
 20
137.662994
 11
219.753464
 21
137.662994
  0
LINE
  8
0
 10
199.653473
 20
136.462997
 11
199.653473
 21
131.862991
  0
LINE
  8
0
 10
207.653473
 20
136.462997
 11
207.653473
 21
135.462997
  0
LINE
  8
0
 10
199.653473
 20
135.462997
 11
207.653473
 21
135.462997
  0
LINE
  8
0
 10
206.553421
 20
134.862991
 11
207.653442
 21
135.463013
  0
LINE
  8
0
 10
200.753510
 20
134.863052
 11
199.653503
 21
135.463058
  0
LINE
  8
0
 10
200.753479
 20
134.863007
 11
200.753479
 21
131.862991
  0
LINE
  8
0
 10
202.753479
 20
128.763000
 11
217.153458
 21
128.763000
  0
LINE
  8
0
 10
209.353455
 20
136.763000
 11
217.153458
 21
136.763000
  0
LINE
  8
0
 10
206.553497
 20
134.863007
 11
200.753479
 21
134.863007
  0
LINE
  8
0
 10
207.653473
 20
135.662994
 11
208.853455
 21
135.662994
  0
LINE
  8
0
 10
202.753479
 20
129.862991
 11
208.853455
 21
129.862991
  0
LINE
  8
0
 10
208.853455
 20
135.662994
 11
208.853455
 21
129.862991
  0
LINE
  8
0
 10
209.353455
 20
136.763000
 11
209.353455
 21
128.763000
  0
LINE
  8
0
 10
217.153458
 20
136.763000
 11
217.153458
 21
128.763000
  0
LINE
  8
0
 10
217.953461
 20
136.662994
 11
217.953461
 21
128.862991
  0
LINE
  8
0
 10
219.753464
 20
137.662994
 11
219.753464
 21
127.862991
  0
LINE
  8
0
 10
218.553452
 20
137.662994
 11
218.553452
 21
127.862991
  0
LINE
  8
0
 10
208.853455
 20
129.862976
 11
209.353455
 21
128.762970
  0
LINE
  8
0
 10
208.853455
 20
135.663010
 11
209.353455
 21
136.763000
  0
LINE
  8
0
 10
217.153458
 20
128.862991
 11
217.953461
 21
128.862991
  0
LINE
  8
0
 10
217.153458
 20
136.662994
 11
217.953461
 21
136.662994
  0
LINE
  8
0
 10
217.953461
 20
135.263000
 11
218.553452
 21
135.263000
  0
LINE
  8
0
 10
197.503479
 20
139.263000
 11
197.503479
 21
137.462997
  0
LINE
  8
0
 10
218.553452
 20
127.862991
 11
219.753464
 21
127.862991
  0
LINE
  8
0
 10
188.503464
 20
124.763000
 11
188.503464
 21
119.862991
  0
LINE
  8
0
 10
196.503464
 20
124.763000
 11
196.503464
 21
123.763000
  0
LINE
  8
0
 10
188.503464
 20
123.763000
 11
196.503464
 21
123.763000
  0
LINE
  8
0
 10
195.403427
 20
123.162994
 11
196.503433
 21
123.763000
  0
LINE
  8
0
 10
189.603516
 20
123.163078
 11
188.503510
 21
123.763077
  0
LINE
  8
0
 10
186.353470
 20
139.263000
 11
186.353470
 21
137.763000
  0
LINE
  8
0
 10
189.603470
 20
123.162994
 11
189.603470
 21
119.862991
  0
LINE
  8
0
 10
191.603470
 20
116.763000
 11
206.153473
 21
116.763000
  0
LINE
  8
0
 10
198.203461
 20
124.763000
 11
206.153473
 21
124.763000
  0
LINE
  8
0
 10
195.403488
 20
123.162994
 11
189.603485
 21
123.162994
  0
LINE
  8
0
 10
196.320145
 20
123.662994
 11
197.703461
 21
123.662994
  0
LINE
  8
0
 10
191.603470
 20
117.862991
 11
197.703461
 21
117.862991
  0
LINE
  8
0
 10
197.703461
 20
123.662994
 11
197.703461
 21
117.862991
  0
LINE
  8
0
 10
198.203461
 20
124.763000
 11
198.203461
 21
116.763000
  0
LINE
  8
0
 10
206.153473
 20
124.763000
 11
206.153473
 21
116.763000
  0
LINE
  8
0
 10
206.953461
 20
124.662994
 11
206.953461
 21
116.862991
  0
LINE
  8
0
 10
208.753479
 20
125.662994
 11
208.753479
 21
115.862991
  0
LINE
  8
0
 10
207.553467
 20
125.662994
 11
207.553467
 21
115.862991
  0
LINE
  8
0
 10
197.703445
 20
117.862991
 11
198.203445
 21
116.762985
  0
LINE
  8
0
 10
197.703400
 20
123.662994
 11
198.203415
 21
124.763000
  0
LINE
  8
0
 10
206.153473
 20
116.862991
 11
206.953461
 21
116.862991
  0
LINE
  8
0
 10
206.153473
 20
124.662994
 11
206.953461
 21
124.662994
  0
LINE
  8
0
 10
206.953461
 20
123.263000
 11
207.553467
 21
123.263000
  0
LINE
  8
0
 10
206.953461
 20
118.263000
 11
207.553467
 21
118.263000
  0
LINE
  8
0
 10
207.553467
 20
125.662994
 11
208.753479
 21
125.662994
  0
LINE
  8
0
 10
207.553467
 20
115.862991
 11
208.753479
 21
115.862991
  0
LINE
  8
0
 10
186.353470
 20
137.763000
 11
197.503479
 21
137.763000
  0
LINE
  8
0
 10
187.753464
 20
124.763000
 11
197.253464
 21
124.763000
  0
LINE
  8
0
 10
197.603470
 20
137.351852
 11
197.603470
 21
125.162994
  0
LINE
  8
0
 10
187.403473
 20
137.763000
 11
187.403473
 21
125.162994
  0
LINE
  8
0
 10
187.403473
 20
125.162994
 11
197.603470
 21
125.162994
  0
LINE
  8
0
 10
197.603470
 20
125.162987
 11
197.253479
 21
124.762993
  0
LINE
  8
0
 10
187.403442
 20
125.163025
 11
187.753448
 21
124.763023
  0
LINE
  8
0
 10
213.503464
 20
235.162979
 11
212.503448
 21
235.162979
  0
LINE
  8
0
 10
212.503464
 20
148.263000
 11
213.503464
 21
148.263000
  0
LINE
  8
0
 10
213.503464
 20
190.263000
 11
213.503464
 21
148.263000
  0
LINE
  8
0
 10
213.503464
 20
203.762985
 11
213.503464
 21
196.762985
  0
LINE
  8
0
  6
CENTER
 62
     2
 10
187.553467
 20
120.762985
 11
210.753479
 21
120.762985
  0
LINE
  8
0
  6
CENTER
 62
     2
 10
199.507370
 20
132.762985
 11
221.430817
 21
132.762985
  0
LINE
  8
0
 10
334.003357
 20
92.763000
 11
352.003357
 21
92.763000
  0
LINE
  8
0
 10
352.003357
 20
92.763000
 11
352.003357
 21
61.763000
  0
LINE
  8
0
 10
334.003357
 20
92.763000
 11
334.003357
 21
61.763000
  0
LINE
  8
0
 10
343.903351
 20
58.112991
 11
343.903351
 21
58.013000
  0
LINE
  8
0
 10
341.003357
 20
48.895172
 11
341.003357
 21
58.612991
  0
LINE
  8
0
 10
340.003357
 20
48.895172
 11
340.003357
 21
58.612991
  0
LINE
  8
0
 10
349.403351
 20
58.013000
 11
341.603363
 21
58.013000
  0
LINE
  8
0
 10
349.403351
 20
56.812988
 11
349.403351
 21
58.013000
  0
LINE
  8
0
 10
341.603363
 20
56.812988
 11
341.603363
 21
58.013000
  0
LINE
  8
0
 10
341.503357
 20
47.612991
 11
341.503357
 21
55.412994
  0
LINE
  8
0
 10
349.403351
 20
55.412994
 11
349.403351
 21
56.212997
  0
LINE
  8
0
 10
349.403351
 20
56.212997
 11
341.603363
 21
56.212997
  0
LINE
  8
0
 10
348.903351
 20
47.113007
 11
349.503326
 21
47.612995
  0
LINE
  8
0
 10
341.503357
 20
47.612965
 11
342.103363
 21
47.112965
  0
LINE
  8
0
  6
CENTER
 62
     2
 10
343.003357
 20
98.563004
 11
343.003357
 21
32.763000
  0
LINE
  8
0
  6
CENTER
 62
     2
 10
345.503357
 20
60.495842
 11
345.503357
 21
35.171783
  0
LINE
  8
0
  6
CENTER
 62
     2
 10
340.503357
 20
71.654114
 11
340.503357
 21
46.294403
  0
LINE
  8
0
 10
349.503357
 20
47.613007
 11
341.503357
 21
47.613007
  0
LINE
  8
0
 10
345.003357
 20
47.113007
 11
342.103363
 21
47.113007
  0
LINE
  8
0
 10
348.503357
 20
95.448441
 11
348.503357
 21
96.763000
  0
LINE
  8
0
 10
337.503357
 20
95.448441
 11
337.503357
 21
96.763000
  0
LINE
  8
0
 10
336.208649
 20
94.919495
 11
349.798065
 21
94.919495
  0
LINE
  8
0
 10
349.378479
 20
96.763000
 11
336.628204
 21
96.763000
  0
LINE
  8
0
 10
350.503448
 20
92.763008
 11
349.871002
 21
96.349831
  0
LINE
  8
0
 10
335.503326
 20
92.762985
 11
336.135803
 21
96.349823
  0
LINE
  8
0
 10
349.503357
 20
55.412994
 11
341.503357
 21
55.412994
  0
LINE
  8
0
 10
343.003357
 20
56.212997
 11
343.003357
 21
56.812988
  0
LINE
  8
0
 10
348.903351
 20
47.113007
 11
346.003357
 21
47.113007
  0
LINE
  8
0
 10
349.503357
 20
47.612991
 11
349.503357
 21
55.412994
  0
LINE
  8
0
 10
349.403351
 20
56.812988
 11
341.603363
 21
56.812988
  0
LINE
  8
0
 10
346.003357
 20
37.895187
 11
346.003357
 21
47.612991
  0
LINE
  8
0
 10
345.003357
 20
37.895187
 11
345.003357
 21
47.612991
  0
LINE
  8
0
 10
342.103363
 20
47.112991
 11
342.103363
 21
41.763000
  0
LINE
  8
0
 10
348.903351
 20
47.112991
 11
348.903351
 21
41.763000
  0
LINE
  8
0
 10
348.003357
 20
56.212997
 11
348.003357
 21
56.812988
  0
LINE
  8
0
 10
341.603363
 20
55.412994
 11
341.603363
 21
56.212997
  0
LINE
  8
0
 10
333.503357
 20
34.763000
 11
352.503357
 21
34.763000
  0
LINE
  8
0
 10
333.503357
 20
61.763000
 11
333.503357
 21
34.763000
  0
LINE
  8
0
 10
352.503357
 20
61.763000
 11
352.503357
 21
34.763000
  0
LINE
  8
0
 10
344.503357
 20
58.612991
 11
344.503357
 21
66.412994
  0
LINE
  8
0
 10
336.503357
 20
58.612991
 11
336.503357
 21
66.412994
  0
LINE
  8
0
 10
344.403351
 20
67.813004
 11
344.403351
 21
69.013000
  0
LINE
  8
0
 10
344.403351
 20
69.013000
 11
336.603363
 21
69.013000
  0
LINE
  8
0
 10
336.603363
 20
67.813004
 11
336.603363
 21
69.013000
  0
LINE
  8
0
 10
344.503357
 20
61.763000
 11
352.503357
 21
61.763000
  0
LINE
  8
0
 10
344.503357
 20
62.763000
 11
352.003357
 21
62.763000
  0
LINE
  8
0
 10
334.003357
 20
62.763000
 11
336.503357
 21
62.763000
  0
LINE
  8
0
 10
333.503357
 20
61.763000
 11
336.503357
 21
61.763000
  0
LINE
  8
0
 10
338.003357
 20
67.212997
 11
338.003357
 21
67.813004
  0
LINE
  8
0
 10
344.403351
 20
67.813004
 11
336.603363
 21
67.813004
  0
LINE
  8
0
 10
343.003357
 20
67.212997
 11
343.003357
 21
67.813004
  0
LINE
  8
0
 10
344.403351
 20
66.412994
 11
344.403351
 21
67.212997
  0
LINE
  8
0
 10
344.403381
 20
67.212997
 11
336.603363
 21
67.212997
  0
LINE
  8
0
 10
336.603363
 20
66.412994
 11
336.603363
 21
67.212997
  0
LINE
  8
0
 10
344.503357
 20
66.413010
 11
336.503357
 21
66.413010
  0
LINE
  8
0
 10
336.503387
 20
58.612988
 11
337.103363
 21
58.112991
  0
LINE
  8
0
 10
343.903320
 20
58.113010
 11
344.503326
 21
58.613018
  0
LINE
  8
0
 10
344.503357
 20
58.612991
 11
336.503357
 21
58.612991
  0
LINE
  8
0
 10
343.903381
 20
58.112991
 11
341.003357
 21
58.112991
  0
LINE
  8
0
 10
340.003357
 20
58.112991
 11
337.103363
 21
58.112991
  0
LINE
  8
0
 10
337.103363
 20
58.112991
 11
337.103363
 21
52.763000
  0
LINE
  8
0
 10
350.503326
 20
92.762985
 11
349.798065
 21
94.919487
  0
LINE
  8
0
 10
335.503326
 20
92.762985
 11
336.208618
 21
94.919472
  0
LINE
  8
0
 10
348.503357
 20
96.563004
 11
337.503357
 21
96.563004
  0
LINE
  8
0
 10
337.503357
 20
95.448441
 11
348.503357
 21
95.448441
  0
LINE
  8
0
 10
349.798035
 20
94.919479
 11
349.798035
 21
96.534958
  0
LINE
  8
0
 10
336.208649
 20
94.919479
 11
336.208649
 21
96.534988
  0
LINE
  8
0
 10
-199.196579
 20
-122.237022
 11
-180.196579
 21
-122.237022
  0
LINE
  8
0
 10
-199.196579
 20
-24.237022
 11
-197.196594
 21
-24.237022
  0
LINE
  8
0
 10
-180.196579
 20
-24.237022
 11
-180.196579
 21
-123.237022
  0
LINE
  8
0
 10
-199.196579
 20
-24.237022
 11
-199.196579
 21
-123.237022
  0
LINE
  8
0
 10
-182.196579
 20
-24.237022
 11
-180.196579
 21
-24.237022
  0
LINE
  8
0
 10
-182.196579
 20
-21.037041
 11
-182.196579
 21
-24.037041
  0
LINE
  8
0
 10
-197.196594
 20
-21.037041
 11
-197.196594
 21
-24.037041
  0
LINE
  8
0
 10
-197.196594
 20
-24.037041
 11
-182.196579
 21
-24.037041
  0
LINE
  8
0
 10
-191.696579
 20
-24.037041
 11
-191.696579
 21
-30.637032
  0
LINE
  8
0
 10
-191.696579
 20
-30.637032
 11
-184.196579
 21
-30.637032
  0
LINE
  8
0
 10
-184.196579
 20
-24.037041
 11
-184.196579
 21
-30.637032
  0
LINE
  8
0
 10
-191.696579
 20
-31.137032
 11
-191.696579
 21
-37.637032
  0
LINE
  8
0
 10
-191.696579
 20
-31.137032
 11
-184.196579
 21
-31.137032
  0
LINE
  8
0
 10
-184.196579
 20
-31.137032
 11
-184.196579
 21
-37.637032
  0
LINE
  8
0
 10
-191.696579
 20
-37.637032
 11
-184.196579
 21
-37.637032
  0
LINE
  8
0
 10
-195.196579
 20
-24.037041
 11
-195.196579
 21
-37.637032
  0
LINE
  8
0
 10
-192.196579
 20
-24.037041
 11
-192.196579
 21
-37.637032
  0
LINE
  8
0
 10
-195.196579
 20
-37.637032
 11
-192.196579
 21
-37.637032
  0
LINE
  8
0
 10
-195.196579
 20
-24.037041
 11
-192.196579
 21
-24.037041
  0
LINE
  8
0
 10
-193.696579
 20
-42.887016
 11
-190.196579
 21
-42.887016
  0
LINE
  8
0
 10
-193.696579
 20
-40.887032
 11
-193.696579
 21
-42.887016
  0
LINE
  8
0
 10
-193.696579
 20
-40.887032
 11
-190.196579
 21
-40.887032
  0
LINE
  8
0
 10
-190.196579
 20
-40.887032
 11
-190.196579
 21
-42.887016
  0
LINE
  8
0
 10
-189.196579
 20
-42.887016
 11
-185.696579
 21
-42.887016
  0
LINE
  8
0
 10
-189.196579
 20
-40.887032
 11
-189.196579
 21
-42.887016
  0
LINE
  8
0
 10
-189.196579
 20
-40.887032
 11
-185.696579
 21
-40.887032
  0
LINE
  8
0
 10
-185.696579
 20
-40.887032
 11
-185.696579
 21
-42.887016
  0
LINE
  8
0
 10
-195.196579
 20
-38.137032
 11
-184.196579
 21
-38.137032
  0
LINE
  8
0
 10
-184.196579
 20
-38.137032
 11
-184.196579
 21
-47.137016
  0
LINE
  8
0
 10
-195.196579
 20
-38.137032
 11
-195.196579
 21
-47.137016
  0
LINE
  8
0
 10
-195.196579
 20
-47.137016
 11
-184.196579
 21
-47.137016
  0
LINE
  8
0
 10
-182.196579
 20
-59.037025
 11
-182.196579
 21
-49.037025
  0
LINE
  8
0
 10
-197.196579
 20
-59.037025
 11
-197.196579
 21
-49.037025
  0
LINE
  8
0
 10
-181.696609
 20
-59.037025
 11
-197.696579
 21
-59.037025
  0
LINE
  8
0
 10
-197.196579
 20
-49.037025
 11
-182.196579
 21
-49.037025
  0
LINE
  8
0
 10
-196.696579
 20
-59.037025
 11
-196.696579
 21
-51.037025
  0
LINE
  8
0
 10
-182.696579
 20
-59.037025
 11
-182.696579
 21
-51.037025
  0
LINE
  8
0
 10
-182.696579
 20
-51.037025
 11
-187.196579
 21
-51.037025
  0
LINE
  8
0
 10
-192.196579
 20
-53.737022
 11
-192.196579
 21
-51.037025
  0
LINE
  8
0
 10
-187.196579
 20
-53.737022
 11
-187.196579
 21
-51.037025
  0
LINE
  8
0
 10
-192.196579
 20
-51.037025
 11
-196.696579
 21
-51.037025
  0
LINE
  8
0
 10
-180.196579
 20
-71.237022
 11
-199.196579
 21
-71.237022
  0
LINE
  8
0
 10
-199.196564
 20
-60.537029
 11
-197.696548
 21
-59.037006
  0
LINE
  8
0
 10
-180.196579
 20
-60.537033
 11
-181.696594
 21
-59.037022
  0
LINE
  8
0
 10
-199.196579
 20
-113.237022
 11
-180.196579
 21
-113.237022
  0
LINE
  8
0
 10
-180.196579
 20
-121.637032
 11
-199.196579
 21
-121.637032
  0
LINE
  8
0
 10
-181.696609
 20
-59.037025
 11
-197.696579
 21
-59.037025
  0
LINE
  8
0
 10
-181.696609
 20
-59.037025
 11
-197.696579
 21
-59.037025
  0
LINE
  8
0
 10
-181.696609
 20
-59.037025
 11
-197.696579
 21
-59.037025
  0
LINE
  8
0
 10
-183.196579
 20
-58.537025
 11
-196.196579
 21
-58.537025
  0
LINE
  8
0
 10
-183.196579
 20
-51.537025
 11
-186.696579
 21
-51.537025
  0
LINE
  8
0
 10
-196.196579
 20
-58.537025
 11
-196.196579
 21
-51.537025
  0
LINE
  8
0
 10
-183.196579
 20
-58.537025
 11
-183.196579
 21
-51.537025
  0
LINE
  8
0
 10
-192.696579
 20
-53.537025
 11
-192.696579
 21
-51.537025
  0
LINE
  8
0
 10
-186.696579
 20
-53.537025
 11
-186.696579
 21
-51.537025
  0
LINE
  8
0
 10
-196.196579
 20
-51.537025
 11
-192.696579
 21
-51.537025
  0
LINE
  8
0
 10
-197.196594
 20
-21.669502
 11
-182.196579
 21
-21.669502
  0
LINE
  8
0
 10
-182.196579
 20
-24.037041
 11
-182.196579
 21
-49.037010
  0
LINE
  8
0
 10
-197.196594
 20
-24.037041
 11
-197.196594
 21
-49.037010
  0
LINE
  8
0
 10
-197.196594
 20
-21.037041
 11
-182.196579
 21
-21.037041
  0
LINE
  8
0
 10
-185.467941
 20
-55.276115
 11
-186.407623
 21
-54.934093
  0
LINE
  8
0
 10
-193.925201
 20
-55.276108
 11
-192.985504
 21
-54.934090
  0
LINE
  8
0
 10
-191.775040
 20
-54.037025
 11
-187.618118
 21
-54.037025
  0
LINE
  8
0
 10
-191.775040
 20
-53.437035
 11
-187.618118
 21
-53.437035
  0
LINE
  8
0
 10
-189.396576
 20
-55.815483
 11
-189.396576
 21
-54.837029
  0
LINE
  8
0
 10
-189.996582
 20
-55.815483
 11
-189.996582
 21
-54.837029
  0
LINE
  8
0
 10
-189.996582
 20
-54.837029
 11
-189.396576
 21
-54.837029
  0
LINE
  8
0
 10
-193.455353
 20
-55.105122
 11
-193.156998
 21
-56.797157
  0
LINE
  8
0
 10
-193.455276
 20
-55.105034
 11
-192.139084
 21
-56.209457
  0
LINE
  8
0
 10
-185.937820
 20
-55.105110
 11
-186.236160
 21
-56.797146
  0
LINE
  8
0
 10
-185.937866
 20
-55.105042
 11
-187.254074
 21
-56.209469
  0
LINE
  8
0
  6
CENTER
 62
     2
 10
-189.696579
 20
-19.037041
 11
-189.696579
 21
-127.637016
  0
LINE
  8
0
  6
CENTER
 62
     2
 10
-192.196579
 20
-118.237022
 11
-192.196579
 21
-127.637016
  0
LINE
  8
0
  6
CENTER
 62
     2
 10
-187.196579
 20
-118.237022
 11
-187.196579
 21
-127.637016
  0
LINE
  8
0
 10
-186.696579
 20
-124.237030
 11
-186.196579
 21
-123.737022
  0
LINE
  8
0
 10
-198.196579
 20
-123.237022
 11
-198.196579
 21
-123.737022
  0
LINE
  8
0
 10
-181.196579
 20
-123.237022
 11
-181.196579
 21
-123.737022
  0
LINE
  8
0
 10
-199.196579
 20
-123.237022
 11
-180.196579
 21
-123.237022
  0
LINE
  8
0
 10
-197.696548
 20
-124.237022
 11
-181.696564
 21
-124.237022
  0
LINE
  8
0
 10
-198.196564
 20
-123.737015
 11
-197.696548
 21
-124.237022
  0
LINE
  8
0
 10
-181.696548
 20
-124.237022
 11
-181.196548
 21
-123.737022
  0
LINE
  8
0
 10
-186.196579
 20
-123.237022
 11
-186.196579
 21
-123.737022
  0
LINE
  8
0
 10
-289.196625
 20
-21.037006
 11
-285.196625
 21
-21.742315
  0
LINE
  8
0
 10
-289.196594
 20
-49.037022
 11
-287.281708
 21
-48.523926
  0
LINE
  8
0
 10
-289.196594
 20
-49.037025
 11
-319.196594
 21
-49.037025
  0
LINE
  8
0
 10
-319.196594
 20
-24.037025
 11
-285.196594
 21
-24.037025
  0
LINE
  8
0
 10
-289.196594
 20
-21.037025
 11
-289.196594
 21
-59.037025
  0
LINE
  8
0
 10
-285.196594
 20
-21.742317
 11
-285.196594
 21
-39.037025
  0
LINE
  8
0
 10
-289.196594
 20
-21.037025
 11
-318.696594
 21
-21.037025
  0
LINE
  8
0
 10
-319.196594
 20
-21.537025
 11
-319.196594
 21
-121.637032
  0
LINE
  8
0
 10
-289.196594
 20
-121.637032
 11
-319.196594
 21
-121.637032
  0
LINE
  8
0
 10
-289.196594
 20
-113.237022
 11
-289.196594
 21
-121.637032
  0
LINE
  8
0
 10
-289.196594
 20
-71.237022
 11
-289.196594
 21
-113.237022
  0
LINE
  8
0
 10
-289.196594
 20
-113.237022
 11
-319.196594
 21
-113.237022
  0
LINE
  8
0
 10
-289.196594
 20
-71.237022
 11
-289.196594
 21
-59.037025
  0
LINE
  8
0
 10
-319.196594
 20
-71.237022
 11
-289.196594
 21
-71.237022
  0
LINE
  8
0
 10
-319.196594
 20
-59.037025
 11
-289.196594
 21
-59.037025
  0
LINE
  8
0
 10
-320.196594
 20
-26.337029
 11
-319.196594
 21
-26.337029
  0
LINE
  8
0
 10
-319.196594
 20
-113.237030
 11
-320.196594
 21
-113.237030
  0
LINE
  8
0
  6
CENTER
 62
     2
 10
-340.196594
 20
-120.565971
 11
-340.196594
 21
-126.271942
  0
LINE
  8
0
  6
CENTER
 62
     2
 10
-329.196594
 20
-120.565971
 11
-329.196594
 21
-126.271942
  0
LINE
  8
0
 10
-345.696594
 20
-124.237022
 11
-334.696594
 21
-124.237022
  0
LINE
  8
0
 10
-346.196594
 20
-123.237022
 11
-346.196594
 21
-123.737022
  0
LINE
  8
0
 10
-334.196594
 20
-123.237022
 11
-334.196594
 21
-123.737022
  0
LINE
  8
0
 10
-323.196594
 20
-123.237022
 11
-323.196594
 21
-123.737022
  0
LINE
  8
0
 10
-334.696594
 20
-124.237022
 11
-323.696594
 21
-124.237022
  0
LINE
  8
0
 10
-323.196594
 20
-123.737015
 11
-323.696594
 21
-124.237030
  0
LINE
  8
0
 10
-334.196564
 20
-123.737038
 11
-334.696564
 21
-124.237053
  0
LINE
  8
0
 10
-346.196472
 20
-123.736946
 11
-345.696472
 21
-124.236938
  0
LINE
  8
0
 10
-347.196594
 20
-123.237022
 11
-320.196594
 21
-123.237022
  0
LINE
  8
0
 10
-320.196594
 20
-122.237022
 11
-320.196594
 21
-123.237022
  0
LINE
  8
0
 10
-347.196594
 20
-122.237022
 11
-347.196594
 21
-123.237022
  0
LINE
  8
0
 10
-180.196518
 20
-202.736923
 11
-180.196518
 21
-229.736923
  0
LINE
  8
0
 10
-199.196518
 20
-202.736923
 11
-199.196518
 21
-229.736923
  0
LINE
  8
0
 10
-199.196518
 20
-229.736923
 11
-180.196518
 21
-229.736923
  0
LINE
  8
0
 10
-199.196518
 20
-202.736923
 11
-180.196518
 21
-202.736923
  0
LINE
  8
0
 10
-198.696518
 20
-171.736923
 11
-198.696518
 21
-202.736923
  0
LINE
  8
0
 10
-180.696518
 20
-171.736923
 11
-180.696518
 21
-202.736923
  0
LINE
  8
0
 10
-198.696518
 20
-171.736923
 11
-180.696518
 21
-171.736923
  0
LINE
  8
0
 10
-197.196564
 20
-171.736938
 11
-196.564102
 21
-168.150101
  0
LINE
  8
0
 10
-182.196457
 20
-171.736938
 11
-182.828903
 21
-168.150116
  0
LINE
  8
0
 10
-183.321381
 20
-167.736923
 11
-196.071671
 21
-167.736923
  0
LINE
  8
0
 10
-196.491211
 20
-169.580429
 11
-182.901810
 21
-169.580429
  0
LINE
  8
0
 10
-195.196533
 20
-169.051483
 11
-195.196533
 21
-167.736923
  0
LINE
  8
0
 10
-184.196533
 20
-169.051483
 11
-184.196533
 21
-167.736923
  0
LINE
  8
0
 10
-196.491226
 20
-169.580444
 11
-196.491226
 21
-167.964935
  0
LINE
  8
0
 10
-182.901825
 20
-169.580444
 11
-182.901825
 21
-167.964966
  0
LINE
  8
0
 10
-195.196518
 20
-169.051483
 11
-184.196518
 21
-169.051483
  0
LINE
  8
0
 10
-184.196518
 20
-167.936920
 11
-195.196518
 21
-167.936920
  0
LINE
  8
0
 10
-197.196548
 20
-171.736954
 11
-196.491257
 21
-169.580475
  0
LINE
  8
0
 10
-182.196503
 20
-171.736938
 11
-182.901779
 21
-169.580429
  0
LINE
  8
0
 10
-198.696518
 20
-201.736923
 11
-180.696518
 21
-201.736923
  0
LINE
  8
0
  6
CENTER
 62
     2
 10
-189.696518
 20
-165.736923
 11
-189.696518
 21
-231.736923
  0
LINE
  8
0
  6
CENTER
 62
     2
 10
-192.196518
 20
-205.025131
 11
-192.196518
 21
-218.498322
  0
LINE
  8
0
  6
CENTER
 62
     2
 10
-185.623764
 20
-211.736923
 11
-198.829269
 21
-211.736923
  0
LINE
  8
0
  6
CENTER
 62
     2
 10
-187.196518
 20
-216.025131
 11
-187.196518
 21
-229.498322
  0
LINE
  8
0
  6
CENTER
 62
     2
 10
-180.623764
 20
-222.736923
 11
-193.829269
 21
-222.736923
  0
LINE
  8
0
 10
67.153381
 20
-24.237022
 11
69.153366
 21
-24.237022
  0
LINE
  8
0
 10
86.153381
 20
-24.237022
 11
86.153381
 21
-133.837021
  0
LINE
  8
0
 10
67.153381
 20
-24.237022
 11
67.153381
 21
-133.837021
  0
LINE
  8
0
 10
84.153381
 20
-24.237022
 11
86.153381
 21
-24.237022
  0
LINE
  8
0
 10
84.153381
 20
-21.037041
 11
84.153381
 21
-24.037041
  0
LINE
  8
0
 10
69.153366
 20
-21.037041
 11
69.153366
 21
-24.037041
  0
LINE
  8
0
 10
69.153366
 20
-24.037041
 11
84.153381
 21
-24.037041
  0
LINE
  8
0
 10
74.653381
 20
-24.037041
 11
74.653381
 21
-30.637032
  0
LINE
  8
0
 10
74.653381
 20
-30.637032
 11
82.153381
 21
-30.637032
  0
LINE
  8
0
 10
82.153381
 20
-24.037041
 11
82.153381
 21
-30.637032
  0
LINE
  8
0
 10
74.653381
 20
-31.137032
 11
74.653381
 21
-37.637032
  0
LINE
  8
0
 10
74.653381
 20
-31.137032
 11
82.153381
 21
-31.137032
  0
LINE
  8
0
 10
82.153381
 20
-31.137032
 11
82.153381
 21
-37.637032
  0
LINE
  8
0
 10
74.653381
 20
-37.637032
 11
82.153381
 21
-37.637032
  0
LINE
  8
0
 10
71.153381
 20
-24.037041
 11
71.153381
 21
-37.637032
  0
LINE
  8
0
 10
74.153381
 20
-24.037041
 11
74.153381
 21
-37.637032
  0
LINE
  8
0
 10
71.153381
 20
-37.637032
 11
74.153381
 21
-37.637032
  0
LINE
  8
0
 10
71.153381
 20
-24.037041
 11
74.153381
 21
-24.037041
  0
LINE
  8
0
 10
72.653381
 20
-42.887016
 11
76.153381
 21
-42.887016
  0
LINE
  8
0
 10
72.653381
 20
-40.887032
 11
72.653381
 21
-42.887016
  0
LINE
  8
0
 10
72.653381
 20
-40.887032
 11
76.153381
 21
-40.887032
  0
LINE
  8
0
 10
76.153381
 20
-40.887032
 11
76.153381
 21
-42.887016
  0
LINE
  8
0
 10
77.153381
 20
-42.887016
 11
80.653381
 21
-42.887016
  0
LINE
  8
0
 10
77.153381
 20
-40.887032
 11
77.153381
 21
-42.887016
  0
LINE
  8
0
 10
77.153381
 20
-40.887032
 11
80.653381
 21
-40.887032
  0
LINE
  8
0
 10
80.653381
 20
-40.887032
 11
80.653381
 21
-42.887016
  0
LINE
  8
0
 10
71.153381
 20
-38.137032
 11
82.153381
 21
-38.137032
  0
LINE
  8
0
 10
82.153381
 20
-38.137032
 11
82.153381
 21
-47.137016
  0
LINE
  8
0
 10
71.153381
 20
-38.137032
 11
71.153381
 21
-47.137016
  0
LINE
  8
0
 10
71.153381
 20
-47.137016
 11
82.153381
 21
-47.137016
  0
LINE
  8
0
 10
84.153381
 20
-59.037025
 11
84.153381
 21
-49.037025
  0
LINE
  8
0
 10
69.153381
 20
-59.037025
 11
69.153381
 21
-49.037025
  0
LINE
  8
0
 10
84.653351
 20
-59.037025
 11
68.653381
 21
-59.037025
  0
LINE
  8
0
 10
69.153381
 20
-49.037025
 11
84.153381
 21
-49.037025
  0
LINE
  8
0
 10
69.653381
 20
-59.037025
 11
69.653381
 21
-51.037025
  0
LINE
  8
0
 10
83.653381
 20
-59.037025
 11
83.653381
 21
-51.037025
  0
LINE
  8
0
 10
83.653381
 20
-51.037025
 11
79.153381
 21
-51.037025
  0
LINE
  8
0
 10
74.153381
 20
-53.737022
 11
74.153381
 21
-51.037025
  0
LINE
  8
0
 10
79.153381
 20
-53.737022
 11
79.153381
 21
-51.037025
  0
LINE
  8
0
 10
74.153381
 20
-51.037025
 11
69.653381
 21
-51.037025
  0
LINE
  8
0
 10
86.153381
 20
-71.237022
 11
67.153381
 21
-71.237022
  0
LINE
  8
0
 10
67.153381
 20
-60.537022
 11
68.653397
 21
-59.037003
  0
LINE
  8
0
 10
86.153381
 20
-60.537052
 11
84.653358
 21
-59.037033
  0
LINE
  8
0
 10
67.153381
 20
-113.237022
 11
86.153381
 21
-113.237022
  0
LINE
  8
0
 10
86.153381
 20
-133.837021
 11
67.153381
 21
-133.837021
  0
LINE
  8
0
 10
84.653351
 20
-59.037025
 11
68.653381
 21
-59.037025
  0
LINE
  8
0
 10
84.653351
 20
-59.037025
 11
68.653381
 21
-59.037025
  0
LINE
  8
0
 10
84.653351
 20
-59.037025
 11
68.653381
 21
-59.037025
  0
LINE
  8
0
 10
83.153381
 20
-58.537025
 11
70.153381
 21
-58.537025
  0
LINE
  8
0
 10
83.153381
 20
-51.537025
 11
79.653381
 21
-51.537025
  0
LINE
  8
0
 10
70.153381
 20
-58.537025
 11
70.153381
 21
-51.537025
  0
LINE
  8
0
 10
83.153381
 20
-58.537025
 11
83.153381
 21
-51.537025
  0
LINE
  8
0
 10
73.653381
 20
-53.537025
 11
73.653381
 21
-51.537025
  0
LINE
  8
0
 10
79.653381
 20
-53.537025
 11
79.653381
 21
-51.537025
  0
LINE
  8
0
 10
70.153381
 20
-51.537025
 11
73.653381
 21
-51.537025
  0
LINE
  8
0
 10
84.153381
 20
-24.037041
 11
84.153381
 21
-49.037010
  0
LINE
  8
0
 10
69.153366
 20
-24.037041
 11
69.153366
 21
-49.037010
  0
LINE
  8
0
 10
69.153366
 20
-21.037041
 11
84.153381
 21
-21.037041
  0
LINE
  8
0
 10
80.882011
 20
-55.276112
 11
79.942322
 21
-54.934093
  0
LINE
  8
0
 10
72.424759
 20
-55.276108
 11
73.364456
 21
-54.934090
  0
LINE
  8
0
 10
74.574921
 20
-54.037025
 11
78.731842
 21
-54.037025
  0
LINE
  8
0
 10
74.574921
 20
-53.437035
 11
78.731842
 21
-53.437035
  0
LINE
  8
0
 10
76.953384
 20
-55.815483
 11
76.953384
 21
-54.837029
  0
LINE
  8
0
 10
76.353378
 20
-55.815483
 11
76.353378
 21
-54.837029
  0
LINE
  8
0
 10
76.353378
 20
-54.837029
 11
76.953384
 21
-54.837029
  0
LINE
  8
0
 10
72.894669
 20
-55.105125
 11
73.193016
 21
-56.797146
  0
LINE
  8
0
 10
72.894730
 20
-55.104973
 11
74.210976
 21
-56.209438
  0
LINE
  8
0
 10
80.412117
 20
-55.105064
 11
79.095932
 21
-56.209476
  0
LINE
  8
0
 10
80.412132
 20
-55.105099
 11
80.113785
 21
-56.797138
  0
LINE
  8
0
  6
CENTER
 62
     2
 10
76.653381
 20
-16.037041
 11
76.653381
 21
-138.837021
  0
LINE
  8
0
 10
-22.846626
 20
-21.037024
 11
-18.846626
 21
-21.742331
  0
LINE
  8
0
 10
-22.846630
 20
-49.037048
 11
-20.931713
 21
-48.523949
  0
LINE
  8
0
 10
-22.846615
 20
-49.037041
 11
-52.846615
 21
-49.037041
  0
LINE
  8
0
 10
-52.846615
 20
-24.037041
 11
-18.846615
 21
-24.037041
  0
LINE
  8
0
 10
-18.846615
 20
-21.742332
 11
-18.846615
 21
-39.037041
  0
LINE
  8
0
 10
-22.846615
 20
-21.037041
 11
-52.346615
 21
-21.037041
  0
LINE
  8
0
 10
-22.846615
 20
-21.037041
 11
-22.846615
 21
-113.237038
  0
LINE
  8
0
 10
-22.846615
 20
-113.237038
 11
-52.846615
 21
-113.237038
  0
LINE
  8
0
 10
-52.846615
 20
-71.237038
 11
-22.846615
 21
-71.237038
  0
LINE
  8
0
 10
-52.846615
 20
-59.037041
 11
-22.846615
 21
-59.037041
  0
LINE
  8
0
 10
-57.946606
 20
-125.637032
 11
-67.746613
 21
-125.637032
  0
LINE
  8
0
 10
-57.946621
 20
-124.437019
 11
-57.946621
 21
-125.637016
  0
LINE
  8
0
 10
-67.746628
 20
-124.437035
 11
-67.746628
 21
-125.637032
  0
LINE
  8
0
 10
-57.946606
 20
-124.437035
 11
-67.746613
 21
-124.437035
  0
LINE
  8
0
 10
-65.346619
 20
-123.937035
 11
-65.346619
 21
-124.437035
  0
LINE
  8
0
 10
-60.346615
 20
-123.937035
 11
-60.346615
 21
-124.437035
  0
LINE
  8
0
 10
-59.096615
 20
-123.937035
 11
-66.596619
 21
-123.937035
  0
LINE
  8
0
 10
-67.946625
 20
-122.237022
 11
-67.946625
 21
-122.937035
  0
LINE
  8
0
 10
-57.746609
 20
-122.237022
 11
-57.746609
 21
-122.937019
  0
LINE
  8
0
 10
-57.746609
 20
-122.937035
 11
-67.946625
 21
-122.937035
  0
LINE
  8
0
 10
-66.596619
 20
-123.658714
 11
-66.596619
 21
-123.937035
  0
LINE
  8
0
 10
-59.096615
 20
-123.658714
 11
-59.096615
 21
-123.937019
  0
LINE
  8
0
 10
-57.746632
 20
-122.937012
 11
-59.096630
 21
-123.658699
  0
LINE
  8
0
 10
-66.596596
 20
-123.658653
 11
-67.946594
 21
-122.936966
  0
LINE
  8
0
 10
-59.096615
 20
-123.658714
 11
-66.596619
 21
-123.658714
  0
LINE
  8
0
 10
-68.946609
 20
-125.637032
 11
-78.746613
 21
-125.637032
  0
LINE
  8
0
 10
-68.946625
 20
-124.437019
 11
-68.946625
 21
-125.637016
  0
LINE
  8
0
 10
-78.746628
 20
-124.437035
 11
-78.746628
 21
-125.637032
  0
LINE
  8
0
 10
-68.946609
 20
-124.437035
 11
-78.746613
 21
-124.437035
  0
LINE
  8
0
 10
-76.346619
 20
-123.937035
 11
-76.346619
 21
-124.437035
  0
LINE
  8
0
 10
-71.346619
 20
-123.937035
 11
-71.346619
 21
-124.437035
  0
LINE
  8
0
 10
-70.096619
 20
-123.937035
 11
-77.596619
 21
-123.937035
  0
LINE
  8
0
 10
-78.946625
 20
-122.237022
 11
-78.946625
 21
-122.937035
  0
LINE
  8
0
 10
-68.746613
 20
-122.237022
 11
-68.746613
 21
-122.937019
  0
LINE
  8
0
 10
-68.746613
 20
-122.937035
 11
-78.946625
 21
-122.937035
  0
LINE
  8
0
 10
-77.596619
 20
-123.658714
 11
-77.596619
 21
-123.937035
  0
LINE
  8
0
 10
-70.096619
 20
-123.658714
 11
-70.096619
 21
-123.937019
  0
LINE
  8
0
 10
-68.746635
 20
-122.937004
 11
-70.096626
 21
-123.658691
  0
LINE
  8
0
 10
-77.596596
 20
-123.658646
 11
-78.946594
 21
-122.936958
  0
LINE
  8
0
 10
-70.096619
 20
-123.658714
 11
-77.596619
 21
-123.658714
  0
LINE
  8
0
 10
-22.846615
 20
-133.837036
 11
-52.846615
 21
-133.837036
  0
LINE
  8
0
 10
-22.846615
 20
-113.237038
 11
-22.846615
 21
-133.837036
  0
LINE
  8
0
 10
-52.846615
 20
-26.337044
 11
-53.846630
 21
-26.337044
  0
LINE
  8
0
 10
-53.846615
 20
-113.237022
 11
-52.846615
 21
-113.237022
  0
LINE
  8
0
 10
-52.846615
 20
-21.537041
 11
-52.846615
 21
-133.837036
  0
LINE
  8
0
  6
CENTER
 62
     2
 10
-73.846634
 20
-118.911026
 11
-73.846634
 21
-128.889069
  0
LINE
  8
0
  6
CENTER
 62
     2
 10
-62.846630
 20
-118.911026
 11
-62.846630
 21
-128.889069
  0
LINE
  8
0
 10
86.153343
 20
-200.736923
 11
86.153343
 21
-227.736923
  0
LINE
  8
0
 10
67.153343
 20
-200.736923
 11
67.153343
 21
-227.736923
  0
LINE
  8
0
 10
67.153343
 20
-227.736923
 11
86.153343
 21
-227.736923
  0
LINE
  8
0
 10
71.653343
 20
-204.236923
 11
71.653343
 21
-205.291702
  0
LINE
  8
0
 10
76.653343
 20
-204.236923
 11
76.653343
 21
-205.291702
  0
LINE
  8
0
 10
81.653343
 20
-215.236923
 11
81.653343
 21
-216.291702
  0
LINE
  8
0
 10
76.653343
 20
-215.236923
 11
76.653343
 21
-216.291702
  0
LINE
  8
0
 10
71.653343
 20
-204.236923
 11
76.653343
 21
-204.236923
  0
LINE
  8
0
 10
76.653343
 20
-215.236923
 11
81.653343
 21
-215.236923
  0
LINE
  8
0
  6
CENTER
 62
     2
 10
74.153343
 20
-204.076813
 11
74.153343
 21
-215.351151
  0
LINE
  8
0
  6
CENTER
 62
     2
 10
79.828590
 20
-209.736923
 11
68.212608
 21
-209.736923
  0
LINE
  8
0
 10
78.053345
 20
-208.736923
 11
78.053345
 21
-210.736923
  0
LINE
  8
0
 10
70.253342
 20
-208.736923
 11
70.253342
 21
-210.736923
  0
LINE
  8
0
  6
CENTER
 62
     2
 10
79.153343
 20
-215.076813
 11
79.153343
 21
-226.351151
  0
LINE
  8
0
  6
CENTER
 62
     2
 10
84.828590
 20
-220.736923
 11
73.212608
 21
-220.736923
  0
LINE
  8
0
 10
83.053345
 20
-219.736923
 11
83.053345
 21
-221.736923
  0
LINE
  8
0
 10
75.253342
 20
-219.736923
 11
75.253342
 21
-221.736923
  0
LINE
  8
0
 10
67.153343
 20
-200.736923
 11
86.153343
 21
-200.736923
  0
LINE
  8
0
 10
67.653343
 20
-169.736923
 11
67.653343
 21
-200.736923
  0
LINE
  8
0
 10
85.653343
 20
-169.736923
 11
85.653343
 21
-200.736923
  0
LINE
  8
0
 10
67.653343
 20
-169.736923
 11
85.653343
 21
-169.736923
  0
LINE
  8
0
 10
69.153297
 20
-169.736938
 11
69.785751
 21
-166.150116
  0
LINE
  8
0
 10
84.153419
 20
-169.736938
 11
83.520966
 21
-166.150116
  0
LINE
  8
0
 10
83.028473
 20
-165.736923
 11
70.278191
 21
-165.736923
  0
LINE
  8
0
 10
69.858643
 20
-167.580429
 11
83.448051
 21
-167.580429
  0
LINE
  8
0
 10
71.153336
 20
-167.051483
 11
71.153336
 21
-165.736923
  0
LINE
  8
0
 10
82.153336
 20
-167.051483
 11
82.153336
 21
-165.736923
  0
LINE
  8
0
 10
69.858635
 20
-167.580444
 11
69.858635
 21
-165.964935
  0
LINE
  8
0
 10
83.448036
 20
-167.580444
 11
83.448036
 21
-165.964966
  0
LINE
  8
0
 10
71.153343
 20
-167.051483
 11
82.153343
 21
-167.051483
  0
LINE
  8
0
 10
82.153343
 20
-165.936920
 11
71.153343
 21
-165.936920
  0
LINE
  8
0
 10
69.153313
 20
-169.736938
 11
69.858604
 21
-167.580460
  0
LINE
  8
0
 10
84.153336
 20
-169.736938
 11
83.448059
 21
-167.580429
  0
LINE
  8
0
 10
67.653343
 20
-197.535919
 11
85.653343
 21
-197.535919
  0
LINE
  8
0
 10
67.653343
 20
-199.736923
 11
85.653343
 21
-199.736923
  0
LINE
  8
0
  6
CENTER
 62
     2
 10
76.653343
 20
-160.936920
 11
76.653343
 21
-232.736923
  0
LINE
  8
0
 10
333.503357
 20
-24.237007
 11
335.503357
 21
-24.237007
  0
LINE
  8
0
 10
352.503357
 20
-24.237007
 11
352.503357
 21
-133.837006
  0
LINE
  8
0
 10
333.503357
 20
-24.237007
 11
333.503357
 21
-133.837006
  0
LINE
  8
0
 10
350.503357
 20
-24.237007
 11
352.503357
 21
-24.237007
  0
LINE
  8
0
 10
350.503357
 20
-21.037025
 11
350.503357
 21
-24.037025
  0
LINE
  8
0
 10
335.503357
 20
-21.037025
 11
335.503357
 21
-24.037025
  0
LINE
  8
0
 10
335.503357
 20
-24.037025
 11
350.503357
 21
-24.037025
  0
LINE
  8
0
 10
341.003357
 20
-24.037025
 11
341.003357
 21
-30.637016
  0
LINE
  8
0
 10
341.003357
 20
-30.637016
 11
348.503357
 21
-30.637016
  0
LINE
  8
0
 10
348.503357
 20
-24.037025
 11
348.503357
 21
-30.637016
  0
LINE
  8
0
 10
341.003357
 20
-31.137016
 11
341.003357
 21
-37.637016
  0
LINE
  8
0
 10
341.003357
 20
-31.137016
 11
348.503357
 21
-31.137016
  0
LINE
  8
0
 10
348.503357
 20
-31.137016
 11
348.503357
 21
-37.637016
  0
LINE
  8
0
 10
341.003357
 20
-37.637016
 11
348.503357
 21
-37.637016
  0
LINE
  8
0
 10
337.503357
 20
-24.037025
 11
337.503357
 21
-37.637016
  0
LINE
  8
0
 10
340.503357
 20
-24.037025
 11
340.503357
 21
-37.637016
  0
LINE
  8
0
 10
337.503357
 20
-37.637016
 11
340.503357
 21
-37.637016
  0
LINE
  8
0
 10
337.503357
 20
-24.037025
 11
340.503357
 21
-24.037025
  0
LINE
  8
0
 10
339.003357
 20
-42.887001
 11
342.503357
 21
-42.887001
  0
LINE
  8
0
 10
339.003357
 20
-40.887016
 11
339.003357
 21
-42.887001
  0
LINE
  8
0
 10
339.003357
 20
-40.887016
 11
342.503357
 21
-40.887016
  0
LINE
  8
0
 10
342.503357
 20
-40.887016
 11
342.503357
 21
-42.887001
  0
LINE
  8
0
 10
343.503357
 20
-42.887001
 11
347.003357
 21
-42.887001
  0
LINE
  8
0
 10
343.503357
 20
-40.887016
 11
343.503357
 21
-42.887001
  0
LINE
  8
0
 10
343.503357
 20
-40.887016
 11
347.003357
 21
-40.887016
  0
LINE
  8
0
 10
347.003357
 20
-40.887016
 11
347.003357
 21
-42.887001
  0
LINE
  8
0
 10
337.503357
 20
-38.137016
 11
348.503357
 21
-38.137016
  0
LINE
  8
0
 10
348.503357
 20
-38.137016
 11
348.503357
 21
-47.137001
  0
LINE
  8
0
 10
337.503357
 20
-38.137016
 11
337.503357
 21
-47.137001
  0
LINE
  8
0
 10
337.503357
 20
-47.137001
 11
348.503357
 21
-47.137001
  0
LINE
  8
0
 10
350.503357
 20
-59.037010
 11
350.503357
 21
-49.037010
  0
LINE
  8
0
 10
335.503357
 20
-59.037010
 11
335.503357
 21
-49.037010
  0
LINE
  8
0
 10
351.003326
 20
-59.037010
 11
335.003357
 21
-59.037010
  0
LINE
  8
0
 10
335.503357
 20
-49.037010
 11
350.503357
 21
-49.037010
  0
LINE
  8
0
 10
336.003357
 20
-59.037010
 11
336.003357
 21
-51.037010
  0
LINE
  8
0
 10
350.003357
 20
-59.037010
 11
350.003357
 21
-51.037010
  0
LINE
  8
0
 10
350.003357
 20
-51.037010
 11
345.503357
 21
-51.037010
  0
LINE
  8
0
 10
340.503357
 20
-53.737007
 11
340.503357
 21
-51.037010
  0
LINE
  8
0
 10
345.503357
 20
-53.737007
 11
345.503357
 21
-51.037010
  0
LINE
  8
0
 10
340.503357
 20
-51.037010
 11
336.003357
 21
-51.037010
  0
LINE
  8
0
 10
352.503357
 20
-71.237007
 11
333.503357
 21
-71.237007
  0
LINE
  8
0
 10
333.503357
 20
-60.536999
 11
335.003357
 21
-59.036983
  0
LINE
  8
0
 10
352.503326
 20
-60.537033
 11
351.003326
 21
-59.037025
  0
LINE
  8
0
 10
333.503357
 20
-113.237007
 11
352.503357
 21
-113.237007
  0
LINE
  8
0
 10
352.503357
 20
-133.837006
 11
333.503357
 21
-133.837006
  0
LINE
  8
0
 10
351.003326
 20
-59.037010
 11
335.003357
 21
-59.037010
  0
LINE
  8
0
 10
351.003326
 20
-59.037010
 11
335.003357
 21
-59.037010
  0
LINE
  8
0
 10
351.003326
 20
-59.037010
 11
335.003357
 21
-59.037010
  0
LINE
  8
0
 10
349.503357
 20
-58.537010
 11
336.503357
 21
-58.537010
  0
LINE
  8
0
 10
349.503357
 20
-51.537010
 11
346.003357
 21
-51.537010
  0
LINE
  8
0
 10
336.503357
 20
-58.537010
 11
336.503357
 21
-51.537010
  0
LINE
  8
0
 10
349.503357
 20
-58.537010
 11
349.503357
 21
-51.537010
  0
LINE
  8
0
 10
340.003357
 20
-53.537010
 11
340.003357
 21
-51.537010
  0
LINE
  8
0
 10
346.003357
 20
-53.537010
 11
346.003357
 21
-51.537010
  0
LINE
  8
0
 10
336.503357
 20
-51.537010
 11
340.003357
 21
-51.537010
  0
LINE
  8
0
 10
350.503357
 20
-24.037025
 11
350.503357
 21
-49.036995
  0
LINE
  8
0
 10
335.503357
 20
-24.037025
 11
335.503357
 21
-49.036995
  0
LINE
  8
0
 10
335.503357
 20
-21.037025
 11
350.503357
 21
-21.037025
  0
LINE
  8
0
 10
347.231995
 20
-55.276096
 11
346.292297
 21
-54.934078
  0
LINE
  8
0
 10
338.774750
 20
-55.276096
 11
339.714447
 21
-54.934074
  0
LINE
  8
0
 10
340.924896
 20
-54.037010
 11
345.081818
 21
-54.037010
  0
LINE
  8
0
 10
340.924896
 20
-53.437019
 11
345.081818
 21
-53.437019
  0
LINE
  8
0
 10
343.303345
 20
-55.815468
 11
343.303345
 21
-54.837013
  0
LINE
  8
0
 10
342.703369
 20
-55.815468
 11
342.703369
 21
-54.837013
  0
LINE
  8
0
 10
342.703369
 20
-54.837013
 11
343.303345
 21
-54.837013
  0
LINE
  8
0
 10
339.244659
 20
-55.105114
 11
339.542999
 21
-56.797138
  0
LINE
  8
0
 10
339.244751
 20
-55.104935
 11
340.561005
 21
-56.209412
  0
LINE
  8
0
 10
346.762085
 20
-55.105049
 11
345.445892
 21
-56.209457
  0
LINE
  8
0
 10
346.762115
 20
-55.105087
 11
346.463745
 21
-56.797123
  0
LINE
  8
0
  6
CENTER
 62
     2
 10
343.003357
 20
-16.037025
 11
343.003357
 21
-138.837006
  0
LINE
  8
0
 10
243.503464
 20
-21.037046
 11
247.503464
 21
-21.742355
  0
LINE
  8
0
 10
243.503448
 20
-49.037067
 11
245.418365
 21
-48.523968
  0
LINE
  8
0
 10
243.503448
 20
-49.037064
 11
213.503448
 21
-49.037064
  0
LINE
  8
0
 10
213.503448
 20
-24.037064
 11
247.503448
 21
-24.037064
  0
LINE
  8
0
 10
247.503448
 20
-21.742355
 11
247.503448
 21
-39.037064
  0
LINE
  8
0
 10
243.503448
 20
-21.037064
 11
214.003448
 21
-21.037064
  0
LINE
  8
0
 10
243.503448
 20
-21.037064
 11
243.503448
 21
-113.237061
  0
LINE
  8
0
 10
243.503448
 20
-113.237061
 11
213.503448
 21
-113.237061
  0
LINE
  8
0
 10
213.503448
 20
-71.237061
 11
243.503448
 21
-71.237061
  0
LINE
  8
0
 10
213.503448
 20
-59.037064
 11
243.503448
 21
-59.037064
  0
LINE
  8
0
 10
243.503448
 20
-133.837067
 11
213.503448
 21
-133.837067
  0
LINE
  8
0
 10
243.503448
 20
-113.237061
 11
243.503448
 21
-133.837067
  0
LINE
  8
0
 10
213.503448
 20
-26.337067
 11
212.503433
 21
-26.337067
  0
LINE
  8
0
 10
212.503448
 20
-113.237045
 11
213.503448
 21
-113.237045
  0
LINE
  8
0
 10
213.503448
 20
-21.537064
 11
213.503448
 21
-133.837067
  0
LINE
  8
0
  6
CENTER
 62
     2
 10
192.503433
 20
-120.566010
 11
192.503433
 21
-126.271980
  0
LINE
  8
0
  6
CENTER
 62
     2
 10
203.503433
 20
-120.566010
 11
203.503433
 21
-126.271980
  0
LINE
  8
0
 10
187.003433
 20
-124.237061
 11
198.003433
 21
-124.237061
  0
LINE
  8
0
 10
186.503433
 20
-123.237061
 11
186.503433
 21
-123.737061
  0
LINE
  8
0
 10
198.503433
 20
-123.237061
 11
198.503433
 21
-123.737061
  0
LINE
  8
0
 10
209.503433
 20
-123.237061
 11
209.503433
 21
-123.737061
  0
LINE
  8
0
 10
198.003433
 20
-124.237061
 11
209.003433
 21
-124.237061
  0
LINE
  8
0
 10
209.503448
 20
-123.737045
 11
209.003433
 21
-124.237053
  0
LINE
  8
0
 10
198.503448
 20
-123.737068
 11
198.003448
 21
-124.237076
  0
LINE
  8
0
 10
186.503510
 20
-123.736969
 11
187.003510
 21
-124.236954
  0
LINE
  8
0
 10
185.503433
 20
-123.237061
 11
212.503433
 21
-123.237061
  0
LINE
  8
0
 10
212.503433
 20
-122.237061
 11
212.503433
 21
-123.237061
  0
LINE
  8
0
 10
185.503433
 20
-122.237061
 11
185.503433
 21
-123.237061
  0
LINE
  8
0
 10
352.503296
 20
-194.736954
 11
352.503296
 21
-221.736954
  0
LINE
  8
0
 10
333.503296
 20
-194.736954
 11
333.503296
 21
-221.736954
  0
LINE
  8
0
 10
333.503296
 20
-221.736954
 11
352.503296
 21
-221.736954
  0
LINE
  8
0
 10
333.503296
 20
-194.736954
 11
352.503296
 21
-194.736954
  0
LINE
  8
0
 10
334.003296
 20
-163.736954
 11
334.003296
 21
-194.736954
  0
LINE
  8
0
 10
352.003296
 20
-163.736954
 11
352.003296
 21
-194.736954
  0
LINE
  8
0
 10
334.003296
 20
-163.736954
 11
352.003296
 21
-163.736954
  0
LINE
  8
0
 10
335.503265
 20
-163.736969
 11
336.135712
 21
-160.150146
  0
LINE
  8
0
 10
350.503387
 20
-163.736969
 11
349.870941
 21
-160.150146
  0
LINE
  8
0
 10
349.378418
 20
-159.736954
 11
336.628143
 21
-159.736954
  0
LINE
  8
0
 10
336.208588
 20
-161.580460
 11
349.798004
 21
-161.580460
  0
LINE
  8
0
 10
337.503296
 20
-161.051514
 11
337.503296
 21
-159.736954
  0
LINE
  8
0
 10
348.503296
 20
-161.051514
 11
348.503296
 21
-159.736954
  0
LINE
  8
0
 10
336.208588
 20
-161.580475
 11
336.208588
 21
-159.964966
  0
LINE
  8
0
 10
349.797974
 20
-161.580475
 11
349.797974
 21
-159.964996
  0
LINE
  8
0
 10
337.503296
 20
-161.051514
 11
348.503296
 21
-161.051514
  0
LINE
  8
0
 10
348.503296
 20
-159.936951
 11
337.503296
 21
-159.936951
  0
LINE
  8
0
 10
335.503265
 20
-163.736969
 11
336.208557
 21
-161.580490
  0
LINE
  8
0
 10
350.503265
 20
-163.736938
 11
349.797974
 21
-161.580460
  0
LINE
  8
0
 10
334.003296
 20
-191.535950
 11
352.003296
 21
-191.535950
  0
LINE
  8
0
 10
334.003296
 20
-193.736954
 11
352.003296
 21
-193.736954
  0
LINE
  8
0
  6
CENTER
 62
     2
 10
343.003296
 20
-157.736954
 11
343.003296
 21
-223.736954
  0
LINE
  8
0
  6
CENTER
 62
     2
 10
340.503296
 20
-197.025162
 11
340.503296
 21
-210.498352
  0
LINE
  8
0
  6
CENTER
 62
     2
 10
347.076050
 20
-203.736954
 11
333.870544
 21
-203.736954
  0
LINE
  8
0
  6
CENTER
 62
     2
 10
345.503296
 20
-208.025162
 11
345.503296
 21
-221.498352
  0
LINE
  8
0
  6
CENTER
 62
     2
 10
352.076050
 20
-214.736954
 11
338.870544
 21
-214.736954
  0
CIRCLE
  8
0
 10
-189.696625
 20
207.762970
 40
2.100000
  0
ARC
  8
0
 10
-189.696625
 20
207.762970
 40
2.500000
 50
180.000000
 51
0.000000
  0
ARC
  8
0
 10
-189.696625
 20
207.962967
 40
3.000000
 50
180.000000
 51
0.000000
  0
ARC
  8
0
 10
-189.696625
 20
207.762970
 40
4.000006
 50
281.536987
 51
340.000122
  0
ARC
  8
0
 10
-189.696625
 20
207.762970
 40
4.000000
 50
199.999878
 51
258.463013
  0
ARC
  8
0
 10
-318.696533
 20
239.962967
 40
0.500000
 50
90.000000
 51
180.000000
  0
ARC
  8
0
 10
-310.196533
 20
222.462967
 40
24.999994
 50
338.433136
 51
0.000035
  0
ARC
  8
0
 10
-287.411041
 20
213.459030
 40
0.499989
 50
284.998535
 51
338.681427
  0
ARC
  8
0
 10
-196.071777
 20
116.263000
 40
0.500000
 50
90.000000
 51
170.000122
  0
ARC
  8
0
 10
-183.321503
 20
116.263000
 40
0.499997
 50
9.999877
 51
90.000000
  0
ARC
  8
0
 10
-192.196625
 20
73.763000
 40
3.899994
 50
0.000000
 51
180.000000
  0
ARC
  8
0
 10
-192.196625
 20
71.763000
 40
3.899994
 50
180.000000
 51
0.000000
  0
CIRCLE
  8
0
 10
-192.196625
 20
72.763000
 40
2.000000
  0
CIRCLE
  8
0
 10
-192.196625
 20
72.763000
 40
5.099999
  0
ARC
  8
0
 10
-187.196625
 20
62.763000
 40
3.899994
 50
0.000000
 51
179.999939
  0
ARC
  8
0
 10
-187.196625
 20
60.763000
 40
3.899994
 50
180.000000
 51
359.999939
  0
CIRCLE
  8
0
 10
-187.196625
 20
61.763000
 40
2.000000
  0
CIRCLE
  8
0
 10
-187.196625
 20
61.763000
 40
5.099999
  0
CIRCLE
  8
0
 10
76.653358
 20
207.762970
 40
2.100000
  0
ARC
  8
0
 10
76.653358
 20
207.762970
 40
2.500000
 50
180.000000
 51
0.000000
  0
ARC
  8
0
 10
76.653358
 20
207.962967
 40
3.000000
 50
180.000000
 51
0.000000
  0
ARC
  8
0
 10
76.653358
 20
207.762970
 40
4.000006
 50
281.536987
 51
340.000122
  0
ARC
  8
0
 10
76.653358
 20
207.762970
 40
4.000000
 50
199.999878
 51
258.463013
  0
ARC
  8
0
 10
74.153358
 20
132.762970
 40
3.900002
 50
180.000000
 51
0.000000
  0
ARC
  8
0
 10
74.153358
 20
133.612976
 40
3.999999
 50
347.148346
 51
0.000000
  0
ARC
  8
0
 10
74.153358
 20
133.612976
 40
4.000000
 50
0.000000
 51
13.274598
  0
ARC
  8
0
 10
74.153358
 20
133.612976
 40
3.999997
 50
166.725403
 51
192.851654
  0
CIRCLE
  8
0
 10
74.153358
 20
133.762970
 40
2.000000
  0
ARC
  8
0
 10
74.153358
 20
134.762970
 40
3.900002
 50
0.000000
 51
180.000000
  0
ARC
  8
0
 10
79.153351
 20
122.762970
 40
3.900002
 50
180.000000
 51
0.000000
  0
ARC
  8
0
 10
79.153351
 20
123.612961
 40
3.999998
 50
166.725296
 51
192.851547
  0
ARC
  8
0
 10
79.153351
 20
123.612961
 40
3.999999
 50
347.148346
 51
0.000000
  0
ARC
  8
0
 10
79.153351
 20
123.612961
 40
4.000000
 50
0.000000
 51
13.274598
  0
CIRCLE
  8
0
 10
79.153351
 20
123.762970
 40
2.000000
  0
ARC
  8
0
 10
79.153351
 20
124.762970
 40
3.900002
 50
0.000000
 51
180.000000
  0
ARC
  8
0
 10
-52.346592
 20
239.962967
 40
0.500000
 50
90.000000
 51
180.000000
  0
ARC
  8
0
 10
-43.846592
 20
222.462967
 40
25.000004
 50
338.433136
 51
0.000035
  0
ARC
  8
0
 10
-21.061085
 20
213.459030
 40
0.499993
 50
285.000244
 51
338.681244
  0
ARC
  8
0
 10
-63.746586
 20
132.862976
 40
1.999996
 50
180.000000
 51
270.000000
  0
ARC
  8
0
 10
-63.746586
 20
132.862976
 40
3.100002
 50
180.000000
 51
270.000000
  0
ARC
  8
0
 10
-74.746582
 20
122.862976
 40
2.000000
 50
180.000000
 51
270.000000
  0
ARC
  8
0
 10
-74.746582
 20
122.862976
 40
3.099998
 50
180.000000
 51
270.000000
  0
ARC
  8
0
 10
70.278206
 20
96.263000
 40
0.500000
 50
90.000000
 51
170.000122
  0
ARC
  8
0
 10
83.028488
 20
96.263000
 40
0.499997
 50
9.999877
 51
90.000000
  0
ARC
  8
0
 10
79.153366
 20
41.763000
 40
5.099998
 50
131.810486
 51
48.189762
  0
ARC
  8
0
 10
79.153366
 20
41.763000
 40
6.000000
 50
124.518219
 51
55.481964
  0
ARC
  8
0
 10
79.153366
 20
41.763000
 40
3.400002
 50
180.000061
 51
261.543488
  0
ARC
  8
0
 10
79.153366
 20
41.763000
 40
3.900001
 50
150.667923
 51
29.332281
  0
ARC
  8
0
 10
79.153366
 20
41.763000
 40
4.599998
 50
137.657593
 51
42.342709
  0
ARC
  8
0
 10
79.153366
 20
41.763000
 40
3.399999
 50
278.456512
 51
0.000000
  0
ARC
  8
0
 10
74.153366
 20
52.763000
 40
5.100001
 50
131.810333
 51
281.307556
  0
ARC
  8
0
 10
74.153366
 20
52.763000
 40
6.000001
 50
124.518112
 51
285.465851
  0
ARC
  8
0
 10
74.153366
 20
52.763000
 40
3.900001
 50
150.667923
 51
284.856934
  0
ARC
  8
0
 10
74.153366
 20
52.763000
 40
3.400002
 50
180.000061
 51
261.543365
  0
ARC
  8
0
 10
74.153366
 20
52.763000
 40
3.399998
 50
278.456390
 51
287.104492
  0
ARC
  8
0
 10
74.153366
 20
52.763000
 40
6.000002
 50
44.426998
 51
55.481964
  0
CIRCLE
  8
0
 10
343.003448
 20
207.763000
 40
2.100000
  0
ARC
  8
0
 10
343.003448
 20
207.763000
 40
2.500000
 50
180.000000
 51
0.000000
  0
ARC
  8
0
 10
343.003448
 20
207.962997
 40
3.000000
 50
180.000000
 51
0.000000
  0
ARC
  8
0
 10
343.003448
 20
207.763000
 40
4.000003
 50
281.536774
 51
340.000061
  0
ARC
  8
0
 10
343.003448
 20
207.763000
 40
3.999986
 50
199.999954
 51
258.463226
  0
ARC
  8
0
 10
340.503448
 20
131.763000
 40
3.899994
 50
180.000000
 51
0.000000
  0
ARC
  8
0
 10
340.503448
 20
132.613007
 40
4.000013
 50
347.148407
 51
0.000000
  0
ARC
  8
0
 10
340.503448
 20
132.613007
 40
4.000000
 50
0.000000
 51
13.274573
  0
ARC
  8
0
 10
340.503448
 20
132.613007
 40
4.000004
 50
166.725433
 51
192.851593
  0
CIRCLE
  8
0
 10
340.503448
 20
132.763000
 40
2.000000
  0
ARC
  8
0
 10
340.503448
 20
133.763000
 40
3.899994
 50
0.000000
 51
180.000000
  0
ARC
  8
0
 10
345.503448
 20
119.763000
 40
3.899994
 50
180.000000
 51
0.000000
  0
ARC
  8
0
 10
345.503448
 20
120.612991
 40
4.000006
 50
166.725327
 51
192.851486
  0
ARC
  8
0
 10
345.503448
 20
120.612991
 40
4.000013
 50
347.148407
 51
0.000000
  0
ARC
  8
0
 10
345.503448
 20
120.612991
 40
4.000000
 50
0.000000
 51
13.274573
  0
CIRCLE
  8
0
 10
345.503448
 20
120.763000
 40
2.000000
  0
ARC
  8
0
 10
345.503448
 20
121.763000
 40
3.899994
 50
0.000000
 51
180.000000
  0
ARC
  8
0
 10
214.003464
 20
239.962982
 40
0.500000
 50
90.000000
 51
180.000000
  0
ARC
  8
0
 10
222.503464
 20
222.462982
 40
25.000008
 50
338.433136
 51
0.000035
  0
ARC
  8
0
 10
245.288971
 20
213.459045
 40
0.499993
 50
285.000244
 51
338.681427
  0
ARC
  8
0
 10
202.753479
 20
131.862991
 40
2.000000
 50
180.000000
 51
270.000000
  0
ARC
  8
0
 10
202.753479
 20
131.862991
 40
3.100006
 50
180.000000
 51
270.000000
  0
ARC
  8
0
 10
191.603470
 20
119.862991
 40
2.000000
 50
180.000000
 51
270.000000
  0
ARC
  8
0
 10
191.603470
 20
119.862991
 40
3.100006
 50
180.000000
 51
270.000000
  0
ARC
  8
0
 10
336.628204
 20
96.263000
 40
0.500000
 50
90.000000
 51
170.000122
  0
ARC
  8
0
 10
349.378479
 20
96.263000
 40
0.499997
 50
9.999877
 51
90.000000
  0
ARC
  8
0
 10
345.503357
 20
41.763000
 40
5.100008
 50
131.810608
 51
48.189762
  0
ARC
  8
0
 10
345.503357
 20
41.763000
 40
6.000008
 50
124.518333
 51
55.481964
  0
ARC
  8
0
 10
345.503357
 20
41.763000
 40
3.399994
 50
180.000061
 51
261.543488
  0
ARC
  8
0
 10
345.503357
 20
41.763000
 40
3.899994
 50
150.667862
 51
29.332281
  0
ARC
  8
0
 10
345.503357
 20
41.763000
 40
4.600009
 50
137.657715
 51
42.342709
  0
ARC
  8
0
 10
345.503357
 20
41.763000
 40
3.399999
 50
278.456512
 51
0.000000
  0
ARC
  8
0
 10
340.503357
 20
52.763000
 40
5.099996
 50
131.810272
 51
281.307709
  0
ARC
  8
0
 10
340.503357
 20
52.763000
 40
5.999997
 50
124.518059
 51
285.465759
  0
ARC
  8
0
 10
340.503357
 20
52.763000
 40
3.899994
 50
150.667862
 51
284.857147
  0
ARC
  8
0
 10
340.503357
 20
52.763000
 40
3.399994
 50
180.000061
 51
261.543488
  0
ARC
  8
0
 10
340.503357
 20
52.763000
 40
3.399999
 50
278.456512
 51
287.104614
  0
CIRCLE
  8
0
 10
-189.696579
 20
-53.737022
 40
2.100000
  0
ARC
  8
0
 10
-189.696579
 20
-53.737022
 40
2.500000
 50
180.000000
 51
0.000000
  0
ARC
  8
0
 10
-189.696579
 20
-53.537025
 40
3.000000
 50
180.000000
 51
0.000000
  0
ARC
  8
0
 10
-189.696579
 20
-53.737022
 40
3.999999
 50
281.537018
 51
340.000031
  0
ARC
  8
0
 10
-189.696579
 20
-53.737022
 40
4.000003
 50
199.999985
 51
258.462982
  0
ARC
  8
0
 10
-318.696594
 20
-21.537025
 40
0.500000
 50
90.000000
 51
180.000000
  0
ARC
  8
0
 10
-310.196594
 20
-39.037025
 40
24.999990
 50
338.433167
 51
0.000035
  0
ARC
  8
0
 10
-287.411072
 20
-48.040962
 40
0.499997
 50
284.998322
 51
338.681000
  0
ARC
  8
0
 10
-196.071671
 20
-168.236923
 40
0.500000
 50
90.000000
 51
170.000122
  0
ARC
  8
0
 10
-183.321381
 20
-168.236923
 40
0.499997
 50
9.999877
 51
90.000000
  0
CIRCLE
  8
0
 10
-187.196518
 20
-222.736923
 40
6.000000
  0
CIRCLE
  8
0
 62
     2
 10
-192.196518
 20
-211.736923
 40
4.000000
  0
CIRCLE
  8
0
 62
     2
 10
-187.196518
 20
-222.736923
 40
4.000000
  0
CIRCLE
  8
0
 10
-192.196518
 20
-211.736923
 40
3.625000
  0
CIRCLE
  8
0
 10
-187.196518
 20
-222.736923
 40
3.625000
  0
CIRCLE
  8
0
 10
-192.196518
 20
-211.736923
 40
6.000000
  0
CIRCLE
  8
0
 10
76.653381
 20
-53.737022
 40
2.100000
  0
ARC
  8
0
 10
76.653381
 20
-53.737022
 40
2.500000
 50
180.000000
 51
0.000000
  0
ARC
  8
0
 10
76.653381
 20
-53.537025
 40
3.000000
 50
180.000000
 51
0.000000
  0
ARC
  8
0
 10
76.653381
 20
-53.737022
 40
3.999999
 50
281.537018
 51
340.000031
  0
ARC
  8
0
 10
76.653381
 20
-53.737022
 40
4.000000
 50
199.999878
 51
258.462982
  0
ARC
  8
0
 10
-21.061108
 20
-48.040977
 40
0.500001
 50
285.000000
 51
338.680847
  0
ARC
  8
0
 10
-52.346615
 20
-21.537041
 40
0.500000
 50
90.000000
 51
180.000000
  0
ARC
  8
0
 10
-43.846615
 20
-39.037041
 40
25.000000
 50
338.433167
 51
0.000035
  0
ARC
  8
0
 10
74.153343
 20
-209.736923
 40
5.599998
 50
116.514778
 51
63.485149
  0
ARC
  8
0
 10
79.153343
 20
-220.736923
 40
5.599998
 50
116.514778
 51
63.485149
  0
ARC
  8
0
 10
74.153343
 20
-208.736923
 40
3.900002
 50
0.000000
 51
180.000000
  0
ARC
  8
0
 10
74.153343
 20
-210.736923
 40
3.900002
 50
180.000000
 51
0.000000
  0
CIRCLE
  8
0
 10
74.153343
 20
-209.736923
 40
2.000000
  0
CIRCLE
  8
0
 10
74.153343
 20
-209.736923
 40
5.099999
  0
ARC
  8
0
 10
79.153343
 20
-219.736923
 40
3.900002
 50
0.000000
 51
180.000000
  0
ARC
  8
0
 10
79.153343
 20
-221.736923
 40
3.900002
 50
180.000000
 51
0.000000
  0
CIRCLE
  8
0
 10
79.153343
 20
-220.736923
 40
2.000000
  0
CIRCLE
  8
0
 10
79.153343
 20
-220.736923
 40
5.099999
  0
ARC
  8
0
 10
70.278191
 20
-166.236923
 40
0.500000
 50
90.000000
 51
170.000122
  0
ARC
  8
0
 10
83.028473
 20
-166.236923
 40
0.499997
 50
9.999877
 51
90.000000
  0
CIRCLE
  8
0
 10
343.003357
 20
-53.737007
 40
2.100000
  0
ARC
  8
0
 10
343.003357
 20
-53.737007
 40
2.500000
 50
180.000000
 51
0.000000
  0
ARC
  8
0
 10
343.003357
 20
-53.537010
 40
3.000000
 50
180.000000
 51
0.000000
  0
ARC
  8
0
 10
343.003357
 20
-53.737007
 40
3.999996
 50
281.536804
 51
339.999939
  0
ARC
  8
0
 10
343.003357
 20
-53.737007
 40
4.000015
 50
199.999802
 51
258.463196
  0
ARC
  8
0
 10
245.288956
 20
-48.041000
 40
0.500001
 50
285.000000
 51
338.681000
  0
ARC
  8
0
 10
214.003448
 20
-21.537064
 40
0.500000
 50
90.000000
 51
180.000000
  0
ARC
  8
0
 10
222.503448
 20
-39.037064
 40
25.000006
 50
338.433167
 51
0.000035
  0
ARC
  8
0
 10
336.628143
 20
-160.236954
 40
0.500000
 50
90.000000
 51
170.000122
  0
ARC
  8
0
 10
349.378418
 20
-160.236954
 40
0.499997
 50
9.999877
 51
90.000000
  0
CIRCLE
  8
0
 10
345.503296
 20
-214.736954
 40
6.000000
  0
CIRCLE
  8
0
 62
     2
 10
340.503296
 20
-203.736954
 40
4.000000
  0
CIRCLE
  8
0
 62
     2
 10
345.503296
 20
-214.736954
 40
4.000000
  0
CIRCLE
  8
0
 10
340.503296
 20
-203.736954
 40
3.625000
  0
CIRCLE
  8
0
 10
345.503296
 20
-214.736954
 40
3.625000
  0
CIRCLE
  8
0
 10
340.503296
 20
-203.736954
 40
6.000000
  0
TEXT
  8
0
 10
-345.785156
 20
253.500000
 40
12.500000
  1
X88M
 50
0.000000
 41
1.052632
 51
0.000000
  7
STANDARD
  0
TEXT
  8
0
 10
242.014816
 20
-274.500000
 40
12.500000
  1
KOGANEI CORP.
 50
0.000000
 41
1.052632
 51
0.000000
  7
STANDARD
  0
TEXT
  8
0
 10
251.264664
 20
256.649994
 40
9.000000
  1
DATE: SEP ,1993
 50
0.000000
 41
1.052632
 51
0.000000
  7
STANDARD
  0
TEXT
  8
0
 10
-357.825012
 20
1.950000
 40
7.000000
  1
MODEL:FMY180-4ME2-J4S(J6S)
 50
0.000000
 41
1.052632
 51
0.000000
  7
STANDARD
  0
TEXT
  8
0
 10
-73.975006
 20
1.950000
 40
7.000000
  1
MODEL:FMY180-4ME2-J4U
 50
0.000000
 41
1.052632
 51
0.000000
  7
STANDARD
  0
TEXT
  8
0
 10
192.375000
 20
1.950000
 40
7.000000
  1
MODEL:FMY180-4ME2-J6U
 50
0.000000
 41
1.052632
 51
0.000000
  7
STANDARD
  0
TEXT
  8
0
 10
-340.325012
 20
-274.549988
 40
7.000000
  1
MODEL:FMY180-4ME2-M8M
 50
0.000000
 41
1.052632
 51
0.000000
  7
STANDARD
  0
TEXT
  8
0
 10
-91.475006
 20
-274.549988
 40
7.000000
  1
MODEL:FMY183-4ME2-J4S(J6S)
 50
0.000000
 41
1.052632
 51
0.000000
  7
STANDARD
  0
TEXT
  8
0
 10
192.375000
 20
-249.550003
 40
7.000000
  1
MODEL:FMY183-4ME2-M8M
 50
0.000000
 41
1.052632
 51
0.000000
  7
STANDARD
  0
TEXT
  8
0
 10
-194.730850
 20
233.311157
 40
2.000000
  1
A
 50
0.100000
 41
1.052632
 51
0.000000
  7
STANDARD
  0
TEXT
  8
0
 10
-194.730850
 20
226.311157
 40
2.000000
  1
B
 50
0.100000
 41
1.052632
 51
0.000000
  7
STANDARD
  0
TEXT
  8
0
 10
-192.617844
 20
221.627869
 40
1.200000
  1
DC24V
 50
0.100000
 41
1.052630
 51
0.000000
  7
STANDARD
  0
TEXT
  8
0
 10
-188.480850
 20
216.011169
 40
2.000000
  1
B
 50
0.100000
 41
1.052632
 51
0.000000
  7
STANDARD
  0
TEXT
  8
0
 10
-192.980850
 20
216.011169
 40
2.000000
  1
A
 50
0.100000
 41
1.052632
 51
0.000000
  7
STANDARD
  0
TEXT
  8
0
 10
-195.633072
 20
207.659012
 40
1.599999
  1
A
 50
0.100000
 41
1.052632
 51
0.000000
  7
STANDARD
  0
TEXT
  8
0
 10
-190.474350
 20
203.571625
 40
1.599999
  1
0
 50
0.100000
 41
1.052632
 51
0.000000
  7
STANDARD
  0
TEXT
  8
0
 10
-185.315628
 20
207.659012
 40
1.599999
  1
B
 50
0.100000
 41
1.052632
 51
0.000000
  7
STANDARD
  0
TEXT
  8
0
 10
-184.875061
 20
71.063004
 40
3.000000
  1
B
 50
0.000000
 41
1.052632
 51
0.000000
  7
STANDARD
  0
TEXT
  8
0
 10
-197.875061
 20
60.063000
 40
3.000000
  1
A
 50
0.000000
 41
1.052632
 51
0.000000
  7
STANDARD
  0
TEXT
  8
0
 10
71.619133
 20
233.311157
 40
2.000000
  1
A
 50
0.100000
 41
1.052632
 51
0.000000
  7
STANDARD
  0
TEXT
  8
0
 10
71.619133
 20
226.311157
 40
2.000000
  1
B
 50
0.100000
 41
1.052632
 51
0.000000
  7
STANDARD
  0
TEXT
  8
0
 10
73.732132
 20
221.627869
 40
1.200000
  1
DC24V
 50
0.100000
 41
1.052630
 51
0.000000
  7
STANDARD
  0
TEXT
  8
0
 10
77.869133
 20
216.011169
 40
2.000000
  1
B
 50
0.100000
 41
1.052632
 51
0.000000
  7
STANDARD
  0
TEXT
  8
0
 10
73.369133
 20
216.011169
 40
2.000000
  1
A
 50
0.100000
 41
1.052632
 51
0.000000
  7
STANDARD
  0
TEXT
  8
0
 10
70.716904
 20
207.659012
 40
1.599999
  1
A
 50
0.100000
 41
1.052632
 51
0.000000
  7
STANDARD
  0
TEXT
  8
0
 10
75.875626
 20
203.571625
 40
1.599999
  1
0
 50
0.100000
 41
1.052632
 51
0.000000
  7
STANDARD
  0
TEXT
  8
0
 10
81.034348
 20
207.659012
 40
1.599999
  1
B
 50
0.100000
 41
1.052632
 51
0.000000
  7
STANDARD
  0
TEXT
  8
0
 10
81.669365
 20
57.577251
 40
3.000000
  1
B
 50
0.000000
 41
1.052632
 51
0.000000
  7
STANDARD
  0
TEXT
  8
0
 10
68.474922
 20
40.063000
 40
3.000000
  1
A
 50
0.000000
 41
1.052632
 51
0.000000
  7
STANDARD
  0
TEXT
  8
0
 10
337.969238
 20
233.311188
 40
2.000000
  1
A
 50
0.100000
 41
1.052632
 51
0.000000
  7
STANDARD
  0
TEXT
  8
0
 10
337.969238
 20
226.311188
 40
2.000000
  1
B
 50
0.100000
 41
1.052632
 51
0.000000
  7
STANDARD
  0
TEXT
  8
0
 10
340.082214
 20
221.627899
 40
1.200000
  1
DC24V
 50
0.100000
 41
1.052630
 51
0.000000
  7
STANDARD
  0
TEXT
  8
0
 10
344.219238
 20
216.011200
 40
2.000000
  1
B
 50
0.100000
 41
1.052632
 51
0.000000
  7
STANDARD
  0
TEXT
  8
0
 10
339.719238
 20
216.011200
 40
2.000000
  1
A
 50
0.100000
 41
1.052632
 51
0.000000
  7
STANDARD
  0
TEXT
  8
0
 10
337.067017
 20
207.659042
 40
1.599999
  1
A
 50
0.100000
 41
1.052632
 51
0.000000
  7
STANDARD
  0
TEXT
  8
0
 10
342.225739
 20
203.571655
 40
1.599999
  1
0
 50
0.100000
 41
1.052632
 51
0.000000
  7
STANDARD
  0
TEXT
  8
0
 10
347.384460
 20
207.659042
 40
1.599999
  1
B
 50
0.100000
 41
1.052632
 51
0.000000
  7
STANDARD
  0
TEXT
  8
0
 10
348.019379
 20
57.577251
 40
3.000000
  1
B
 50
0.000000
 41
1.052632
 51
0.000000
  7
STANDARD
  0
TEXT
  8
0
 10
334.824921
 20
40.063000
 40
3.000000
  1
A
 50
0.000000
 41
1.052632
 51
0.000000
  7
STANDARD
  0
TEXT
  8
0
 10
-194.730804
 20
-28.188837
 40
2.000000
  1
A
 50
0.100000
 41
1.052632
 51
0.000000
  7
STANDARD
  0
TEXT
  8
0
 10
-194.730804
 20
-35.188839
 40
2.000000
  1
B
 50
0.100000
 41
1.052632
 51
0.000000
  7
STANDARD
  0
TEXT
  8
0
 10
-192.617798
 20
-39.872124
 40
1.200000
  1
DC24V
 50
0.100000
 41
1.052630
 51
0.000000
  7
STANDARD
  0
TEXT
  8
0
 10
-188.480804
 20
-45.488827
 40
2.000000
  1
B
 50
0.100000
 41
1.052632
 51
0.000000
  7
STANDARD
  0
TEXT
  8
0
 10
-192.980804
 20
-45.488827
 40
2.000000
  1
A
 50
0.100000
 41
1.052632
 51
0.000000
  7
STANDARD
  0
TEXT
  8
0
 10
-195.633026
 20
-53.840992
 40
1.599999
  1
A
 50
0.100000
 41
1.052632
 51
0.000000
  7
STANDARD
  0
TEXT
  8
0
 10
-190.474304
 20
-57.928379
 40
1.599999
  1
0
 50
0.100000
 41
1.052632
 51
0.000000
  7
STANDARD
  0
TEXT
  8
0
 10
-185.315582
 20
-53.840992
 40
1.599999
  1
B
 50
0.100000
 41
1.052632
 51
0.000000
  7
STANDARD
  0
TEXT
  8
0
 10
71.619156
 20
-28.188837
 40
2.000000
  1
A
 50
0.100000
 41
1.052632
 51
0.000000
  7
STANDARD
  0
TEXT
  8
0
 10
71.619156
 20
-35.188839
 40
2.000000
  1
B
 50
0.100000
 41
1.052632
 51
0.000000
  7
STANDARD
  0
TEXT
  8
0
 10
73.732155
 20
-39.872124
 40
1.200000
  1
DC24V
 50
0.100000
 41
1.052630
 51
0.000000
  7
STANDARD
  0
TEXT
  8
0
 10
77.869156
 20
-45.488827
 40
2.000000
  1
B
 50
0.100000
 41
1.052632
 51
0.000000
  7
STANDARD
  0
TEXT
  8
0
 10
73.369156
 20
-45.488827
 40
2.000000
  1
A
 50
0.100000
 41
1.052632
 51
0.000000
  7
STANDARD
  0
TEXT
  8
0
 10
70.716927
 20
-53.840992
 40
1.599999
  1
A
 50
0.100000
 41
1.052632
 51
0.000000
  7
STANDARD
  0
TEXT
  8
0
 10
75.875648
 20
-57.928379
 40
1.599999
  1
0
 50
0.100000
 41
1.052632
 51
0.000000
  7
STANDARD
  0
TEXT
  8
0
 10
81.034370
 20
-53.840992
 40
1.599999
  1
B
 50
0.100000
 41
1.052632
 51
0.000000
  7
STANDARD
  0
TEXT
  8
0
 10
81.474907
 20
-211.436920
 40
3.000000
  1
B
 50
0.000000
 41
1.052632
 51
0.000000
  7
STANDARD
  0
TEXT
  8
0
 10
68.474907
 20
-222.436920
 40
3.000000
  1
A
 50
0.000000
 41
1.052632
 51
0.000000
  7
STANDARD
  0
TEXT
  8
0
 10
337.969147
 20
-28.188822
 40
2.000000
  1
A
 50
0.100000
 41
1.052632
 51
0.000000
  7
STANDARD
  0
TEXT
  8
0
 10
337.969147
 20
-35.188824
 40
2.000000
  1
B
 50
0.100000
 41
1.052632
 51
0.000000
  7
STANDARD
  0
TEXT
  8
0
 10
340.082123
 20
-39.872108
 40
1.200000
  1
DC24V
 50
0.100000
 41
1.052630
 51
0.000000
  7
STANDARD
  0
TEXT
  8
0
 10
344.219147
 20
-45.488811
 40
2.000000
  1
B
 50
0.100000
 41
1.052632
 51
0.000000
  7
STANDARD
  0
TEXT
  8
0
 10
339.719147
 20
-45.488811
 40
2.000000
  1
A
 50
0.100000
 41
1.052632
 51
0.000000
  7
STANDARD
  0
TEXT
  8
0
 10
337.066925
 20
-53.840977
 40
1.599999
  1
A
 50
0.100000
 41
1.052632
 51
0.000000
  7
STANDARD
  0
TEXT
  8
0
 10
342.225647
 20
-57.928364
 40
1.599999
  1
0
 50
0.100000
 41
1.052632
 51
0.000000
  7
STANDARD
  0
TEXT
  8
0
 10
347.384369
 20
-53.840977
 40
1.599999
  1
B
 50
0.100000
 41
1.052632
 51
0.000000
  7
STANDARD
  0
ENDSEC
  0
EOF
