  0
SECTION
  2
HEADER
  0
ENDSEC
  0
SECTION
  2
TABLES
  0
TABLE
  2
LTYPE
 70
     4
  0
LTYPE
  2
CONTINUOUS
 70
    64
  3
Solid line
 72
    65
 73
     0
 40
0.000000
  0
LTYPE
  2
DASHED
 70
    64
  3
__ __ __ __ __ __ __ __ __ __ __ __ __ __ __
 72
    65
 73
     2
 40
3.500000
 49
2.000000
 49
-1.500000
  0
LTYPE
  2
CENTER
 70
    64
  3
____ _ ____ _ ____ _ ____ _ ____ _ ____ _ ____
 72
    65
 73
     4
 40
17.500000
 49
13.000000
 49
-1.500000
 49
1.500000
 49
-1.500000
  0
LTYPE
  2
PHANTOM
 70
    64
  3
_____ _ _ _____ _ _ _____ _ _ _____ _ _ ____  
 72
    65
 73
     6
 40
15.500000
 49
8.000000
 49
-1.500000
 49
1.500000
 49
-1.500000
 49
1.500000
 49
-1.500000
  0
LTYPE
  2
DASHED1
 70
    64
  3
__ __ __ __ __ __ __ __ __ __ __ __ __ __ __
 72
    65
 73
     2
 40
1.500000
 49
1.000000
 49
-0.500000
  0
LTYPE
  2
DASHED2
 70
    64
  3
__ __ __ __ __ __ __ __ __ __ __ __ __ __ __
 72
    65
 73
     2
 40
3.500000
 49
2.500000
 49
-1.000000
  0
LTYPE
  2
DASHED3
 70
    64
  3
__ __ __ __ __ __ __ __ __ __ __ __ __ __ __
 72
    65
 73
     2
 40
6.000000
 49
4.000000
 49
-2.000000
  0
LTYPE
  2
DASHED4
 70
    64
  3
__ __ __ __ __ __ __ __ __ __ __ __ __ __ __
 72
    65
 73
     2
 40
12.000000
 49
10.000000
 49
-2.000000
  0
LTYPE
  2
DASHED5
 70
    64
  3
__ __ __ __ __ __ __ __ __ __ __ __ __ __ __
 72
    65
 73
     2
 40
17.000000
 49
15.000000
 49
-2.000000
  0
LTYPE
  2
DASHED6
 70
    64
  3
__ __ __ __ __ __ __ __ __ __ __ __ __ __ __
 72
    65
 73
     2
 40
29.000000
 49
27.000000
 49
-2.000000
  0
LTYPE
  2
PHANTOM1
 70
    64
  3
_____ _ _ _____ _ _ _____ _ _ _____ _ _ ____  
 72
    65
 73
     6
 40
31.000000
 49
25.000000
 49
-1.500000
 49
1.000000
 49
-1.000000
 49
1.000000
 49
-1.500000
  0
LTYPE
  2
PHANTOM2
 70
    64
  3
_____ _ _ _____ _ _ _____ _ _ _____ _ _ ____  
 72
    65
 73
     6
 40
36.000000
 49
27.000000
 49
-1.500000
 49
2.500000
 49
-1.000000
 49
2.500000
 49
-1.500000
  0
LTYPE
  2
PHANTOM3
 70
    64
  3
_____ _ _ _____ _ _ _____ _ _ _____ _ _ ____  
 72
    65
 73
     6
 40
78.000000
 49
64.000000
 49
-2.000000
 49
4.000000
 49
-2.000000
 49
4.000000
 49
-2.000000
  0
LTYPE
  2
CENTER1
 70
    64
  3
____ _ ____ _ ____ _ ____ _ ____ _ ____ _ ____
 72
    65
 73
     4
 40
19.000000
 49
14.000000
 49
-1.000000
 49
3.000000
 49
-1.000000
  0
LTYPE
  2
CENTER2
 70
    64
  3
____ _ ____ _ ____ _ ____ _ ____ _ ____ _ ____
 72
    65
 73
     4
 40
28.500000
 49
25.000000
 49
-1.000000
 49
1.500000
 49
-1.000000
  0
LTYPE
  2
CENTER3
 70
    64
  3
____ _ ____ _ ____ _ ____ _ ____ _ ____ _ ____
 72
    65
 73
     4
 40
31.500000
 49
27.000000
 49
-1.000000
 49
2.500000
 49
-1.000000
  0
LTYPE
  2
CENTER4
 70
    64
  3
____ _ ____ _ ____ _ ____ _ ____ _ ____ _ ____
 72
    65
 73
     4
 40
50.000000
 49
45.000000
 49
-1.000000
 49
3.000000
 49
-1.000000
  0
LTYPE
  2
CENTER5
 70
    64
  3
____ _ ____ _ ____ _ ____ _ ____ _ ____ _ ____
 72
    65
 73
     4
 40
100.000000
 49
92.000000
 49
-2.000000
 49
4.000000
 49
-2.000000
  0
LTYPE
  2
SBK1
 70
    64
  3
______ _ _ _ ______ _ _ _ ______ _ _ _ _____  
 72
    65
 73
     8
 40
60.500000
 49
45.000000
 49
-2.000000
 49
2.500000
 49
-2.000000
 49
2.500000
 49
-2.000000
 49
2.500000
 49
-2.000000
  0
LTYPE
  2
SBK2
 70
    64
  3
______ _ _ _ ______ _ _ _ ______ _ _ _ _____  
 72
    65
 73
     8
 40
84.000000
 49
64.000000
 49
-2.000000
 49
4.000000
 49
-2.000000
 49
4.000000
 49
-2.000000
 49
4.000000
 49
-2.000000
  0
LTYPE
  2
STCH
 70
    64
  3
__ __ __ __ __ __ __ __ __ __ __ __ __ __ __
 72
    65
 73
     2
 40
3.000000
 49
1.000000
 49
-2.000000
  0
LTYPE
  2
MTCH
 70
    64
  3
_____ _ _ _____ _ _ _____ _ _ _____ _ _ ____  
 72
    65
 73
     6
 40
80.000000
 49
66.000000
 49
-2.000000
 49
4.000000
 49
-2.000000
 49
4.000000
 49
-2.000000
  0
ENDTAB
  0
TABLE
  2
LAYER
 70
     1
  0
LAYER
  2
0
 70
     0
 62
     7
  6
CONTINUOUS
  0
ENDTAB
  0
TABLE
  2
STYLE
 70
     1
  0
STYLE
  2
STANDARD
 70
     0
 40
0.000000
 41
1.000000
 50
0.000000
 71
     0
 42
0.200000
  3
txt
  4
BIGFONT
  0
ENDTAB
  0
TABLE
  2
VIEW
 70
     0
  0
ENDTAB
  0
ENDSEC
  0
SECTION
  2
BLOCKS
  0
ENDSEC
  0
SECTION
  2
ENTITIES
  0
LINE
  8
0
 10
-297.000000
 20
210.000000
 11
297.000000
 21
210.000000
  0
LINE
  8
0
 10
-297.000000
 20
-210.000000
 11
297.000000
 21
-210.000000
  0
LINE
  8
0
 10
297.000000
 20
210.000000
 11
297.000000
 21
-210.000000
  0
LINE
  8
0
 10
-297.000000
 20
210.000000
 11
-297.000000
 21
-210.000000
  0
LINE
  8
0
 10
-281.250000
 20
195.500000
 11
282.099976
 21
195.500000
  0
LINE
  8
0
 10
-281.250000
 20
195.500000
 11
-281.250000
 21
-195.000000
  0
LINE
  8
0
 10
282.099976
 20
195.500000
 11
282.099976
 21
-195.000000
  0
LINE
  8
0
 10
-281.250000
 20
-195.000000
 11
282.099976
 21
-195.000000
  0
LINE
  8
0
 10
162.099976
 20
-175.000000
 11
162.099976
 21
-195.000000
  0
LINE
  8
0
 10
162.099976
 20
-175.000000
 11
282.099976
 21
-175.000000
  0
LINE
  8
0
 10
162.099976
 20
175.500000
 11
282.099976
 21
175.500000
  0
LINE
  8
0
 10
-281.250000
 20
175.500000
 11
-161.250000
 21
175.500000
  0
LINE
  8
0
 10
162.099976
 20
195.500000
 11
162.099976
 21
175.500000
  0
LINE
  8
0
 10
-161.250000
 20
195.500000
 11
-161.250000
 21
175.500000
  0
LINE
  8
0
 10
-281.250000
 20
-185.000000
 11
-131.250000
 21
-185.000000
  0
LINE
  8
0
 10
-281.250000
 20
-175.000000
 11
-131.250000
 21
-175.000000
  0
LINE
  8
0
 10
-281.250000
 20
-165.000000
 11
-131.250000
 21
-165.000000
  0
LINE
  8
0
 10
-281.250000
 20
-155.000000
 11
-131.250000
 21
-155.000000
  0
LINE
  8
0
 10
-281.250000
 20
-105.000000
 11
-131.250000
 21
-105.000000
  0
LINE
  8
0
 10
-281.250000
 20
-95.000000
 11
-131.250000
 21
-95.000000
  0
LINE
  8
0
 10
-281.250000
 20
-85.000000
 11
-131.250000
 21
-85.000000
  0
LINE
  8
0
 10
-281.250000
 20
-75.000000
 11
-131.250000
 21
-75.000000
  0
LINE
  8
0
 10
-281.250000
 20
-65.000000
 11
-131.250000
 21
-65.000000
  0
LINE
  8
0
 10
-281.250000
 20
-55.000000
 11
-131.250000
 21
-55.000000
  0
LINE
  8
0
 10
-281.250000
 20
-45.000000
 11
-131.250000
 21
-45.000000
  0
LINE
  8
0
 10
-281.250000
 20
-145.000000
 11
-131.250000
 21
-145.000000
  0
LINE
  8
0
 10
-281.250000
 20
-135.000000
 11
-131.250000
 21
-135.000000
  0
LINE
  8
0
 10
-281.250000
 20
-125.000000
 11
-131.250000
 21
-125.000000
  0
LINE
  8
0
 10
-281.250000
 20
-115.000000
 11
-131.250000
 21
-115.000000
  0
LINE
  8
0
 10
187.885849
 20
-86.804214
 11
202.319611
 21
-61.804218
  0
LINE
  8
0
 10
-211.250000
 20
-45.000000
 11
-211.250000
 21
-195.000000
  0
LINE
  8
0
 10
-131.250000
 20
-45.000000
 11
-131.250000
 21
-195.000000
  0
TEXT
  8
0
 10
174.200241
 20
180.830002
 40
6.300000
  1
DATE: SEP ,1992
 50
0.000000
 41
1.052632
 51
0.000000
  7
STANDARD
  0
TEXT
  8
0
 10
167.564667
 20
-192.100006
 40
9.000000
  1
KOGANEI CORP.
 50
0.000000
 41
1.052632
 51
0.000000
  7
STANDARD
  0
TEXT
  8
0
 10
-253.399719
 20
180.830002
 40
6.300000
  1
X88 SAMPLE
 50
0.000000
 41
1.052632
 51
0.000000
  7
STANDARD
  0
TEXT
  8
0
 10
-275.892670
 20
-53.049999
 40
4.500000
  1
MODULE NUMBER
 50
0.000000
 41
1.052632
 51
0.000000
  7
STANDARD
  0
TEXT
  8
0
 10
-248.892654
 20
-63.050003
 40
4.500000
  1
1
 50
0.000000
 41
1.052632
 51
0.000000
  7
STANDARD
  0
TEXT
  8
0
 10
-248.892654
 20
-73.050003
 40
4.500000
  1
2
 50
0.000000
 41
1.052632
 51
0.000000
  7
STANDARD
  0
TEXT
  8
0
 10
-248.892654
 20
-83.050003
 40
4.500000
  1
3
 50
0.000000
 41
1.052632
 51
0.000000
  7
STANDARD
  0
TEXT
  8
0
 10
-248.892654
 20
-93.050003
 40
4.500000
  1
4
 50
0.000000
 41
1.052632
 51
0.000000
  7
STANDARD
  0
TEXT
  8
0
 10
-248.892654
 20
-103.050003
 40
4.500000
  1
5
 50
0.000000
 41
1.052632
 51
0.000000
  7
STANDARD
  0
TEXT
  8
0
 10
-248.892654
 20
-113.050003
 40
4.500000
  1
6
 50
0.000000
 41
1.052632
 51
0.000000
  7
STANDARD
  0
TEXT
  8
0
 10
-256.285309
 20
-163.050003
 40
4.500000
  1
11
 50
0.000000
 41
1.052632
 51
0.000000
  7
STANDARD
  0
TEXT
  8
0
 10
-256.285309
 20
-173.050003
 40
4.500000
  1
12
 50
0.000000
 41
1.052632
 51
0.000000
  7
STANDARD
  0
TEXT
  8
0
 10
-256.285309
 20
-183.050003
 40
4.500000
  1
13
 50
0.000000
 41
1.052632
 51
0.000000
  7
STANDARD
  0
TEXT
  8
0
 10
-256.285309
 20
-193.050003
 40
4.500000
  1
14
 50
0.000000
 41
1.052632
 51
0.000000
  7
STANDARD
  0
TEXT
  8
0
 10
-180.642654
 20
-53.049999
 40
4.500000
  1
TYPE
 50
0.000000
 41
1.052632
 51
0.000000
  7
STANDARD
  0
TEXT
  8
0
 10
-204.750000
 20
-61.700001
 40
4.500000
  1
FMC-F200
 50
0.000000
 41
1.052632
 51
0.000000
  7
STANDARD
  0
TEXT
  8
0
 10
-204.750000
 20
-71.699997
 40
4.500000
  1
FMC-D250
 50
0.000000
 41
1.052632
 51
0.000000
  7
STANDARD
  0
TEXT
  8
0
 10
-204.750000
 20
-81.699997
 40
4.500000
  1
FMC-T100
 50
0.000000
 41
1.052632
 51
0.000000
  7
STANDARD
  0
TEXT
  8
0
 10
-204.750000
 20
-91.699997
 40
4.500000
  1
FMX110-4E1
 50
0.000000
 41
1.052632
 51
0.000000
  7
STANDARD
  0
TEXT
  8
0
 10
-204.750000
 20
-101.699997
 40
4.500000
  1
FMX110-4KE2
 50
0.000000
 41
1.052632
 51
0.000000
  7
STANDARD
  0
TEXT
  8
0
 10
-204.750000
 20
-111.699997
 40
4.500000
  1
FMW110-4E1-J4S
 50
0.000000
 41
1.052632
 51
0.000000
  7
STANDARD
  0
TEXT
  8
0
 10
-204.750000
 20
-161.699997
 40
4.500000
  1
FMW183-4KE2-J6S
 50
0.000000
 41
1.052632
 51
0.000000
  7
STANDARD
  0
TEXT
  8
0
 10
-204.750000
 20
-171.699997
 40
4.500000
  1
FMW180-BP-J6S
 50
0.000000
 41
1.052632
 51
0.000000
  7
STANDARD
  0
TEXT
  8
0
 10
-204.750000
 20
-181.699997
 40
4.500000
  1
FMP-PR02S
 50
0.000000
 41
1.052632
 51
0.000000
  7
STANDARD
  0
TEXT
  8
0
 10
-204.750000
 20
-191.699997
 40
4.500000
  1
FMP-FR02
 50
0.000000
 41
1.052632
 51
0.000000
  7
STANDARD
  0
TEXT
  8
0
 10
-248.892654
 20
-123.050003
 40
4.500000
  1
7
 50
0.000000
 41
1.052632
 51
0.000000
  7
STANDARD
  0
TEXT
  8
0
 10
-248.892654
 20
-133.050003
 40
4.500000
  1
8
 50
0.000000
 41
1.052632
 51
0.000000
  7
STANDARD
  0
TEXT
  8
0
 10
-248.892654
 20
-143.050003
 40
4.500000
  1
9
 50
0.000000
 41
1.052632
 51
0.000000
  7
STANDARD
  0
TEXT
  8
0
 10
-256.285309
 20
-153.050003
 40
4.500000
  1
10
 50
0.000000
 41
1.052632
 51
0.000000
  7
STANDARD
  0
TEXT
  8
0
 10
-204.750000
 20
-121.699997
 40
4.500000
  1
FMW113-4KE2-J4S
 50
0.000000
 41
1.052632
 51
0.000000
  7
STANDARD
  0
TEXT
  8
0
 10
-204.750000
 20
-131.699997
 40
4.500000
  1
FMX180-4E1
 50
0.000000
 41
1.052632
 51
0.000000
  7
STANDARD
  0
TEXT
  8
0
 10
-204.750000
 20
-141.699997
 40
4.500000
  1
FMX180-4KE2
 50
0.000000
 41
1.052632
 51
0.000000
  7
STANDARD
  0
TEXT
  8
0
 10
-204.750000
 20
-151.699997
 40
4.500000
  1
FMW180-4E1-J6S
 50
0.000000
 41
1.052632
 51
0.000000
  7
STANDARD
  0
TEXT
  8
0
 10
-32.288639
 20
-62.617790
 40
4.500000
  1
FMC-T100
 50
60.000000
 41
1.052632
 51
0.000000
  7
STANDARD
  0
TEXT
  8
0
 10
-70.288658
 20
-62.617805
 40
4.500000
  1
FMC-F200
 50
60.000000
 41
1.052632
 51
0.000000
  7
STANDARD
  0
TEXT
  8
0
 10
-51.288639
 20
-62.617805
 40
4.500000
  1
FMC-D250
 50
60.000000
 41
1.052632
 51
0.000000
  7
STANDARD
  0
TEXT
  8
0
 10
241.639542
 20
-62.617790
 40
4.500000
  1
FMP-FR02
 50
60.000000
 41
1.052632
 51
0.000000
  7
STANDARD
  0
TEXT
  8
0
 10
-5.262386
 20
-62.617790
 40
4.500000
  1
FMX110-4E1
 50
60.000000
 41
1.052632
 51
0.000000
  7
STANDARD
  0
TEXT
  8
0
 10
26.737610
 20
-62.617790
 40
4.500000
  1
FMX110-4KE2
 50
60.000000
 41
1.052632
 51
0.000000
  7
STANDARD
  0
TEXT
  8
0
 10
74.737602
 20
-62.617783
 40
4.500000
  1
FMW113-4KE2-J4S
 50
60.000000
 41
1.052632
 51
0.000000
  7
STANDARD
  0
TEXT
  8
0
 10
91.371582
 20
-62.617790
 40
4.500000
  1
FMX180-4E1
 50
60.000000
 41
1.052632
 51
0.000000
  7
STANDARD
  0
TEXT
  8
0
 10
129.371628
 20
-62.617790
 40
4.500000
  1
FMX180-4KE2
 50
60.000000
 41
1.052632
 51
0.000000
  7
STANDARD
  0
TEXT
  8
0
 10
148.371582
 20
-62.617790
 40
4.500000
  1
FMW180-4E1-J6S
 50
60.000000
 41
1.052632
 51
0.000000
  7
STANDARD
  0
TEXT
  8
0
 10
186.371582
 20
-62.617790
 40
4.500000
  1
FMW183-4KE2-J6S
 50
60.000000
 41
1.052632
 51
0.000000
  7
STANDARD
  0
TEXT
  8
0
 10
205.371582
 20
-62.617790
 40
4.500000
  1
FMW180-BP-J6S
 50
60.000000
 41
1.052632
 51
0.000000
  7
STANDARD
  0
TEXT
  8
0
 10
226.680984
 20
-62.617790
 40
4.500000
  1
FMP-PR02S
 50
60.000000
 41
1.052632
 51
0.000000
  7
STANDARD
  0
TEXT
  8
0
 10
42.737614
 20
-62.617790
 40
4.500000
  1
FMW110-4E1-J4S
 50
60.000000
 41
1.052632
 51
0.000000
  7
STANDARD
  0
POINT
  8
0
 10
-103.614243
 20
36.112759
  0
POINT
  8
0
 10
250.385757
 20
36.112759
  0
LINE
  8
0
 10
-103.614258
 20
46.112759
 11
-93.614258
 21
46.112759
  0
LINE
  8
0
 10
-103.614227
 20
124.112762
 11
-93.614227
 21
124.112762
  0
LINE
  8
0
 10
-91.614243
 20
36.191311
 11
-91.614243
 21
44.112759
  0
LINE
  8
0
 10
-91.614243
 20
126.112762
 11
-91.614243
 21
134.034210
  0
LINE
  8
0
 10
-97.614258
 20
38.962765
 11
-95.614258
 21
38.962765
  0
LINE
  8
0
 10
-97.614258
 20
43.262768
 11
-95.614258
 21
43.262768
  0
LINE
  8
0
 10
-101.614258
 20
41.112759
 11
-91.614258
 21
41.112759
  0
LINE
  8
0
 10
-96.614243
 20
38.112759
 11
-96.614243
 21
44.112759
  0
LINE
  8
0
 10
-97.614227
 20
126.962753
 11
-95.614227
 21
126.962753
  0
LINE
  8
0
 10
-97.614227
 20
131.262756
 11
-95.614227
 21
131.262756
  0
LINE
  8
0
 10
-101.614227
 20
129.112762
 11
-91.614227
 21
129.112762
  0
LINE
  8
0
 10
-96.614243
 20
126.112762
 11
-96.614243
 21
132.112762
  0
LINE
  8
0
 10
-88.614243
 20
134.112762
 11
-103.614243
 21
134.112762
  0
LINE
  8
0
 10
-88.614243
 20
36.112759
 11
-103.614243
 21
36.112759
  0
LINE
  8
0
 10
-88.614243
 20
134.112762
 11
-88.614243
 21
36.112759
  0
LINE
  8
0
 10
-103.614243
 20
134.112762
 11
-103.614243
 21
36.112759
  0
LINE
  8
0
 10
197.385757
 20
134.112762
 11
197.385757
 21
36.112759
  0
LINE
  8
0
 10
178.385757
 20
134.112762
 11
197.385757
 21
134.112762
  0
LINE
  8
0
 10
178.385757
 20
36.112759
 11
197.385757
 21
36.112759
  0
LINE
  8
0
 10
187.885757
 20
137.112778
 11
187.885757
 21
31.696102
  0
LINE
  8
0
 10
185.385757
 20
38.112759
 11
185.385757
 21
30.712765
  0
LINE
  8
0
 10
181.885757
 20
35.412762
 11
181.885757
 21
33.912762
  0
LINE
  8
0
 10
188.885757
 20
35.412762
 11
188.885757
 21
33.912762
  0
LINE
  8
0
 10
195.285721
 20
32.712765
 11
180.485733
 21
32.712765
  0
LINE
  8
0
 10
195.285721
 20
33.912762
 11
180.485733
 21
33.912762
  0
LINE
  8
0
 10
180.285721
 20
36.112759
 11
180.285721
 21
35.412762
  0
LINE
  8
0
 10
190.485733
 20
36.112759
 11
190.485733
 21
35.412762
  0
LINE
  8
0
 10
195.485733
 20
35.412762
 11
180.285721
 21
35.412762
  0
LINE
  8
0
 10
180.485733
 20
33.912762
 11
180.485733
 21
32.712765
  0
LINE
  8
0
 10
190.285721
 20
33.912762
 11
190.285721
 21
32.712765
  0
LINE
  8
0
 10
190.385757
 20
38.112759
 11
190.385757
 21
30.712765
  0
LINE
  8
0
 10
193.885757
 20
35.412762
 11
193.885757
 21
33.912762
  0
LINE
  8
0
 10
195.485733
 20
36.112759
 11
195.485733
 21
35.412762
  0
LINE
  8
0
 10
195.285721
 20
33.912762
 11
195.285721
 21
32.712765
  0
LINE
  8
0
 10
196.885757
 20
133.612762
 11
196.885757
 21
36.612759
  0
LINE
  8
0
 10
178.885757
 20
133.612762
 11
178.885757
 21
36.612759
  0
LINE
  8
0
 10
196.885757
 20
133.612762
 11
178.885757
 21
133.612762
  0
LINE
  8
0
 10
196.885757
 20
36.612759
 11
178.885757
 21
36.612759
  0
LINE
  8
0
 10
195.885757
 20
105.112762
 11
179.885757
 21
105.112762
  0
LINE
  8
0
 10
195.885757
 20
104.312759
 11
179.885757
 21
104.312759
  0
LINE
  8
0
 10
-69.614243
 20
134.112747
 11
-69.614243
 21
36.112759
  0
LINE
  8
0
 10
-88.614243
 20
36.112759
 11
-69.614243
 21
36.112759
  0
LINE
  8
0
 10
-88.614243
 20
134.112747
 11
-69.614243
 21
134.112747
  0
LINE
  8
0
 10
-75.114227
 20
46.612759
 11
-71.114227
 21
46.612759
  0
LINE
  8
0
 10
-75.114227
 20
50.612759
 11
-71.114227
 21
50.612759
  0
LINE
  8
0
 10
-75.114243
 20
50.612759
 11
-75.114243
 21
46.612759
  0
LINE
  8
0
 10
-71.114243
 20
50.612759
 11
-71.114243
 21
46.612759
  0
LINE
  8
0
 10
-87.114227
 20
50.612759
 11
-83.114227
 21
50.612759
  0
LINE
  8
0
 10
-83.114243
 20
50.612759
 11
-83.114243
 21
46.612759
  0
LINE
  8
0
 10
-87.114227
 20
46.612759
 11
-83.114227
 21
46.612759
  0
LINE
  8
0
 10
-87.114243
 20
50.612759
 11
-87.114243
 21
46.612759
  0
LINE
  8
0
 10
-72.214249
 20
119.112762
 11
-72.214249
 21
73.112762
  0
LINE
  8
0
 10
-81.614243
 20
119.112762
 11
-81.614243
 21
73.112762
  0
LINE
  8
0
 10
-81.614243
 20
73.112762
 11
-72.214249
 21
73.112762
  0
LINE
  8
0
 10
-81.614258
 20
119.112762
 11
-72.214264
 21
119.112762
  0
LINE
  8
0
 10
-84.114243
 20
55.112762
 11
-84.114243
 21
52.112759
  0
LINE
  8
0
 10
-74.114243
 20
55.112762
 11
-74.114243
 21
52.112759
  0
LINE
  8
0
 10
-84.114227
 20
52.112759
 11
-74.114227
 21
52.112759
  0
LINE
  8
0
 10
-79.114243
 20
137.612747
 11
-79.114243
 21
32.612759
  0
LINE
  8
0
 10
-88.614243
 20
69.112762
 11
-69.614243
 21
69.112762
  0
LINE
  8
0
 10
-88.614243
 20
55.112762
 11
-69.614243
 21
55.112762
  0
LINE
  8
0
 10
-73.614243
 20
80.762787
 11
-73.614243
 21
111.462769
  0
LINE
  8
0
 10
-80.214233
 20
80.762787
 11
-80.214233
 21
111.462769
  0
LINE
  8
0
 10
-78.914246
 20
80.762756
 11
-80.214249
 21
80.762756
  0
LINE
  8
0
 10
-78.914246
 20
77.362778
 11
-78.914246
 21
82.762772
  0
LINE
  8
0
 10
-74.914230
 20
77.362793
 11
-74.914230
 21
82.762787
  0
LINE
  8
0
 10
-74.914246
 20
77.362762
 11
-78.914246
 21
77.362762
  0
LINE
  8
0
 10
-74.914246
 20
82.762756
 11
-78.914246
 21
82.762756
  0
LINE
  8
0
 10
-73.614243
 20
80.762756
 11
-74.914246
 21
80.762756
  0
LINE
  8
0
 10
-74.914246
 20
111.462769
 11
-73.614243
 21
111.462769
  0
LINE
  8
0
 10
-74.914246
 20
114.862762
 11
-74.914246
 21
109.462769
  0
LINE
  8
0
 10
-78.914261
 20
114.862762
 11
-78.914261
 21
109.462753
  0
LINE
  8
0
 10
-78.914261
 20
114.862762
 11
-74.914261
 21
114.862762
  0
LINE
  8
0
 10
-78.914246
 20
109.462769
 11
-74.914246
 21
109.462769
  0
LINE
  8
0
 10
-80.214249
 20
111.462769
 11
-78.914246
 21
111.462769
  0
LINE
  8
0
 10
-88.614243
 20
36.612751
 11
-69.614243
 21
36.612751
  0
LINE
  8
0
 10
-88.614243
 20
133.612747
 11
-69.614243
 21
133.612747
  0
LINE
  8
0
 10
-74.280945
 20
42.279491
 11
-71.947479
 21
39.946026
  0
LINE
  8
0
 10
-74.280960
 20
39.946045
 11
-71.947510
 21
42.279503
  0
LINE
  8
0
 10
-74.280968
 20
130.279480
 11
-71.947502
 21
127.946014
  0
LINE
  8
0
 10
-74.281029
 20
127.946075
 11
-71.947571
 21
130.279526
  0
LINE
  8
0
 10
-76.914253
 20
71.934631
 11
-76.914253
 21
119.866486
  0
LINE
  8
0
 10
-86.280937
 20
130.279495
 11
-83.947472
 21
127.946030
  0
LINE
  8
0
 10
-86.280983
 20
127.946045
 11
-83.947525
 21
130.279510
  0
LINE
  8
0
 10
-86.280952
 20
42.279499
 11
-83.947487
 21
39.946033
  0
LINE
  8
0
 10
-86.280991
 20
39.946056
 11
-83.947533
 21
42.279510
  0
LINE
  8
0
 10
-84.084015
 20
60.809639
 11
-81.644501
 21
63.249157
  0
LINE
  8
0
 10
-81.644493
 20
60.809631
 11
-84.084007
 21
63.249146
  0
LINE
  8
0
 10
-76.584023
 20
60.808495
 11
-74.144501
 21
63.248009
  0
LINE
  8
0
 10
-74.144493
 20
60.808495
 11
-76.584000
 21
63.248005
  0
LINE
  8
0
 10
-82.114227
 20
48.612759
 11
-76.114227
 21
48.612759
  0
LINE
  8
0
 10
-69.614250
 20
36.112774
 11
-50.614250
 21
36.112774
  0
LINE
  8
0
 10
-69.614166
 20
134.112778
 11
-50.614170
 21
134.112778
  0
LINE
  8
0
 10
-65.114243
 20
52.112789
 11
-55.114239
 21
52.112789
  0
LINE
  8
0
 10
-65.114250
 20
55.112785
 11
-65.114250
 21
52.112785
  0
LINE
  8
0
 10
-55.114250
 20
55.112778
 11
-55.114250
 21
52.112778
  0
LINE
  8
0
 10
-56.114243
 20
46.612789
 11
-52.114243
 21
46.612789
  0
LINE
  8
0
 10
-56.114239
 20
50.612789
 11
-52.114239
 21
50.612789
  0
LINE
  8
0
 10
-56.114250
 20
50.612778
 11
-56.114250
 21
46.612778
  0
LINE
  8
0
 10
-52.114250
 20
50.612774
 11
-52.114250
 21
46.612774
  0
LINE
  8
0
 10
-68.114243
 20
50.612789
 11
-64.114243
 21
50.612789
  0
LINE
  8
0
 10
-64.114250
 20
50.612785
 11
-64.114250
 21
46.612785
  0
LINE
  8
0
 10
-68.114243
 20
46.612789
 11
-64.114243
 21
46.612789
  0
LINE
  8
0
 10
-68.114250
 20
50.612789
 11
-68.114250
 21
46.612789
  0
LINE
  8
0
 10
-60.114250
 20
137.612762
 11
-60.114250
 21
32.612782
  0
LINE
  8
0
 10
-52.614227
 20
119.612778
 11
-67.614227
 21
119.612778
  0
LINE
  8
0
 10
-52.614250
 20
72.572830
 11
-67.614235
 21
72.572830
  0
LINE
  8
0
 10
-66.414238
 20
120.092804
 11
-66.414238
 21
72.092812
  0
LINE
  8
0
 10
-56.314209
 20
122.592819
 11
-59.775730
 21
122.592819
  0
LINE
  8
0
 10
-56.314220
 20
69.592834
 11
-59.775703
 21
69.592834
  0
LINE
  8
0
 10
-53.814232
 20
120.092819
 11
-53.814232
 21
72.092819
  0
LINE
  8
0
 10
-64.314247
 20
112.438492
 11
-64.314247
 21
79.747139
  0
LINE
  8
0
 10
-55.914238
 20
113.214294
 11
-55.914238
 21
78.971313
  0
LINE
  8
0
 10
-58.261490
 20
77.001831
 11
-62.661491
 21
77.777664
  0
LINE
  8
0
 10
-58.261452
 20
115.183563
 11
-62.661423
 21
114.407730
  0
LINE
  8
0
 10
-67.114250
 20
57.612785
 11
-67.114250
 21
66.612785
  0
LINE
  8
0
 10
-69.614227
 20
69.112778
 11
-50.614223
 21
69.112778
  0
LINE
  8
0
 10
-69.614235
 20
55.112793
 11
-50.614235
 21
55.112793
  0
LINE
  8
0
 10
-67.114227
 20
66.612793
 11
-53.114227
 21
66.612793
  0
LINE
  8
0
 10
-67.114227
 20
57.612793
 11
-53.114231
 21
57.612793
  0
LINE
  8
0
 10
-53.114250
 20
57.612778
 11
-53.114250
 21
66.612778
  0
LINE
  8
0
 10
-69.614166
 20
133.612778
 11
-50.614170
 21
133.612778
  0
LINE
  8
0
 10
-69.614250
 20
36.612774
 11
-50.614250
 21
36.612774
  0
LINE
  8
0
 10
-50.614250
 20
36.112759
 11
-50.614250
 21
134.112762
  0
LINE
  8
0
 10
-55.280956
 20
42.279514
 11
-52.947495
 21
39.946053
  0
LINE
  8
0
 10
-55.280998
 20
39.946087
 11
-52.947544
 21
42.279541
  0
LINE
  8
0
 10
-67.280930
 20
130.279480
 11
-64.947464
 21
127.946014
  0
LINE
  8
0
 10
-67.280960
 20
127.946106
 11
-64.947510
 21
130.279556
  0
LINE
  8
0
 10
-55.280907
 20
130.279480
 11
-52.947445
 21
127.946030
  0
LINE
  8
0
 10
-55.280956
 20
127.946106
 11
-52.947502
 21
130.279556
  0
LINE
  8
0
 10
-67.280960
 20
42.279518
 11
-64.947502
 21
39.946060
  0
LINE
  8
0
 10
-67.280975
 20
39.946075
 11
-64.947525
 21
42.279530
  0
LINE
  8
0
 10
-65.084015
 20
60.809662
 11
-62.644497
 21
63.249176
  0
LINE
  8
0
 10
-62.644489
 20
60.809643
 11
-65.084000
 21
63.249153
  0
LINE
  8
0
 10
-57.584023
 20
60.808514
 11
-55.144505
 21
63.248024
  0
LINE
  8
0
 10
-55.144482
 20
60.808487
 11
-57.583992
 21
63.247997
  0
LINE
  8
0
 10
-63.114239
 20
48.612789
 11
-57.114239
 21
48.612789
  0
LINE
  8
0
 10
-57.364166
 20
121.200531
 11
-60.114170
 21
122.788254
  0
LINE
  8
0
 10
-57.364243
 20
118.025055
 11
-57.364243
 21
121.200485
  0
LINE
  8
0
 10
-60.114220
 20
122.788239
 11
-62.864212
 21
121.200531
  0
LINE
  8
0
 10
-62.864243
 20
118.025055
 11
-62.864243
 21
121.200500
  0
LINE
  8
0
 10
-60.114162
 20
116.437378
 11
-62.864159
 21
118.025085
  0
LINE
  8
0
 10
-57.364193
 20
118.025070
 11
-60.114182
 21
116.437363
  0
LINE
  8
0
 10
-57.364208
 20
74.160568
 11
-60.114212
 21
75.748283
  0
LINE
  8
0
 10
-57.364243
 20
70.985107
 11
-57.364243
 21
74.160538
  0
LINE
  8
0
 10
-60.114235
 20
75.748253
 11
-62.864223
 21
74.160545
  0
LINE
  8
0
 10
-62.864243
 20
70.985115
 11
-62.864243
 21
74.160545
  0
LINE
  8
0
 10
-60.114212
 20
69.397430
 11
-62.864201
 21
70.985138
  0
LINE
  8
0
 10
-57.364231
 20
70.985123
 11
-60.114220
 21
69.397415
  0
LINE
  8
0
 10
-60.452698
 20
69.592834
 11
-63.864223
 21
69.592834
  0
LINE
  8
0
 10
-60.452583
 20
122.592819
 11
-63.914215
 21
122.592819
  0
LINE
  8
0
 10
-50.614250
 20
36.112759
 11
-31.614250
 21
36.112759
  0
LINE
  8
0
 10
-50.614250
 20
134.112747
 11
-31.614250
 21
134.112747
  0
LINE
  8
0
 10
-49.614220
 20
125.112747
 11
-46.614220
 21
125.112747
  0
LINE
  8
0
 10
-49.614250
 20
45.112759
 11
-46.614250
 21
45.112759
  0
LINE
  8
0
 10
-49.614220
 20
125.112747
 11
-49.614220
 21
45.112759
  0
LINE
  8
0
 10
-46.614220
 20
125.112747
 11
-46.614220
 21
45.112759
  0
LINE
  8
0
 10
-41.114235
 20
137.612747
 11
-41.114235
 21
32.612759
  0
LINE
  8
0
 10
-31.614250
 20
134.112747
 11
-31.614250
 21
36.112759
  0
LINE
  8
0
 10
-32.614235
 20
46.112759
 11
-46.614220
 21
46.112759
  0
LINE
  8
0
 10
-32.614235
 20
46.112743
 11
-32.614235
 21
124.112762
  0
LINE
  8
0
 10
-44.114220
 20
113.612747
 11
-46.614220
 21
113.612747
  0
LINE
  8
0
 10
-44.114220
 20
116.612762
 11
-46.614220
 21
116.612762
  0
LINE
  8
0
 10
-32.614235
 20
116.612762
 11
-35.114220
 21
116.612762
  0
LINE
  8
0
 10
-32.614235
 20
113.612747
 11
-35.114220
 21
113.612747
  0
LINE
  8
0
 10
-32.614235
 20
121.112762
 11
-35.114220
 21
121.112762
  0
LINE
  8
0
 10
-44.114220
 20
121.112762
 11
-46.614220
 21
121.112762
  0
LINE
  8
0
 10
-32.614235
 20
109.112747
 11
-35.114220
 21
109.112747
  0
LINE
  8
0
 10
-35.114220
 20
108.112747
 11
-44.114220
 21
108.112747
  0
LINE
  8
0
 10
-44.114220
 20
108.112747
 11
-44.114220
 21
114.612762
  0
LINE
  8
0
 10
-35.114220
 20
108.112747
 11
-35.114220
 21
114.612762
  0
LINE
  8
0
 10
-35.114220
 20
115.612762
 11
-35.114220
 21
122.112762
  0
LINE
  8
0
 10
-44.114220
 20
115.612762
 11
-44.114220
 21
122.112762
  0
LINE
  8
0
 10
-44.114220
 20
109.112747
 11
-46.614220
 21
109.112747
  0
LINE
  8
0
 10
-35.114220
 20
114.612762
 11
-44.114220
 21
114.612762
  0
LINE
  8
0
 10
-35.114220
 20
115.612762
 11
-44.114220
 21
115.612762
  0
LINE
  8
0
 10
-35.114220
 20
122.112762
 11
-44.114220
 21
122.112762
  0
LINE
  8
0
 10
-44.114220
 20
53.612759
 11
-46.614220
 21
53.612759
  0
LINE
  8
0
 10
-44.114220
 20
56.612762
 11
-46.614220
 21
56.612762
  0
LINE
  8
0
 10
-32.614235
 20
56.612762
 11
-35.114220
 21
56.612762
  0
LINE
  8
0
 10
-32.614235
 20
53.612759
 11
-35.114220
 21
53.612759
  0
LINE
  8
0
 10
-32.614235
 20
61.112762
 11
-35.114220
 21
61.112762
  0
LINE
  8
0
 10
-44.114220
 20
61.112762
 11
-46.614220
 21
61.112762
  0
LINE
  8
0
 10
-32.614235
 20
49.112759
 11
-35.114220
 21
49.112759
  0
LINE
  8
0
 10
-35.114220
 20
48.112743
 11
-44.114220
 21
48.112743
  0
LINE
  8
0
 10
-44.114220
 20
48.112743
 11
-44.114220
 21
54.612762
  0
LINE
  8
0
 10
-35.114220
 20
48.112743
 11
-35.114220
 21
54.612762
  0
LINE
  8
0
 10
-35.114220
 20
55.612762
 11
-35.114220
 21
62.112762
  0
LINE
  8
0
 10
-44.114220
 20
55.612762
 11
-44.114220
 21
62.112762
  0
LINE
  8
0
 10
-44.114220
 20
63.112762
 11
-44.114220
 21
64.112762
  0
LINE
  8
0
 10
-35.114220
 20
63.112762
 11
-35.114220
 21
64.112762
  0
LINE
  8
0
 10
-44.114220
 20
49.112759
 11
-46.614220
 21
49.112759
  0
LINE
  8
0
 10
-35.114220
 20
54.612762
 11
-44.114220
 21
54.612762
  0
LINE
  8
0
 10
-35.114220
 20
55.612762
 11
-44.114220
 21
55.612762
  0
LINE
  8
0
 10
-35.114220
 20
63.112762
 11
-44.114220
 21
63.112762
  0
LINE
  8
0
 10
-35.114220
 20
62.112762
 11
-44.114220
 21
62.112762
  0
LINE
  8
0
 10
-44.114220
 20
68.612762
 11
-46.614220
 21
68.612762
  0
LINE
  8
0
 10
-44.114220
 20
71.612762
 11
-46.614220
 21
71.612762
  0
LINE
  8
0
 10
-32.614235
 20
71.612762
 11
-35.114220
 21
71.612762
  0
LINE
  8
0
 10
-32.614235
 20
68.612762
 11
-35.114220
 21
68.612762
  0
LINE
  8
0
 10
-32.614235
 20
76.112762
 11
-35.114220
 21
76.112762
  0
LINE
  8
0
 10
-44.114220
 20
76.112762
 11
-46.614220
 21
76.112762
  0
LINE
  8
0
 10
-32.614235
 20
64.112762
 11
-35.114220
 21
64.112762
  0
LINE
  8
0
 10
-35.114220
 20
63.112762
 11
-44.114220
 21
63.112762
  0
LINE
  8
0
 10
-44.114220
 20
63.112762
 11
-44.114220
 21
69.612762
  0
LINE
  8
0
 10
-35.114220
 20
63.112762
 11
-35.114220
 21
69.612762
  0
LINE
  8
0
 10
-35.114220
 20
70.612762
 11
-35.114220
 21
77.112762
  0
LINE
  8
0
 10
-44.114220
 20
70.612762
 11
-44.114220
 21
77.112762
  0
LINE
  8
0
 10
-44.114220
 20
78.112762
 11
-44.114220
 21
79.112762
  0
LINE
  8
0
 10
-35.114220
 20
78.112762
 11
-35.114220
 21
79.112762
  0
LINE
  8
0
 10
-44.114220
 20
64.112762
 11
-46.614220
 21
64.112762
  0
LINE
  8
0
 10
-35.114220
 20
69.612762
 11
-44.114220
 21
69.612762
  0
LINE
  8
0
 10
-35.114220
 20
70.612762
 11
-44.114220
 21
70.612762
  0
LINE
  8
0
 10
-35.114220
 20
78.112762
 11
-44.114220
 21
78.112762
  0
LINE
  8
0
 10
-35.114220
 20
77.112762
 11
-44.114220
 21
77.112762
  0
LINE
  8
0
 10
-44.114220
 20
83.612747
 11
-46.614220
 21
83.612747
  0
LINE
  8
0
 10
-44.114220
 20
86.612762
 11
-46.614220
 21
86.612762
  0
LINE
  8
0
 10
-32.614235
 20
86.612762
 11
-35.114220
 21
86.612762
  0
LINE
  8
0
 10
-32.614235
 20
83.612747
 11
-35.114220
 21
83.612747
  0
LINE
  8
0
 10
-32.614235
 20
91.112762
 11
-35.114220
 21
91.112762
  0
LINE
  8
0
 10
-44.114220
 20
91.112762
 11
-46.614220
 21
91.112762
  0
LINE
  8
0
 10
-32.614235
 20
79.112747
 11
-35.114220
 21
79.112747
  0
LINE
  8
0
 10
-35.114220
 20
78.112747
 11
-44.114220
 21
78.112747
  0
LINE
  8
0
 10
-44.114220
 20
78.112747
 11
-44.114220
 21
84.612762
  0
LINE
  8
0
 10
-35.114220
 20
78.112747
 11
-35.114220
 21
84.612762
  0
LINE
  8
0
 10
-35.114220
 20
85.612762
 11
-35.114220
 21
92.112762
  0
LINE
  8
0
 10
-44.114220
 20
85.612762
 11
-44.114220
 21
92.112762
  0
LINE
  8
0
 10
-44.114220
 20
93.112762
 11
-44.114220
 21
94.112762
  0
LINE
  8
0
 10
-35.114220
 20
93.112762
 11
-35.114220
 21
94.112762
  0
LINE
  8
0
 10
-44.114220
 20
79.112747
 11
-46.614220
 21
79.112747
  0
LINE
  8
0
 10
-35.114220
 20
84.612762
 11
-44.114220
 21
84.612762
  0
LINE
  8
0
 10
-35.114220
 20
85.612762
 11
-44.114220
 21
85.612762
  0
LINE
  8
0
 10
-35.114220
 20
93.112762
 11
-44.114220
 21
93.112762
  0
LINE
  8
0
 10
-35.114220
 20
92.112762
 11
-44.114220
 21
92.112762
  0
LINE
  8
0
 10
-44.114220
 20
98.612747
 11
-46.614220
 21
98.612747
  0
LINE
  8
0
 10
-44.114220
 20
101.612762
 11
-46.614220
 21
101.612762
  0
LINE
  8
0
 10
-32.614235
 20
101.612762
 11
-35.114220
 21
101.612762
  0
LINE
  8
0
 10
-32.614235
 20
98.612747
 11
-35.114220
 21
98.612747
  0
LINE
  8
0
 10
-32.614235
 20
106.112762
 11
-35.114220
 21
106.112762
  0
LINE
  8
0
 10
-44.114220
 20
106.112762
 11
-46.614220
 21
106.112762
  0
LINE
  8
0
 10
-32.614235
 20
94.112747
 11
-35.114220
 21
94.112747
  0
LINE
  8
0
 10
-35.114220
 20
93.112747
 11
-44.114220
 21
93.112747
  0
LINE
  8
0
 10
-44.114220
 20
93.112747
 11
-44.114220
 21
99.612762
  0
LINE
  8
0
 10
-35.114220
 20
93.112747
 11
-35.114220
 21
99.612762
  0
LINE
  8
0
 10
-35.114220
 20
100.612762
 11
-35.114220
 21
107.112762
  0
LINE
  8
0
 10
-44.114220
 20
100.612762
 11
-44.114220
 21
107.112762
  0
LINE
  8
0
 10
-44.114220
 20
108.112762
 11
-44.114220
 21
109.112762
  0
LINE
  8
0
 10
-35.114220
 20
108.112762
 11
-35.114220
 21
109.112762
  0
LINE
  8
0
 10
-44.114220
 20
94.112747
 11
-46.614220
 21
94.112747
  0
LINE
  8
0
 10
-35.114220
 20
99.612762
 11
-44.114220
 21
99.612762
  0
LINE
  8
0
 10
-35.114220
 20
100.612762
 11
-44.114220
 21
100.612762
  0
LINE
  8
0
 10
-35.114220
 20
108.112762
 11
-44.114220
 21
108.112762
  0
LINE
  8
0
 10
-35.114220
 20
107.112762
 11
-44.114220
 21
107.112762
  0
LINE
  8
0
 10
-46.614220
 20
124.112762
 11
-32.614235
 21
124.112762
  0
LINE
  8
0
 10
-48.528450
 20
127.698547
 11
-45.700024
 21
130.526978
  0
LINE
  8
0
 10
-48.528385
 20
130.527008
 11
-45.699970
 21
127.698593
  0
LINE
  8
0
 10
-36.528397
 20
39.698555
 11
-33.699974
 21
42.526981
  0
LINE
  8
0
 10
-36.528389
 20
42.527031
 11
-33.699959
 21
39.698601
  0
LINE
  8
0
 10
-48.528439
 20
39.698536
 11
-45.700008
 21
42.526966
  0
LINE
  8
0
 10
-48.528366
 20
42.527039
 11
-45.699936
 21
39.698608
  0
LINE
  8
0
 10
-41.028435
 20
49.948540
 11
-38.200012
 21
52.776970
  0
LINE
  8
0
 10
-41.028355
 20
52.777031
 11
-38.199928
 21
49.948608
  0
LINE
  8
0
 10
-41.028439
 20
57.448547
 11
-38.200012
 21
60.276974
  0
LINE
  8
0
 10
-41.028389
 20
60.277000
 11
-38.199959
 21
57.448578
  0
LINE
  8
0
 10
-41.028446
 20
64.948524
 11
-38.200020
 21
67.776947
  0
LINE
  8
0
 10
-41.028366
 20
67.777046
 11
-38.199936
 21
64.948616
  0
LINE
  8
0
 10
-41.028435
 20
72.448547
 11
-38.200005
 21
75.276970
  0
LINE
  8
0
 10
-41.028389
 20
75.277031
 11
-38.199959
 21
72.448608
  0
LINE
  8
0
 10
-41.028450
 20
79.948547
 11
-38.200027
 21
82.776978
  0
LINE
  8
0
 10
-41.028397
 20
82.777039
 11
-38.199974
 21
79.948608
  0
LINE
  8
0
 10
-41.028465
 20
87.448563
 11
-38.200035
 21
90.276985
  0
LINE
  8
0
 10
-41.028370
 20
90.277039
 11
-38.199944
 21
87.448608
  0
LINE
  8
0
 10
-41.028435
 20
94.948547
 11
-38.200005
 21
97.776978
  0
LINE
  8
0
 10
-41.028389
 20
97.777016
 11
-38.199959
 21
94.948586
  0
LINE
  8
0
 10
-41.028461
 20
102.448547
 11
-38.200035
 21
105.276978
  0
LINE
  8
0
 10
-41.028339
 20
105.277039
 11
-38.199921
 21
102.448624
  0
LINE
  8
0
 10
-41.028442
 20
109.948547
 11
-38.200020
 21
112.776978
  0
LINE
  8
0
 10
-41.028378
 20
112.777008
 11
-38.199951
 21
109.948578
  0
LINE
  8
0
 10
-41.028461
 20
117.448563
 11
-38.200027
 21
120.276993
  0
LINE
  8
0
 10
-41.028351
 20
120.277039
 11
-38.199921
 21
117.448608
  0
LINE
  8
0
 10
-36.528481
 20
127.698547
 11
-33.700035
 21
130.526993
  0
LINE
  8
0
 10
-36.528374
 20
130.527008
 11
-33.699944
 21
127.698593
  0
LINE
  8
0
 10
-50.614250
 20
36.612759
 11
-31.614250
 21
36.612759
  0
LINE
  8
0
 10
-50.614250
 20
133.612747
 11
-31.614250
 21
133.612747
  0
LINE
  8
0
 10
-15.614250
 20
134.112762
 11
-15.614250
 21
36.112759
  0
LINE
  8
0
 10
-31.614250
 20
134.112762
 11
-15.614250
 21
134.112762
  0
LINE
  8
0
 10
-31.614250
 20
36.112759
 11
-15.614250
 21
36.112759
  0
LINE
  8
0
 10
-31.614250
 20
80.112762
 11
-15.614250
 21
80.112762
  0
LINE
  8
0
 10
-31.614250
 20
52.112774
 11
-15.614250
 21
52.112774
  0
LINE
  8
0
 10
-31.614250
 20
44.612774
 11
-15.614250
 21
44.612774
  0
LINE
  8
0
 10
-23.614250
 20
135.112762
 11
-23.614250
 21
34.767208
  0
LINE
  8
0
 10
-24.078850
 20
71.112762
 11
-17.129005
 21
71.112762
  0
LINE
  8
0
 10
-29.931358
 20
61.112778
 11
-22.981514
 21
61.112778
  0
LINE
  8
0
 10
-20.614250
 20
74.711578
 11
-20.614250
 21
66.938736
  0
LINE
  8
0
 10
-26.614250
 20
64.561142
 11
-26.614250
 21
57.611298
  0
LINE
  8
0
 10
-25.999199
 20
93.612762
 11
-21.152596
 21
93.612762
  0
LINE
  8
0
 10
-31.614250
 20
97.112762
 11
-15.614250
 21
97.112762
  0
LINE
  8
0
 10
-29.114250
 20
98.912766
 11
-18.114250
 21
98.912766
  0
LINE
  8
0
 10
-29.114250
 20
113.112778
 11
-18.114250
 21
113.112778
  0
LINE
  8
0
 10
-29.114250
 20
120.612778
 11
-18.114250
 21
120.612778
  0
LINE
  8
0
 10
-29.114250
 20
120.612793
 11
-29.114250
 21
113.112793
  0
LINE
  8
0
 10
-18.114250
 20
120.612778
 11
-18.114250
 21
113.112778
  0
LINE
  8
0
 10
-20.114250
 20
106.112778
 11
-20.114250
 21
102.112778
  0
LINE
  8
0
 10
-27.114250
 20
106.112793
 11
-27.114250
 21
102.112793
  0
LINE
  8
0
 10
-29.114250
 20
111.412796
 11
-29.114250
 21
98.912781
  0
LINE
  8
0
 10
-18.114250
 20
111.412781
 11
-18.114250
 21
98.912781
  0
LINE
  8
0
 10
-29.114250
 20
111.412766
 11
-18.114250
 21
111.412766
  0
LINE
  8
0
 10
-27.114250
 20
102.112778
 11
-20.114250
 21
102.112778
  0
LINE
  8
0
 10
-27.114250
 20
106.112778
 11
-20.114250
 21
106.112778
  0
LINE
  8
0
 10
-31.614250
 20
123.512787
 11
-15.614250
 21
123.512787
  0
LINE
  8
0
 10
-30.014084
 20
125.512787
 11
-17.214149
 21
125.512787
  0
LINE
  8
0
 10
-31.114143
 20
123.512711
 11
-30.014107
 21
125.512787
  0
LINE
  8
0
 10
-17.214134
 20
125.512787
 11
-16.114143
 21
123.512802
  0
LINE
  8
0
 10
16.385750
 20
134.112762
 11
16.385750
 21
36.112759
  0
LINE
  8
0
 10
2.885750
 20
98.912766
 11
13.885750
 21
98.912766
  0
LINE
  8
0
 10
2.885750
 20
113.112778
 11
13.885750
 21
113.112778
  0
LINE
  8
0
 10
2.885750
 20
120.612778
 11
13.885750
 21
120.612778
  0
LINE
  8
0
 10
2.885750
 20
120.612793
 11
2.885750
 21
113.112793
  0
LINE
  8
0
 10
13.885750
 20
120.612778
 11
13.885750
 21
113.112778
  0
LINE
  8
0
 10
11.885750
 20
106.112778
 11
11.885750
 21
102.112778
  0
LINE
  8
0
 10
4.885750
 20
106.112793
 11
4.885750
 21
102.112793
  0
LINE
  8
0
 10
2.885750
 20
111.412796
 11
2.885750
 21
98.912781
  0
LINE
  8
0
 10
13.885750
 20
111.412781
 11
13.885750
 21
98.912781
  0
LINE
  8
0
 10
2.885750
 20
111.412766
 11
13.885750
 21
111.412766
  0
LINE
  8
0
 10
4.885750
 20
102.112778
 11
11.885750
 21
102.112778
  0
LINE
  8
0
 10
4.885750
 20
106.112778
 11
11.885750
 21
106.112778
  0
LINE
  8
0
 10
1.985878
 20
125.512787
 11
14.785736
 21
125.512787
  0
LINE
  8
0
 10
0.885887
 20
123.512711
 11
1.985909
 21
125.512772
  0
LINE
  8
0
 10
14.785606
 20
125.512726
 11
15.885620
 21
123.512695
  0
LINE
  8
0
 10
0.385750
 20
134.112762
 11
0.385750
 21
80.112762
  0
LINE
  8
0
 10
-15.614250
 20
134.112762
 11
16.385750
 21
134.112762
  0
LINE
  8
0
 10
-15.614250
 20
36.112759
 11
16.385750
 21
36.112759
  0
LINE
  8
0
 10
-15.614250
 20
97.112762
 11
16.385750
 21
97.112762
  0
LINE
  8
0
 10
-13.114243
 20
98.912766
 11
-2.114250
 21
98.912766
  0
LINE
  8
0
 10
-13.114243
 20
113.112778
 11
-2.114250
 21
113.112778
  0
LINE
  8
0
 10
-13.114243
 20
120.612778
 11
-2.114250
 21
120.612778
  0
LINE
  8
0
 10
-13.114243
 20
120.612793
 11
-13.114243
 21
113.112793
  0
LINE
  8
0
 10
-2.114250
 20
120.612778
 11
-2.114250
 21
113.112778
  0
LINE
  8
0
 10
-4.114243
 20
106.112778
 11
-4.114243
 21
102.112778
  0
LINE
  8
0
 10
-11.114243
 20
106.112793
 11
-11.114243
 21
102.112793
  0
LINE
  8
0
 10
-13.114243
 20
111.412796
 11
-13.114243
 21
98.912781
  0
LINE
  8
0
 10
-2.114250
 20
111.412781
 11
-2.114250
 21
98.912781
  0
LINE
  8
0
 10
-13.114243
 20
111.412766
 11
-2.114250
 21
111.412766
  0
LINE
  8
0
 10
-11.114243
 20
102.112778
 11
-4.114243
 21
102.112778
  0
LINE
  8
0
 10
-11.114243
 20
106.112778
 11
-4.114243
 21
106.112778
  0
LINE
  8
0
 10
-15.614250
 20
123.512787
 11
16.385750
 21
123.512787
  0
LINE
  8
0
 10
-14.014099
 20
125.512787
 11
-1.214249
 21
125.512787
  0
LINE
  8
0
 10
-15.114075
 20
123.512680
 11
-14.014038
 21
125.512741
  0
LINE
  8
0
 10
-1.214371
 20
125.512726
 11
-0.114349
 21
123.512695
  0
LINE
  8
0
 10
-15.614250
 20
52.112759
 11
16.385750
 21
52.112759
  0
LINE
  8
0
 10
-15.614250
 20
44.612759
 11
16.385750
 21
44.612759
  0
LINE
  8
0
 10
-15.614250
 20
80.112762
 11
16.385750
 21
80.112762
  0
LINE
  8
0
 10
-10.879417
 20
93.612762
 11
-4.300362
 21
93.612762
  0
LINE
  8
0
 10
5.568245
 20
93.612762
 11
11.003120
 21
93.612762
  0
LINE
  8
0
 10
0.385750
 20
44.612759
 11
0.385750
 21
36.112759
  0
LINE
  8
0
 10
-7.614250
 20
135.112762
 11
-7.614250
 21
35.112759
  0
LINE
  8
0
 10
8.385750
 20
135.112762
 11
8.385750
 21
35.112759
  0
LINE
  8
0
 10
3.385750
 20
65.112762
 11
3.385750
 21
57.112762
  0
LINE
  8
0
 10
-2.614250
 20
75.112762
 11
-2.614250
 21
67.112762
  0
LINE
  8
0
 10
-6.614250
 20
71.112762
 11
1.385750
 21
71.112762
  0
LINE
  8
0
 10
-0.614250
 20
61.112762
 11
7.385750
 21
61.112762
  0
LINE
  8
0
 10
16.385750
 20
80.112793
 11
32.385757
 21
80.112793
  0
LINE
  8
0
 10
24.385567
 20
136.112762
 11
24.385567
 21
31.571716
  0
LINE
  8
0
 10
22.000694
 20
93.612869
 11
26.847153
 21
93.612869
  0
LINE
  8
0
 10
16.385750
 20
52.112637
 11
32.385757
 21
52.112637
  0
LINE
  8
0
 10
16.385750
 20
44.612606
 11
32.385757
 21
44.612606
  0
LINE
  8
0
 10
16.385750
 20
97.112869
 11
32.385757
 21
97.112869
  0
LINE
  8
0
 10
18.885567
 20
98.912872
 11
29.885544
 21
98.912872
  0
LINE
  8
0
 10
18.885567
 20
113.112869
 11
29.885544
 21
113.112869
  0
LINE
  8
0
 10
18.885567
 20
120.612869
 11
29.885544
 21
120.612869
  0
LINE
  8
0
 10
18.885551
 20
120.612869
 11
18.885551
 21
113.112869
  0
LINE
  8
0
 10
29.885544
 20
120.612869
 11
29.885544
 21
113.112869
  0
LINE
  8
0
 10
27.885544
 20
106.112869
 11
27.885544
 21
102.112869
  0
LINE
  8
0
 10
20.885551
 20
106.112869
 11
20.885551
 21
102.112869
  0
LINE
  8
0
 10
18.885551
 20
111.412872
 11
18.885551
 21
98.912872
  0
LINE
  8
0
 10
29.885544
 20
111.412872
 11
29.885544
 21
98.912872
  0
LINE
  8
0
 10
18.885567
 20
111.412872
 11
29.885544
 21
111.412872
  0
LINE
  8
0
 10
20.885551
 20
102.112869
 11
27.885544
 21
102.112869
  0
LINE
  8
0
 10
20.885551
 20
106.112869
 11
27.885544
 21
106.112869
  0
LINE
  8
0
 10
16.385750
 20
123.512863
 11
32.385757
 21
123.512863
  0
LINE
  8
0
 10
17.985672
 20
125.512863
 11
30.785400
 21
125.512863
  0
LINE
  8
0
 10
16.885674
 20
123.512802
 11
17.985687
 21
125.512833
  0
LINE
  8
0
 10
30.785309
 20
125.512802
 11
31.885330
 21
123.512756
  0
LINE
  8
0
 10
32.385757
 20
134.112762
 11
32.385757
 21
36.112759
  0
LINE
  8
0
 10
16.385750
 20
134.112762
 11
32.385757
 21
134.112762
  0
LINE
  8
0
 10
16.385750
 20
36.112759
 11
32.385757
 21
36.112759
  0
LINE
  8
0
 10
29.285568
 20
32.712765
 11
19.485565
 21
32.712765
  0
LINE
  8
0
 10
29.285568
 20
33.912762
 11
19.485565
 21
33.912762
  0
LINE
  8
0
 10
20.885567
 20
35.412762
 11
20.885567
 21
33.912762
  0
LINE
  8
0
 10
25.885574
 20
35.412762
 11
25.885574
 21
33.912762
  0
LINE
  8
0
 10
18.285568
 20
36.112759
 11
18.285568
 21
35.412762
  0
LINE
  8
0
 10
28.485565
 20
36.112759
 11
28.485565
 21
35.412762
  0
LINE
  8
0
 10
19.485565
 20
33.912762
 11
19.485565
 21
32.712765
  0
LINE
  8
0
 10
27.285568
 20
33.912762
 11
27.285568
 21
32.712765
  0
LINE
  8
0
 10
30.485565
 20
35.412762
 11
18.285568
 21
35.412762
  0
LINE
  8
0
 10
30.485565
 20
36.112759
 11
30.485565
 21
35.412762
  0
LINE
  8
0
 10
29.285568
 20
33.912762
 11
29.285568
 21
32.712765
  0
LINE
  8
0
 10
27.885574
 20
35.412762
 11
27.885574
 21
33.912762
  0
LINE
  8
0
 10
56.385574
 20
136.112762
 11
56.385574
 21
29.423332
  0
LINE
  8
0
 10
64.385757
 20
134.112762
 11
64.385757
 21
36.112759
  0
LINE
  8
0
 10
40.385574
 20
136.112762
 11
40.385574
 21
29.243309
  0
LINE
  8
0
 10
48.385757
 20
134.112762
 11
48.385757
 21
80.112762
  0
LINE
  8
0
 10
32.385757
 20
134.112762
 11
64.385757
 21
134.112762
  0
LINE
  8
0
 10
32.385757
 20
52.112759
 11
64.385757
 21
52.112759
  0
LINE
  8
0
 10
32.385757
 20
44.612759
 11
64.385757
 21
44.612759
  0
LINE
  8
0
 10
32.385757
 20
80.112762
 11
64.385757
 21
80.112762
  0
LINE
  8
0
 10
37.120590
 20
93.612762
 11
43.699631
 21
93.612762
  0
LINE
  8
0
 10
53.568253
 20
93.612762
 11
59.003128
 21
93.612762
  0
LINE
  8
0
 10
48.385757
 20
44.612759
 11
48.385757
 21
36.112759
  0
LINE
  8
0
 10
32.385757
 20
97.112762
 11
64.385757
 21
97.112762
  0
LINE
  8
0
 10
34.885727
 20
98.912766
 11
45.885727
 21
98.912766
  0
LINE
  8
0
 10
34.885727
 20
113.112762
 11
45.885727
 21
113.112762
  0
LINE
  8
0
 10
34.885757
 20
120.612762
 11
45.885727
 21
120.612762
  0
LINE
  8
0
 10
34.885727
 20
120.612762
 11
34.885727
 21
113.112762
  0
LINE
  8
0
 10
45.885727
 20
120.612762
 11
45.885727
 21
113.112762
  0
LINE
  8
0
 10
43.885727
 20
106.112762
 11
43.885727
 21
102.112762
  0
LINE
  8
0
 10
36.885727
 20
106.112762
 11
36.885727
 21
102.112762
  0
LINE
  8
0
 10
34.885727
 20
111.412766
 11
34.885727
 21
98.912766
  0
LINE
  8
0
 10
45.885727
 20
111.412766
 11
45.885727
 21
98.912750
  0
LINE
  8
0
 10
34.885727
 20
111.412766
 11
45.885727
 21
111.412766
  0
LINE
  8
0
 10
36.885727
 20
102.112762
 11
43.885727
 21
102.112762
  0
LINE
  8
0
 10
36.885727
 20
106.112762
 11
43.885727
 21
106.112762
  0
LINE
  8
0
 10
32.385757
 20
123.512756
 11
64.385757
 21
123.512756
  0
LINE
  8
0
 10
33.985825
 20
125.512756
 11
46.785645
 21
125.512756
  0
LINE
  8
0
 10
32.885818
 20
123.512711
 11
33.985840
 21
125.512726
  0
LINE
  8
0
 10
46.785522
 20
125.512680
 11
47.885544
 21
123.512650
  0
LINE
  8
0
 10
50.885727
 20
98.912766
 11
61.885727
 21
98.912766
  0
LINE
  8
0
 10
50.885727
 20
113.112762
 11
61.885727
 21
113.112762
  0
LINE
  8
0
 10
50.885727
 20
120.612762
 11
61.885727
 21
120.612762
  0
LINE
  8
0
 10
50.885727
 20
120.612762
 11
50.885727
 21
113.112762
  0
LINE
  8
0
 10
61.885727
 20
120.612762
 11
61.885727
 21
113.112762
  0
LINE
  8
0
 10
59.885727
 20
106.112762
 11
59.885727
 21
102.112762
  0
LINE
  8
0
 10
52.885727
 20
106.112762
 11
52.885727
 21
102.112762
  0
LINE
  8
0
 10
50.885727
 20
111.412766
 11
50.885727
 21
98.912766
  0
LINE
  8
0
 10
61.885727
 20
111.412766
 11
61.885727
 21
98.912750
  0
LINE
  8
0
 10
50.885727
 20
111.412766
 11
61.885727
 21
111.412766
  0
LINE
  8
0
 10
52.885727
 20
102.112762
 11
59.885727
 21
102.112762
  0
LINE
  8
0
 10
52.885727
 20
106.112762
 11
59.885727
 21
106.112762
  0
LINE
  8
0
 10
49.985794
 20
125.512756
 11
62.785629
 21
125.512756
  0
LINE
  8
0
 10
48.885788
 20
123.512741
 11
49.985794
 21
125.512756
  0
LINE
  8
0
 10
62.785522
 20
125.512695
 11
63.885529
 21
123.512665
  0
LINE
  8
0
 10
32.385757
 20
36.112759
 11
64.385757
 21
36.112759
  0
LINE
  8
0
 10
43.885574
 20
35.412762
 11
43.885574
 21
33.912762
  0
LINE
  8
0
 10
45.285568
 20
32.712765
 11
35.485565
 21
32.712765
  0
LINE
  8
0
 10
45.285568
 20
33.912762
 11
35.485565
 21
33.912762
  0
LINE
  8
0
 10
36.885574
 20
35.412762
 11
36.885574
 21
33.912762
  0
LINE
  8
0
 10
41.885574
 20
35.412762
 11
41.885574
 21
33.912762
  0
LINE
  8
0
 10
34.285568
 20
36.112759
 11
34.285568
 21
35.412762
  0
LINE
  8
0
 10
44.485565
 20
36.112759
 11
44.485565
 21
35.412762
  0
LINE
  8
0
 10
35.485565
 20
33.912762
 11
35.485565
 21
32.712765
  0
LINE
  8
0
 10
43.285568
 20
33.912762
 11
43.285568
 21
32.712765
  0
LINE
  8
0
 10
46.485565
 20
35.412762
 11
34.285568
 21
35.412762
  0
LINE
  8
0
 10
46.485565
 20
36.112759
 11
46.485565
 21
35.412762
  0
LINE
  8
0
 10
45.285568
 20
33.912762
 11
45.285568
 21
32.712765
  0
LINE
  8
0
 10
59.885574
 20
35.412762
 11
59.885574
 21
33.912762
  0
LINE
  8
0
 10
61.285568
 20
32.712765
 11
51.485565
 21
32.712765
  0
LINE
  8
0
 10
61.285568
 20
33.912762
 11
51.485565
 21
33.912762
  0
LINE
  8
0
 10
52.885574
 20
35.412762
 11
52.885574
 21
33.912762
  0
LINE
  8
0
 10
57.885574
 20
35.412762
 11
57.885574
 21
33.912762
  0
LINE
  8
0
 10
50.285568
 20
36.112759
 11
50.285568
 21
35.412762
  0
LINE
  8
0
 10
60.485565
 20
36.112759
 11
60.485565
 21
35.412762
  0
LINE
  8
0
 10
51.485565
 20
33.912762
 11
51.485565
 21
32.712765
  0
LINE
  8
0
 10
59.285568
 20
33.912762
 11
59.285568
 21
32.712765
  0
LINE
  8
0
 10
62.485565
 20
35.412762
 11
50.285568
 21
35.412762
  0
LINE
  8
0
 10
62.485565
 20
36.112759
 11
62.485565
 21
35.412762
  0
LINE
  8
0
 10
61.285568
 20
33.912762
 11
61.285568
 21
32.712765
  0
LINE
  8
0
 10
48.385574
 20
44.612759
 11
48.385574
 21
36.112759
  0
LINE
  8
0
 10
83.385757
 20
134.112762
 11
83.385757
 21
36.112759
  0
LINE
  8
0
 10
64.385757
 20
134.112762
 11
83.385757
 21
134.112762
  0
LINE
  8
0
 10
64.385757
 20
36.112759
 11
83.385757
 21
36.112759
  0
LINE
  8
0
 10
64.385757
 20
132.112762
 11
66.605850
 21
132.112762
  0
LINE
  8
0
 10
73.885757
 20
137.112762
 11
73.885757
 21
31.696102
  0
LINE
  8
0
 10
64.385757
 20
45.112759
 11
83.385757
 21
45.112759
  0
LINE
  8
0
 10
70.964035
 20
101.812759
 11
76.795456
 21
101.812759
  0
LINE
  8
0
 10
64.385757
 20
104.312759
 11
83.385757
 21
104.312759
  0
LINE
  8
0
 10
68.385757
 20
107.112762
 11
79.385757
 21
107.112762
  0
LINE
  8
0
 10
68.385757
 20
121.312775
 11
79.385757
 21
121.312775
  0
LINE
  8
0
 10
68.385757
 20
128.812775
 11
79.385757
 21
128.812775
  0
LINE
  8
0
 10
68.385757
 20
128.812790
 11
68.385757
 21
121.312790
  0
LINE
  8
0
 10
79.385757
 20
128.812775
 11
79.385757
 21
121.312775
  0
LINE
  8
0
 10
77.385757
 20
114.312775
 11
77.385757
 21
110.312775
  0
LINE
  8
0
 10
70.385757
 20
114.312790
 11
70.385757
 21
110.312790
  0
LINE
  8
0
 10
68.385757
 20
119.612793
 11
68.385757
 21
107.112778
  0
LINE
  8
0
 10
79.385757
 20
119.612778
 11
79.385757
 21
107.112778
  0
LINE
  8
0
 10
68.385757
 20
119.612762
 11
79.385757
 21
119.612762
  0
LINE
  8
0
 10
70.385757
 20
110.312775
 11
77.385757
 21
110.312775
  0
LINE
  8
0
 10
70.385757
 20
114.312775
 11
77.385757
 21
114.312775
  0
LINE
  8
0
 10
66.385757
 20
131.712784
 11
81.385757
 21
131.712784
  0
LINE
  8
0
 10
67.485855
 20
133.712784
 11
80.285736
 21
133.712784
  0
LINE
  8
0
 10
66.385849
 20
131.712738
 11
67.485855
 21
133.712753
  0
LINE
  8
0
 10
80.285538
 20
133.712677
 11
81.385544
 21
131.712662
  0
LINE
  8
0
 10
81.165878
 20
132.112762
 11
83.385757
 21
132.112762
  0
LINE
  8
0
 10
64.385757
 20
87.112762
 11
83.385757
 21
87.112762
  0
LINE
  8
0
 10
66.885757
 20
74.112762
 11
81.885757
 21
74.112762
  0
LINE
  8
0
 10
65.885757
 20
58.112762
 11
80.885757
 21
58.112762
  0
LINE
  8
0
 10
74.385757
 20
81.612762
 11
74.385757
 21
66.612762
  0
LINE
  8
0
 10
73.385757
 20
65.612762
 11
73.385757
 21
50.612759
  0
LINE
  8
0
 10
121.385742
 20
134.112762
 11
121.385742
 21
36.112759
  0
LINE
  8
0
 10
100.165756
 20
132.112762
 11
104.605835
 21
132.112762
  0
LINE
  8
0
 10
111.885742
 20
137.112762
 11
111.885742
 21
31.696102
  0
LINE
  8
0
 10
106.385742
 20
107.112762
 11
117.385773
 21
107.112762
  0
LINE
  8
0
 10
106.385742
 20
121.312775
 11
117.385773
 21
121.312775
  0
LINE
  8
0
 10
106.385742
 20
128.812775
 11
117.385773
 21
128.812775
  0
LINE
  8
0
 10
106.385742
 20
128.812790
 11
106.385742
 21
121.312790
  0
LINE
  8
0
 10
117.385773
 20
128.812775
 11
117.385773
 21
121.312775
  0
LINE
  8
0
 10
115.385742
 20
114.312775
 11
115.385742
 21
110.312775
  0
LINE
  8
0
 10
108.385742
 20
114.312790
 11
108.385742
 21
110.312790
  0
LINE
  8
0
 10
106.385742
 20
119.612793
 11
106.385742
 21
107.112778
  0
LINE
  8
0
 10
117.385773
 20
119.612778
 11
117.385773
 21
107.112778
  0
LINE
  8
0
 10
106.385742
 20
119.612762
 11
117.385773
 21
119.612762
  0
LINE
  8
0
 10
108.385742
 20
110.312775
 11
115.385742
 21
110.312775
  0
LINE
  8
0
 10
108.385742
 20
114.312775
 11
115.385742
 21
114.312775
  0
LINE
  8
0
 10
104.385742
 20
131.712784
 11
119.385773
 21
131.712784
  0
LINE
  8
0
 10
105.485825
 20
133.712784
 11
118.285675
 21
133.712784
  0
LINE
  8
0
 10
104.385757
 20
131.712753
 11
105.485779
 21
133.712769
  0
LINE
  8
0
 10
118.285416
 20
133.712646
 11
119.385437
 21
131.712601
  0
LINE
  8
0
 10
119.165894
 20
132.112762
 11
121.385742
 21
132.112762
  0
LINE
  8
0
 10
102.385757
 20
134.112762
 11
102.385757
 21
87.112762
  0
LINE
  8
0
 10
83.385757
 20
134.112762
 11
121.385742
 21
134.112762
  0
LINE
  8
0
 10
83.385757
 20
36.112759
 11
121.385742
 21
36.112759
  0
LINE
  8
0
 10
83.385757
 20
132.112762
 11
85.605850
 21
132.112762
  0
LINE
  8
0
 10
92.885757
 20
137.112762
 11
92.885757
 21
31.696102
  0
LINE
  8
0
 10
87.385757
 20
107.112762
 11
98.385757
 21
107.112762
  0
LINE
  8
0
 10
87.385757
 20
121.312775
 11
98.385757
 21
121.312775
  0
LINE
  8
0
 10
87.385757
 20
128.812775
 11
98.385757
 21
128.812775
  0
LINE
  8
0
 10
87.385757
 20
128.812790
 11
87.385757
 21
121.312790
  0
LINE
  8
0
 10
98.385757
 20
128.812775
 11
98.385757
 21
121.312775
  0
LINE
  8
0
 10
96.385757
 20
114.312775
 11
96.385757
 21
110.312775
  0
LINE
  8
0
 10
89.385757
 20
114.312790
 11
89.385757
 21
110.312790
  0
LINE
  8
0
 10
87.385757
 20
119.612793
 11
87.385757
 21
107.112778
  0
LINE
  8
0
 10
98.385757
 20
119.612778
 11
98.385757
 21
107.112778
  0
LINE
  8
0
 10
87.385757
 20
119.612762
 11
98.385757
 21
119.612762
  0
LINE
  8
0
 10
89.385757
 20
110.312775
 11
96.385757
 21
110.312775
  0
LINE
  8
0
 10
89.385757
 20
114.312775
 11
96.385757
 21
114.312775
  0
LINE
  8
0
 10
85.385757
 20
131.712784
 11
100.385757
 21
131.712784
  0
LINE
  8
0
 10
86.485855
 20
133.712784
 11
99.285736
 21
133.712784
  0
LINE
  8
0
 10
85.385834
 20
131.712738
 11
86.485855
 21
133.712784
  0
LINE
  8
0
 10
99.285492
 20
133.712646
 11
100.385513
 21
131.712631
  0
LINE
  8
0
 10
83.385757
 20
87.112762
 11
121.385742
 21
87.112762
  0
LINE
  8
0
 10
83.385757
 20
45.112759
 11
121.385742
 21
45.112759
  0
LINE
  8
0
 10
83.385757
 20
104.312759
 11
121.385742
 21
104.312759
  0
LINE
  8
0
 10
89.647385
 20
101.812759
 11
95.926132
 21
101.812759
  0
LINE
  8
0
 10
108.769043
 20
101.812759
 11
114.334320
 21
101.812759
  0
LINE
  8
0
 10
102.885757
 20
79.112762
 11
102.885757
 21
67.112762
  0
LINE
  8
0
 10
96.885757
 20
73.112762
 11
108.885742
 21
73.112762
  0
LINE
  8
0
 10
86.885757
 20
59.112762
 11
98.885757
 21
59.112762
  0
LINE
  8
0
 10
140.385742
 20
134.112762
 11
140.385742
 21
36.112759
  0
LINE
  8
0
 10
121.385742
 20
36.112759
 11
140.385742
 21
36.112759
  0
LINE
  8
0
 10
130.885742
 20
137.112778
 11
130.885742
 21
31.696102
  0
LINE
  8
0
 10
121.385742
 20
87.112762
 11
140.385742
 21
87.112762
  0
LINE
  8
0
 10
121.385742
 20
45.112774
 11
140.385742
 21
45.112774
  0
LINE
  8
0
 10
127.964020
 20
101.812759
 11
133.795425
 21
101.812759
  0
LINE
  8
0
 10
121.385742
 20
105.312759
 11
140.385742
 21
105.312759
  0
LINE
  8
0
 10
125.385727
 20
107.112762
 11
136.385727
 21
107.112762
  0
LINE
  8
0
 10
125.385727
 20
121.312790
 11
136.385727
 21
121.312790
  0
LINE
  8
0
 10
125.385727
 20
128.812790
 11
136.385727
 21
128.812790
  0
LINE
  8
0
 10
125.385727
 20
128.812790
 11
125.385727
 21
121.312790
  0
LINE
  8
0
 10
136.385727
 20
128.812790
 11
136.385727
 21
121.312790
  0
LINE
  8
0
 10
134.385727
 20
114.312775
 11
134.385727
 21
110.312775
  0
LINE
  8
0
 10
127.385727
 20
114.312790
 11
127.385727
 21
110.312790
  0
LINE
  8
0
 10
125.385727
 20
119.612793
 11
125.385727
 21
107.112778
  0
LINE
  8
0
 10
136.385727
 20
119.612793
 11
136.385727
 21
107.112778
  0
LINE
  8
0
 10
125.385727
 20
119.612778
 11
136.385727
 21
119.612778
  0
LINE
  8
0
 10
127.385727
 20
110.312775
 11
134.385727
 21
110.312775
  0
LINE
  8
0
 10
127.385727
 20
114.312775
 11
134.385727
 21
114.312775
  0
LINE
  8
0
 10
121.385742
 20
131.712784
 11
140.385742
 21
131.712784
  0
LINE
  8
0
 10
123.385773
 20
131.712723
 11
124.485809
 21
133.712784
  0
LINE
  8
0
 10
137.285492
 20
133.712662
 11
138.385513
 21
131.712631
  0
LINE
  8
0
 10
138.485748
 20
35.212749
 11
123.285736
 21
35.212749
  0
LINE
  8
0
 10
124.885742
 20
35.212749
 11
124.885742
 21
33.912762
  0
LINE
  8
0
 10
131.885742
 20
35.212749
 11
131.885742
 21
33.912762
  0
LINE
  8
0
 10
138.285736
 20
32.712765
 11
123.485748
 21
32.712765
  0
LINE
  8
0
 10
138.285736
 20
33.912762
 11
123.485748
 21
33.912762
  0
LINE
  8
0
 10
123.285736
 20
36.112759
 11
123.285736
 21
35.212749
  0
LINE
  8
0
 10
123.485748
 20
33.912762
 11
123.485748
 21
32.712765
  0
LINE
  8
0
 10
133.285736
 20
33.912762
 11
133.285736
 21
32.712765
  0
LINE
  8
0
 10
136.885742
 20
35.212749
 11
136.885742
 21
33.912762
  0
LINE
  8
0
 10
138.485748
 20
36.112759
 11
138.485748
 21
35.212749
  0
LINE
  8
0
 10
138.285736
 20
33.912762
 11
138.285736
 21
32.712765
  0
LINE
  8
0
 10
121.385742
 20
134.112762
 11
140.385742
 21
134.112762
  0
LINE
  8
0
 10
124.485840
 20
133.712784
 11
137.285736
 21
133.712784
  0
LINE
  8
0
 10
166.385757
 20
38.112759
 11
166.385757
 21
30.712765
  0
LINE
  8
0
 10
162.885757
 20
35.412762
 11
162.885757
 21
33.912762
  0
LINE
  8
0
 10
169.885757
 20
35.412762
 11
169.885757
 21
33.912762
  0
LINE
  8
0
 10
176.285721
 20
32.712765
 11
161.485733
 21
32.712765
  0
LINE
  8
0
 10
176.285721
 20
33.912762
 11
161.485733
 21
33.912762
  0
LINE
  8
0
 10
161.285721
 20
36.112759
 11
161.285721
 21
35.412762
  0
LINE
  8
0
 10
171.485733
 20
36.112759
 11
171.485733
 21
35.412762
  0
LINE
  8
0
 10
176.485733
 20
35.412762
 11
161.285721
 21
35.412762
  0
LINE
  8
0
 10
161.485733
 20
33.912762
 11
161.485733
 21
32.712765
  0
LINE
  8
0
 10
171.285721
 20
33.912762
 11
171.285721
 21
32.712765
  0
LINE
  8
0
 10
171.385757
 20
38.112759
 11
171.385757
 21
30.712765
  0
LINE
  8
0
 10
174.885757
 20
35.412762
 11
174.885757
 21
33.912762
  0
LINE
  8
0
 10
176.485733
 20
36.112759
 11
176.485733
 21
35.412762
  0
LINE
  8
0
 10
176.285721
 20
33.912762
 11
176.285721
 21
32.712765
  0
LINE
  8
0
 10
178.385757
 20
134.112762
 11
178.385757
 21
36.112759
  0
LINE
  8
0
 10
168.885757
 20
137.112778
 11
168.885757
 21
31.696102
  0
LINE
  8
0
 10
163.385727
 20
107.112762
 11
174.385696
 21
107.112762
  0
LINE
  8
0
 10
163.385727
 20
121.312775
 11
174.385696
 21
121.312775
  0
LINE
  8
0
 10
163.385727
 20
128.812775
 11
174.385696
 21
128.812775
  0
LINE
  8
0
 10
163.385727
 20
128.812790
 11
163.385727
 21
121.312790
  0
LINE
  8
0
 10
174.385696
 20
128.812775
 11
174.385696
 21
121.312775
  0
LINE
  8
0
 10
172.385696
 20
114.312775
 11
172.385696
 21
110.312775
  0
LINE
  8
0
 10
165.385727
 20
114.312790
 11
165.385727
 21
110.312790
  0
LINE
  8
0
 10
163.385727
 20
119.612793
 11
163.385727
 21
107.112778
  0
LINE
  8
0
 10
174.385696
 20
119.612778
 11
174.385696
 21
107.112778
  0
LINE
  8
0
 10
163.385727
 20
119.612762
 11
174.385696
 21
119.612762
  0
LINE
  8
0
 10
165.385727
 20
110.312775
 11
172.385696
 21
110.312775
  0
LINE
  8
0
 10
165.385727
 20
114.312775
 11
172.385696
 21
114.312775
  0
LINE
  8
0
 10
162.485825
 20
133.712784
 11
175.285660
 21
133.712784
  0
LINE
  8
0
 10
161.385727
 20
131.712769
 11
162.485733
 21
133.712799
  0
LINE
  8
0
 10
175.285385
 20
133.712616
 11
176.385422
 21
131.712555
  0
LINE
  8
0
 10
159.385757
 20
134.112762
 11
159.385757
 21
87.112762
  0
LINE
  8
0
 10
140.385742
 20
134.112762
 11
178.385757
 21
134.112762
  0
LINE
  8
0
 10
140.385742
 20
36.112759
 11
178.385757
 21
36.112759
  0
LINE
  8
0
 10
149.885742
 20
137.112778
 11
149.885742
 21
31.696102
  0
LINE
  8
0
 10
144.385727
 20
107.112762
 11
155.385727
 21
107.112762
  0
LINE
  8
0
 10
144.385727
 20
121.312775
 11
155.385727
 21
121.312775
  0
LINE
  8
0
 10
144.385727
 20
128.812775
 11
155.385727
 21
128.812775
  0
LINE
  8
0
 10
144.385727
 20
128.812790
 11
144.385727
 21
121.312790
  0
LINE
  8
0
 10
155.385727
 20
128.812775
 11
155.385727
 21
121.312775
  0
LINE
  8
0
 10
153.385727
 20
114.312775
 11
153.385727
 21
110.312775
  0
LINE
  8
0
 10
146.385727
 20
114.312790
 11
146.385727
 21
110.312790
  0
LINE
  8
0
 10
144.385727
 20
119.612793
 11
144.385727
 21
107.112778
  0
LINE
  8
0
 10
155.385727
 20
119.612778
 11
155.385727
 21
107.112778
  0
LINE
  8
0
 10
144.385727
 20
119.612762
 11
155.385727
 21
119.612762
  0
LINE
  8
0
 10
146.385727
 20
110.312775
 11
153.385727
 21
110.312775
  0
LINE
  8
0
 10
146.385727
 20
114.312775
 11
153.385727
 21
114.312775
  0
LINE
  8
0
 10
140.385742
 20
131.712784
 11
178.385757
 21
131.712784
  0
LINE
  8
0
 10
143.485840
 20
133.712784
 11
156.285721
 21
133.712784
  0
LINE
  8
0
 10
142.385757
 20
131.712753
 11
143.485779
 21
133.712799
  0
LINE
  8
0
 10
156.285446
 20
133.712631
 11
157.385452
 21
131.712616
  0
LINE
  8
0
 10
140.385742
 20
87.112762
 11
178.385757
 21
87.112762
  0
LINE
  8
0
 10
140.385742
 20
45.112759
 11
178.385757
 21
45.112759
  0
LINE
  8
0
 10
140.385742
 20
104.312759
 11
178.385757
 21
104.312759
  0
LINE
  8
0
 10
146.647369
 20
101.812759
 11
152.926102
 21
101.812759
  0
LINE
  8
0
 10
165.769058
 20
101.812759
 11
171.334305
 21
101.812759
  0
LINE
  8
0
 10
147.385742
 20
38.112759
 11
147.385742
 21
30.712765
  0
LINE
  8
0
 10
143.885742
 20
35.412762
 11
143.885742
 21
33.912762
  0
LINE
  8
0
 10
150.885742
 20
35.412762
 11
150.885742
 21
33.912762
  0
LINE
  8
0
 10
157.285721
 20
32.712765
 11
142.485748
 21
32.712765
  0
LINE
  8
0
 10
157.285721
 20
33.912762
 11
142.485748
 21
33.912762
  0
LINE
  8
0
 10
142.285736
 20
36.112759
 11
142.285736
 21
35.412762
  0
LINE
  8
0
 10
152.485733
 20
36.112759
 11
152.485733
 21
35.412762
  0
LINE
  8
0
 10
157.485733
 20
35.412762
 11
142.285736
 21
35.412762
  0
LINE
  8
0
 10
142.485748
 20
33.912762
 11
142.485748
 21
32.712765
  0
LINE
  8
0
 10
152.285736
 20
33.912762
 11
152.285736
 21
32.712765
  0
LINE
  8
0
 10
152.385742
 20
38.112759
 11
152.385742
 21
30.712765
  0
LINE
  8
0
 10
155.885757
 20
35.412762
 11
155.885757
 21
33.912762
  0
LINE
  8
0
 10
157.485733
 20
36.112759
 11
157.485733
 21
35.412762
  0
LINE
  8
0
 10
157.285721
 20
33.912762
 11
157.285721
 21
32.712765
  0
LINE
  8
0
 10
206.885757
 20
135.112732
 11
206.885757
 21
35.112759
  0
LINE
  8
0
 10
198.885757
 20
58.112762
 11
214.885757
 21
58.112762
  0
LINE
  8
0
 10
198.885757
 20
106.112747
 11
214.885757
 21
106.112747
  0
LINE
  8
0
 10
198.885757
 20
81.112747
 11
214.885757
 21
81.112747
  0
LINE
  8
0
 10
197.385757
 20
36.112759
 11
216.385757
 21
36.112759
  0
LINE
  8
0
 10
197.385757
 20
134.112732
 11
216.385757
 21
134.112732
  0
LINE
  8
0
 10
216.385757
 20
134.112732
 11
216.385757
 21
36.112759
  0
LINE
  8
0
 10
197.385757
 20
133.612747
 11
216.385757
 21
133.612747
  0
LINE
  8
0
 10
197.385757
 20
36.612743
 11
216.385757
 21
36.612743
  0
LINE
  8
0
 10
199.719040
 20
39.945995
 11
202.052505
 21
42.279461
  0
LINE
  8
0
 10
199.719040
 20
42.279526
 11
202.052505
 21
39.946060
  0
LINE
  8
0
 10
211.719009
 20
39.945995
 11
214.052475
 21
42.279461
  0
LINE
  8
0
 10
211.719040
 20
42.279537
 11
214.052505
 21
39.946072
  0
LINE
  8
0
 10
199.719009
 20
127.945969
 11
202.052475
 21
130.279434
  0
LINE
  8
0
 10
199.719131
 20
130.279572
 11
202.052597
 21
127.946091
  0
LINE
  8
0
 10
211.719009
 20
127.945969
 11
214.052475
 21
130.279434
  0
LINE
  8
0
 10
211.719131
 20
130.279541
 11
214.052597
 21
127.946060
  0
LINE
  8
0
 10
217.385757
 20
58.112762
 11
234.385757
 21
58.112762
  0
LINE
  8
0
 10
216.385757
 20
36.112759
 11
235.385757
 21
36.112759
  0
LINE
  8
0
 10
216.385757
 20
134.112747
 11
235.385757
 21
134.112747
  0
LINE
  8
0
 10
225.885757
 20
136.112747
 11
225.885757
 21
34.112759
  0
LINE
  8
0
 10
235.385757
 20
134.112747
 11
235.385757
 21
36.112759
  0
LINE
  8
0
 10
217.885788
 20
62.731575
 11
225.885788
 21
67.350380
  0
LINE
  8
0
 10
217.885757
 20
62.731552
 11
217.885757
 21
53.493954
  0
LINE
  8
0
 10
225.885818
 20
67.350388
 11
233.885849
 21
62.731583
  0
LINE
  8
0
 10
233.885757
 20
62.731552
 11
233.885757
 21
53.493954
  0
LINE
  8
0
 10
225.885818
 20
48.875156
 11
233.885818
 21
53.493961
  0
LINE
  8
0
 10
217.885818
 20
53.493954
 11
225.885818
 21
48.875149
  0
LINE
  8
0
 10
219.385757
 20
69.612747
 11
232.385757
 21
69.612747
  0
LINE
  8
0
 10
219.385757
 20
75.612747
 11
232.385757
 21
75.612747
  0
LINE
  8
0
 10
219.385757
 20
83.112747
 11
232.385757
 21
83.112747
  0
LINE
  8
0
 10
219.385757
 20
90.612747
 11
232.385757
 21
90.612747
  0
LINE
  8
0
 10
219.385757
 20
98.112747
 11
232.385757
 21
98.112747
  0
LINE
  8
0
 10
219.385757
 20
105.612747
 11
232.385757
 21
105.612747
  0
LINE
  8
0
 10
219.385757
 20
113.112747
 11
232.385757
 21
113.112747
  0
LINE
  8
0
 10
219.385757
 20
120.612747
 11
232.385757
 21
120.612747
  0
LINE
  8
0
 10
222.758041
 20
127.112747
 11
229.013474
 21
127.112747
  0
LINE
  8
0
 10
219.385757
 20
74.612747
 11
232.385757
 21
74.612747
  0
LINE
  8
0
 10
219.385757
 20
82.112747
 11
232.385757
 21
82.112747
  0
LINE
  8
0
 10
219.385757
 20
89.612747
 11
232.385757
 21
89.612747
  0
LINE
  8
0
 10
219.385757
 20
97.112747
 11
232.385757
 21
97.112747
  0
LINE
  8
0
 10
219.385757
 20
104.612747
 11
232.385757
 21
104.612747
  0
LINE
  8
0
 10
219.385757
 20
112.112747
 11
232.385757
 21
112.112747
  0
LINE
  8
0
 10
219.385757
 20
119.612747
 11
232.385757
 21
119.612747
  0
LINE
  8
0
 10
232.385757
 20
125.648651
 11
232.385757
 21
120.612747
  0
LINE
  8
0
 10
219.385757
 20
125.648651
 11
219.385757
 21
120.612747
  0
LINE
  8
0
 10
219.385757
 20
74.612747
 11
219.385757
 21
69.612747
  0
LINE
  8
0
 10
219.385757
 20
82.112747
 11
219.385757
 21
75.612747
  0
LINE
  8
0
 10
232.385757
 20
74.612747
 11
232.385757
 21
69.612747
  0
LINE
  8
0
 10
232.385757
 20
82.112747
 11
232.385757
 21
75.612747
  0
LINE
  8
0
 10
219.385757
 20
89.612747
 11
219.385757
 21
83.112747
  0
LINE
  8
0
 10
232.385757
 20
89.612747
 11
232.385757
 21
83.112747
  0
LINE
  8
0
 10
219.385757
 20
97.112747
 11
219.385757
 21
90.612747
  0
LINE
  8
0
 10
232.385757
 20
97.112747
 11
232.385757
 21
90.612747
  0
LINE
  8
0
 10
219.385757
 20
104.612747
 11
219.385757
 21
98.112747
  0
LINE
  8
0
 10
232.385757
 20
104.612747
 11
232.385757
 21
98.112747
  0
LINE
  8
0
 10
219.385757
 20
112.112747
 11
219.385757
 21
105.612747
  0
LINE
  8
0
 10
232.385757
 20
112.112747
 11
232.385757
 21
105.612747
  0
LINE
  8
0
 10
219.385757
 20
119.612747
 11
219.385757
 21
113.112747
  0
LINE
  8
0
 10
232.385757
 20
119.612747
 11
232.385757
 21
113.112747
  0
LINE
  8
0
 10
218.719131
 20
130.279602
 11
221.052628
 21
127.946121
  0
LINE
  8
0
 10
218.719101
 20
127.946075
 11
221.052536
 21
130.279510
  0
LINE
  8
0
 10
230.719131
 20
130.279541
 11
233.052597
 21
127.946075
  0
LINE
  8
0
 10
230.719070
 20
127.945984
 11
233.052536
 21
130.279449
  0
LINE
  8
0
 10
218.719070
 20
42.279572
 11
221.052567
 21
39.946072
  0
LINE
  8
0
 10
218.719070
 20
39.945995
 11
221.052505
 21
42.279442
  0
LINE
  8
0
 10
230.719101
 20
42.279514
 11
233.052567
 21
39.946049
  0
LINE
  8
0
 10
230.719070
 20
39.946018
 11
233.052536
 21
42.279484
  0
LINE
  8
0
 10
216.385757
 20
36.612751
 11
235.385757
 21
36.612751
  0
LINE
  8
0
 10
216.385757
 20
133.612747
 11
235.385757
 21
133.612747
  0
LINE
  8
0
 10
250.385757
 20
46.112759
 11
240.385757
 21
46.112759
  0
LINE
  8
0
 10
250.385757
 20
124.112762
 11
240.385757
 21
124.112762
  0
LINE
  8
0
 10
238.385757
 20
36.191311
 11
238.385757
 21
44.112759
  0
LINE
  8
0
 10
238.385757
 20
126.112762
 11
238.385757
 21
134.034210
  0
LINE
  8
0
 10
244.385757
 20
38.962765
 11
242.385757
 21
38.962765
  0
LINE
  8
0
 10
244.385757
 20
43.262768
 11
242.385757
 21
43.262768
  0
LINE
  8
0
 10
248.385757
 20
41.112759
 11
238.385757
 21
41.112759
  0
LINE
  8
0
 10
243.385757
 20
38.112759
 11
243.385757
 21
44.112759
  0
LINE
  8
0
 10
244.385757
 20
126.962753
 11
242.385757
 21
126.962753
  0
LINE
  8
0
 10
244.385757
 20
131.262756
 11
242.385757
 21
131.262756
  0
LINE
  8
0
 10
248.385757
 20
129.112762
 11
238.385757
 21
129.112762
  0
LINE
  8
0
 10
243.385757
 20
126.112762
 11
243.385757
 21
132.112762
  0
LINE
  8
0
 10
235.385757
 20
134.112762
 11
250.385757
 21
134.112762
  0
LINE
  8
0
 10
235.385757
 20
36.112759
 11
250.385757
 21
36.112759
  0
LINE
  8
0
 10
235.385757
 20
134.112762
 11
235.385757
 21
36.112759
  0
LINE
  8
0
 10
250.385757
 20
134.112762
 11
250.385757
 21
36.112759
  0
ARC
  8
0
 10
-93.614258
 20
44.112759
 40
2.000000
 50
0.000000
 51
90.000000
  0
ARC
  8
0
 10
-93.614227
 20
126.112762
 40
2.000000
 50
270.000000
 51
0.000000
  0
ARC
  8
0
 10
-97.614258
 20
41.112759
 40
2.149998
 50
90.000000
 51
270.000000
  0
ARC
  8
0
 10
-95.614258
 20
41.112759
 40
2.149998
 50
270.000000
 51
90.000000
  0
ARC
  8
0
 10
-97.614227
 20
129.112762
 40
2.149994
 50
90.000000
 51
270.000000
  0
ARC
  8
0
 10
-95.614227
 20
129.112762
 40
2.150009
 50
270.000000
 51
90.000000
  0
CIRCLE
  8
0
 10
-79.114227
 20
48.612759
 40
1.599999
  0
CIRCLE
  8
0
 10
-73.114227
 20
41.112728
 40
3.000000
  0
CIRCLE
  8
0
 10
-73.114258
 20
129.112732
 40
3.000000
  0
CIRCLE
  8
0
 10
-78.184250
 20
102.462784
 40
0.320000
  0
CIRCLE
  8
0
 10
-75.644257
 20
102.462784
 40
0.320000
  0
CIRCLE
  8
0
 10
-78.184250
 20
105.002792
 40
0.320000
  0
CIRCLE
  8
0
 10
-75.644257
 20
105.002792
 40
0.320000
  0
CIRCLE
  8
0
 10
-78.184250
 20
107.542801
 40
0.320000
  0
CIRCLE
  8
0
 10
-75.644257
 20
107.542801
 40
0.320000
  0
CIRCLE
  8
0
 10
-78.184250
 20
97.382782
 40
0.320000
  0
CIRCLE
  8
0
 10
-75.644257
 20
99.922791
 40
0.320000
  0
CIRCLE
  8
0
 10
-78.184250
 20
99.922791
 40
0.320000
  0
CIRCLE
  8
0
 10
-75.644257
 20
97.382782
 40
0.320000
  0
CIRCLE
  8
0
 10
-75.644257
 20
87.222794
 40
0.320000
  0
CIRCLE
  8
0
 10
-78.184250
 20
89.762787
 40
0.320000
  0
CIRCLE
  8
0
 10
-75.644257
 20
89.762787
 40
0.320000
  0
CIRCLE
  8
0
 10
-78.184250
 20
87.222794
 40
0.320000
  0
CIRCLE
  8
0
 10
-75.644257
 20
84.682785
 40
0.320000
  0
CIRCLE
  8
0
 10
-78.184250
 20
84.682785
 40
0.320000
  0
CIRCLE
  8
0
 10
-75.644257
 20
94.842789
 40
0.320000
  0
CIRCLE
  8
0
 10
-78.184250
 20
94.842789
 40
0.320000
  0
CIRCLE
  8
0
 10
-75.644257
 20
92.302795
 40
0.320000
  0
CIRCLE
  8
0
 10
-78.184250
 20
92.302795
 40
0.320000
  0
CIRCLE
  8
0
 10
-85.114227
 20
129.112717
 40
3.000000
  0
CIRCLE
  8
0
 10
-85.114227
 20
41.112728
 40
3.000000
  0
CIRCLE
  8
0
 10
-82.864204
 20
62.029358
 40
2.999999
  0
CIRCLE
  8
0
 10
-75.364204
 20
62.028214
 40
2.999999
  0
CIRCLE
  8
0
 10
-60.114239
 20
48.612782
 40
1.599999
  0
ARC
  8
0
 10
-56.314217
 20
72.092804
 40
2.500000
 50
270.000092
 51
0.000000
  0
ARC
  8
0
 10
-56.314209
 20
120.092819
 40
2.500000
 50
0.000000
 51
90.000000
  0
ARC
  8
0
 10
-63.914215
 20
120.092804
 40
2.500000
 50
90.000000
 51
180.000000
  0
ARC
  8
0
 10
-63.914223
 20
72.092812
 40
2.500000
 50
180.000168
 51
270.000092
  0
ARC
  8
0
 10
-57.914234
 20
78.971313
 40
2.000002
 50
260.000427
 51
0.000000
  0
ARC
  8
0
 10
-57.914207
 20
113.214294
 40
2.000000
 50
0.000000
 51
99.999908
  0
ARC
  8
0
 10
-62.314201
 20
112.438477
 40
2.000004
 50
99.999908
 51
180.000000
  0
ARC
  8
0
 10
-62.314228
 20
79.747131
 40
1.999996
 50
180.000000
 51
260.000214
  0
CIRCLE
  8
0
 10
-61.534256
 20
83.672745
 40
0.500000
  0
CIRCLE
  8
0
 10
-61.534256
 20
86.432755
 40
0.500000
  0
CIRCLE
  8
0
 10
-61.534252
 20
89.192764
 40
0.500000
  0
CIRCLE
  8
0
 10
-61.534248
 20
91.952774
 40
0.500000
  0
CIRCLE
  8
0
 10
-61.534245
 20
94.712784
 40
0.500000
  0
CIRCLE
  8
0
 10
-61.534245
 20
97.472794
 40
0.500000
  0
CIRCLE
  8
0
 10
-61.534245
 20
100.232742
 40
0.500000
  0
CIRCLE
  8
0
 10
-61.534241
 20
102.992737
 40
0.500000
  0
CIRCLE
  8
0
 10
-61.534237
 20
105.752747
 40
0.500000
  0
CIRCLE
  8
0
 10
-61.534237
 20
108.512756
 40
0.500000
  0
CIRCLE
  8
0
 10
-61.534237
 20
111.272736
 40
0.500000
  0
CIRCLE
  8
0
 10
-58.694225
 20
112.652740
 40
0.500000
  0
CIRCLE
  8
0
 10
-58.694225
 20
109.892761
 40
0.500000
  0
CIRCLE
  8
0
 10
-58.694229
 20
107.132751
 40
0.500000
  0
CIRCLE
  8
0
 10
-58.694229
 20
104.372742
 40
0.500000
  0
CIRCLE
  8
0
 10
-58.694233
 20
101.612732
 40
0.500000
  0
CIRCLE
  8
0
 10
-58.694233
 20
98.852798
 40
0.500000
  0
CIRCLE
  8
0
 10
-58.694233
 20
96.092789
 40
0.500000
  0
CIRCLE
  8
0
 10
-58.694237
 20
93.332779
 40
0.500000
  0
CIRCLE
  8
0
 10
-58.694237
 20
90.572769
 40
0.500000
  0
CIRCLE
  8
0
 10
-58.694241
 20
87.812759
 40
0.500000
  0
CIRCLE
  8
0
 10
-58.694241
 20
85.052750
 40
0.500000
  0
CIRCLE
  8
0
 10
-58.694241
 20
82.292801
 40
0.500000
  0
CIRCLE
  8
0
 10
-58.694244
 20
79.532791
 40
0.500000
  0
CIRCLE
  8
0
 10
-61.534256
 20
80.912796
 40
0.500000
  0
CIRCLE
  8
0
 10
-54.114246
 20
41.112747
 40
3.000000
  0
CIRCLE
  8
0
 10
-66.114174
 20
129.112747
 40
3.000000
  0
CIRCLE
  8
0
 10
-54.114174
 20
129.112732
 40
3.000000
  0
CIRCLE
  8
0
 10
-66.114243
 20
41.112755
 40
3.000000
  0
CIRCLE
  8
0
 10
-63.864189
 20
62.029373
 40
2.999999
  0
CIRCLE
  8
0
 10
-56.364189
 20
62.028214
 40
2.999999
  0
CIRCLE
  8
0
 10
-60.114182
 20
119.612762
 40
1.229500
  0
CIRCLE
  8
0
 10
-60.114182
 20
119.612762
 40
1.500000
  0
CIRCLE
  8
0
 10
-60.114182
 20
119.612762
 40
2.750000
  0
CIRCLE
  8
0
 10
-60.114220
 20
72.572815
 40
1.229500
  0
CIRCLE
  8
0
 10
-60.114220
 20
72.572815
 40
1.500000
  0
CIRCLE
  8
0
 10
-60.114220
 20
72.572815
 40
2.750000
  0
CIRCLE
  8
0
 10
-39.614220
 20
103.862762
 40
2.999999
  0
CIRCLE
  8
0
 10
-39.614220
 20
96.362762
 40
2.999999
  0
CIRCLE
  8
0
 10
-47.114235
 20
129.112747
 40
3.000000
  0
CIRCLE
  8
0
 10
-35.114235
 20
129.112747
 40
3.000000
  0
CIRCLE
  8
0
 10
-35.114235
 20
41.112759
 40
3.000000
  0
CIRCLE
  8
0
 10
-47.114235
 20
41.112759
 40
3.000000
  0
CIRCLE
  8
0
 10
-39.614220
 20
118.862762
 40
2.999999
  0
CIRCLE
  8
0
 10
-39.614220
 20
111.362747
 40
2.999999
  0
CIRCLE
  8
0
 10
-39.614220
 20
58.862762
 40
2.999999
  0
CIRCLE
  8
0
 10
-39.614220
 20
51.362759
 40
2.999999
  0
CIRCLE
  8
0
 10
-39.614220
 20
73.862762
 40
2.999999
  0
CIRCLE
  8
0
 10
-39.614220
 20
66.362762
 40
2.999999
  0
CIRCLE
  8
0
 10
-39.614220
 20
88.862762
 40
2.999999
  0
CIRCLE
  8
0
 10
-39.614220
 20
81.362762
 40
2.999999
  0
CIRCLE
  8
0
 10
-23.614250
 20
93.612762
 40
1.650000
  0
CIRCLE
  8
0
 10
-26.614250
 20
61.112778
 40
1.750000
  0
CIRCLE
  8
0
 10
-26.614250
 20
61.112778
 40
2.500000
  0
CIRCLE
  8
0
 10
-20.614250
 20
71.112762
 40
1.750000
  0
CIRCLE
  8
0
 10
-20.614250
 20
71.112762
 40
2.500000
  0
CIRCLE
  8
0
 10
-7.614250
 20
93.612762
 40
1.500000
  0
CIRCLE
  8
0
 10
8.385750
 20
93.612762
 40
1.500000
  0
CIRCLE
  8
0
 10
3.385750
 20
61.112762
 40
1.750000
  0
CIRCLE
  8
0
 10
3.385750
 20
61.112762
 40
2.500000
  0
CIRCLE
  8
0
 10
-2.614250
 20
71.112762
 40
2.500000
  0
CIRCLE
  8
0
 10
-2.614250
 20
71.112762
 40
1.750000
  0
CIRCLE
  8
0
 10
24.385567
 20
93.612869
 40
1.650000
  0
CIRCLE
  8
0
 10
56.385757
 20
93.612762
 40
1.500000
  0
CIRCLE
  8
0
 10
40.385757
 20
93.612762
 40
1.500000
  0
CIRCLE
  8
0
 10
73.885757
 20
101.812759
 40
1.650000
  0
CIRCLE
  8
0
 10
73.385757
 20
58.112762
 40
4.864349
  0
CIRCLE
  8
0
 10
73.385757
 20
58.112762
 40
4.283250
  0
CIRCLE
  8
0
 10
74.385757
 20
74.112762
 40
4.864349
  0
CIRCLE
  8
0
 10
74.385757
 20
74.112762
 40
4.283250
  0
CIRCLE
  8
0
 10
92.885757
 20
101.812759
 40
1.500000
  0
CIRCLE
  8
0
 10
111.885773
 20
101.812759
 40
1.500000
  0
CIRCLE
  8
0
 10
102.885757
 20
73.112762
 40
4.283000
  0
CIRCLE
  8
0
 10
102.885757
 20
73.112762
 40
4.864000
  0
CIRCLE
  8
0
 10
92.885757
 20
59.112762
 40
4.283000
  0
CIRCLE
  8
0
 10
92.885757
 20
59.112762
 40
4.864000
  0
CIRCLE
  8
0
 10
130.885712
 20
101.812759
 40
1.650000
  0
CIRCLE
  8
0
 10
168.885757
 20
101.812759
 40
1.500000
  0
CIRCLE
  8
0
 10
149.885742
 20
101.812759
 40
1.500000
  0
CIRCLE
  8
0
 10
206.885757
 20
58.112747
 40
6.578500
  0
CIRCLE
  8
0
 10
206.885757
 20
58.112747
 40
5.722500
  0
CIRCLE
  8
0
 10
206.885757
 20
106.112732
 40
5.722500
  0
CIRCLE
  8
0
 10
206.885757
 20
106.112732
 40
6.578500
  0
CIRCLE
  8
0
 10
206.885757
 20
81.112732
 40
5.722500
  0
CIRCLE
  8
0
 10
206.885757
 20
81.112732
 40
6.578500
  0
CIRCLE
  8
0
 10
200.885757
 20
41.112759
 40
3.000000
  0
CIRCLE
  8
0
 10
212.885757
 20
41.112759
 40
3.000000
  0
CIRCLE
  8
0
 10
200.885757
 20
129.112732
 40
3.000000
  0
CIRCLE
  8
0
 10
212.885757
 20
129.112732
 40
3.000000
  0
CIRCLE
  8
0
 10
225.885757
 20
58.112762
 40
8.000000
  0
CIRCLE
  8
0
 10
225.885757
 20
58.112762
 40
3.750000
  0
ARC
  8
0
 10
219.885757
 20
129.112747
 40
3.500010
 50
261.786804
 51
325.150116
  0
ARC
  8
0
 10
231.885757
 20
129.112747
 40
3.500002
 50
214.849884
 51
278.213196
  0
CIRCLE
  8
0
 10
219.885757
 20
129.112747
 40
3.000000
  0
CIRCLE
  8
0
 10
231.885757
 20
129.112747
 40
3.000000
  0
CIRCLE
  8
0
 10
219.885757
 20
41.112759
 40
3.000000
  0
CIRCLE
  8
0
 10
231.885757
 20
41.112759
 40
3.000000
  0
ARC
  8
0
 10
240.385757
 20
44.112759
 40
2.000000
 50
90.000000
 51
180.000000
  0
ARC
  8
0
 10
240.385757
 20
126.112762
 40
2.000000
 50
180.000000
 51
270.000000
  0
ARC
  8
0
 10
244.385757
 20
41.112759
 40
2.149998
 50
270.000000
 51
90.000000
  0
ARC
  8
0
 10
242.385757
 20
41.112759
 40
2.149998
 50
90.000000
 51
270.000000
  0
ARC
  8
0
 10
244.385757
 20
129.112762
 40
2.150009
 50
270.000000
 51
90.000000
  0
ARC
  8
0
 10
242.385757
 20
129.112762
 40
2.149994
 50
90.000000
 51
270.000000
  0
TEXT
  8
0
 10
-86.792664
 20
46.912758
 40
3.000000
  1
-
 50
0.000000
 41
1.052632
 51
0.000000
  7
STANDARD
  0
TEXT
  8
0
 10
-74.792664
 20
46.912758
 40
3.000000
  1
+
 50
0.000000
 41
1.052632
 51
0.000000
  7
STANDARD
  0
TEXT
  8
0
 10
-67.792679
 20
46.912785
 40
3.000000
  1
-
 50
0.000000
 41
1.052632
 51
0.000000
  7
STANDARD
  0
TEXT
  8
0
 10
-55.792675
 20
46.912777
 40
3.000000
  1
+
 50
0.000000
 41
1.052632
 51
0.000000
  7
STANDARD
  0
TEXT
  8
0
 10
-24.364250
 20
54.112774
 40
2.000000
  1
B
 50
0.000000
 41
1.052632
 51
0.000000
  7
STANDARD
  0
TEXT
  8
0
 10
-24.364250
 20
77.612762
 40
2.000000
  1
A
 50
0.000000
 41
1.052632
 51
0.000000
  7
STANDARD
  0
TEXT
  8
0
 10
-4.971281
 20
77.362762
 40
2.500000
  1
A
 50
0.000000
 41
1.052631
 51
0.000000
  7
STANDARD
  0
TEXT
  8
0
 10
2.028608
 20
53.862762
 40
2.500000
  1
B
 50
0.000000
 41
1.052632
 51
0.000000
  7
STANDARD
  0
TEXT
  8
0
 10
68.635757
 20
79.612762
 40
2.000000
  1
A
 50
0.000000
 41
1.052632
 51
0.000000
  7
STANDARD
  0
TEXT
  8
0
 10
77.135757
 20
51.612759
 40
2.000000
  1
B
 50
0.000000
 41
1.052632
 51
0.000000
  7
STANDARD
  0
TEXT
  8
0
 10
97.028618
 20
49.362759
 40
2.500000
  1
‚a
 50
0.000000
 41
0.833333
 51
0.000000
  7
STANDARD
  0
TEXT
  8
0
 10
107.028603
 20
81.862762
 40
2.500000
  1
‚`
 50
0.000000
 41
0.833333
 51
0.000000
  7
STANDARD
  0
TEXT
  8
0
 10
200.207321
 20
89.912750
 40
3.000000
  1
R
 50
0.000000
 41
1.052632
 51
0.000000
  7
STANDARD
  0
TEXT
  8
0
 10
200.207321
 20
114.912750
 40
3.000000
  1
R
 50
0.000000
 41
1.052632
 51
0.000000
  7
STANDARD
  0
TEXT
  8
0
 10
200.207321
 20
66.912766
 40
3.000000
  1
P
 50
0.000000
 41
1.052632
 51
0.000000
  7
STANDARD
  0
TEXT
  8
0
 10
224.078751
 20
44.732758
 40
3.200000
  1
P
 50
0.000000
 41
1.052632
 51
0.000000
  7
STANDARD
  0
POINT
  8
0
 10
-103.614243
 20
-146.804169
  0
POINT
  8
0
 10
250.385757
 20
-146.804169
  0
LINE
  8
0
 10
197.385757
 20
-118.804161
 11
197.385757
 21
-145.804169
  0
LINE
  8
0
 10
178.385757
 20
-145.804169
 11
197.385757
 21
-145.804169
  0
LINE
  8
0
 10
178.385757
 20
-118.804161
 11
197.385757
 21
-118.804161
  0
LINE
  8
0
 10
185.385757
 20
-122.144051
 11
185.385757
 21
-133.418396
  0
LINE
  8
0
 10
191.060989
 20
-127.804161
 11
179.445023
 21
-127.804161
  0
LINE
  8
0
 10
190.385757
 20
-133.144043
 11
190.385757
 21
-144.418396
  0
LINE
  8
0
 10
196.060989
 20
-138.804169
 11
184.445023
 21
-138.804169
  0
LINE
  8
0
 10
185.385757
 20
-120.804161
 11
185.385757
 21
-134.804169
  0
LINE
  8
0
 10
191.108719
 20
-127.804161
 11
179.492752
 21
-127.804161
  0
LINE
  8
0
 10
190.285751
 20
-126.804161
 11
190.285751
 21
-128.804169
  0
LINE
  8
0
 10
180.485733
 20
-126.804161
 11
180.485733
 21
-128.804169
  0
LINE
  8
0
 10
190.385757
 20
-131.804169
 11
190.385757
 21
-145.804169
  0
LINE
  8
0
 10
196.108719
 20
-138.804169
 11
184.492752
 21
-138.804169
  0
LINE
  8
0
 10
195.285721
 20
-137.804169
 11
195.285721
 21
-139.804169
  0
LINE
  8
0
 10
185.485733
 20
-137.804169
 11
185.485733
 21
-139.804169
  0
LINE
  8
0
 10
191.585739
 20
-113.804161
 11
184.185745
 21
-113.804161
  0
LINE
  8
0
 10
197.335739
 20
-114.604164
 11
178.435745
 21
-114.604164
  0
LINE
  8
0
 10
196.885757
 20
-114.604164
 11
196.885757
 21
-115.104164
  0
LINE
  8
0
 10
196.885757
 20
-115.104164
 11
196.885757
 21
-117.804161
  0
LINE
  8
0
 10
178.885757
 20
-117.804161
 11
178.885757
 21
-115.104164
  0
LINE
  8
0
 10
178.885757
 20
-115.104164
 11
178.885757
 21
-114.604164
  0
LINE
  8
0
 10
196.885757
 20
-117.804161
 11
178.885757
 21
-117.804161
  0
LINE
  8
0
 10
197.335739
 20
-113.904167
 11
191.435745
 21
-113.904167
  0
LINE
  8
0
 10
197.335739
 20
-113.904167
 11
197.335739
 21
-114.604164
  0
LINE
  8
0
 10
191.435745
 20
-113.904167
 11
191.435745
 21
-114.604164
  0
LINE
  8
0
 10
184.335739
 20
-113.904167
 11
178.435745
 21
-113.904167
  0
LINE
  8
0
 10
184.335739
 20
-113.904167
 11
184.335739
 21
-114.604164
  0
LINE
  8
0
 10
178.435745
 20
-113.904167
 11
178.435745
 21
-114.604164
  0
LINE
  8
0
 10
197.185745
 20
-112.361694
 11
197.185745
 21
-113.904167
  0
LINE
  8
0
 10
191.585739
 20
-112.361702
 11
191.585739
 21
-113.904167
  0
LINE
  8
0
 10
184.185745
 20
-112.361702
 11
184.185745
 21
-113.904167
  0
LINE
  8
0
 10
178.585739
 20
-112.361702
 11
178.585739
 21
-113.904167
  0
LINE
  8
0
 10
181.385757
 20
-110.451210
 11
181.385757
 21
-115.320168
  0
LINE
  8
0
 10
194.385757
 20
-110.603355
 11
194.385757
 21
-115.350609
  0
LINE
  8
0
 10
179.385757
 20
-117.804161
 11
179.385757
 21
-118.804161
  0
LINE
  8
0
 10
196.385757
 20
-117.804161
 11
196.385757
 21
-118.804161
  0
LINE
  8
0
 10
197.885757
 20
-90.804161
 11
215.885757
 21
-90.804161
  0
LINE
  8
0
 10
197.885757
 20
-90.804161
 11
197.885757
 21
-117.804161
  0
LINE
  8
0
 10
215.885757
 20
-90.804161
 11
215.885757
 21
-117.804161
  0
LINE
  8
0
 10
206.885757
 20
-88.804161
 11
206.885757
 21
-147.304169
  0
LINE
  8
0
 10
216.385757
 20
-117.804161
 11
216.385757
 21
-145.804169
  0
LINE
  8
0
 10
216.385757
 20
-145.804169
 11
197.385757
 21
-145.804169
  0
LINE
  8
0
 10
216.385757
 20
-117.804161
 11
197.385757
 21
-117.804161
  0
LINE
  8
0
 10
216.385757
 20
-118.804161
 11
197.385757
 21
-118.804161
  0
LINE
  8
0
 10
197.385757
 20
-117.804161
 11
197.385757
 21
-118.804161
  0
LINE
  8
0
 10
-103.614243
 20
-126.804161
 11
-91.614243
 21
-126.804161
  0
LINE
  8
0
 10
-91.614243
 20
-126.804161
 11
-91.614243
 21
-117.882721
  0
LINE
  8
0
 10
-103.614243
 20
-146.804169
 11
-88.614243
 21
-146.804169
  0
LINE
  8
0
 10
-88.614243
 20
-117.804161
 11
-88.614243
 21
-146.804169
  0
LINE
  8
0
 10
-103.614243
 20
-118.196953
 11
-103.614243
 21
-146.804169
  0
LINE
  8
0
 10
-103.614258
 20
-118.196953
 11
-88.614258
 21
-117.804169
  0
LINE
  8
0
 10
-91.614250
 20
-119.383270
 11
-88.574982
 21
-119.303680
  0
LINE
  8
0
 10
-79.114243
 20
-69.804169
 11
-79.114243
 21
-147.304169
  0
LINE
  8
0
 10
-69.614243
 20
-90.804161
 11
-69.614243
 21
-145.804169
  0
LINE
  8
0
 10
-69.614243
 20
-145.804169
 11
-88.614243
 21
-145.804169
  0
LINE
  8
0
 10
-70.114258
 20
-90.804176
 11
-70.114258
 21
-71.804184
  0
LINE
  8
0
 10
-73.114258
 20
-86.804176
 11
-73.114258
 21
-73.804184
  0
LINE
  8
0
 10
-77.614258
 20
-86.804176
 11
-77.614258
 21
-73.804184
  0
LINE
  8
0
 10
-80.614258
 20
-86.804176
 11
-80.614258
 21
-73.804184
  0
LINE
  8
0
 10
-85.114258
 20
-86.804161
 11
-85.114258
 21
-73.804169
  0
LINE
  8
0
 10
-77.614258
 20
-86.804161
 11
-73.114258
 21
-86.804161
  0
LINE
  8
0
 10
-85.114258
 20
-86.804161
 11
-80.614258
 21
-86.804161
  0
LINE
  8
0
 10
-77.614258
 20
-78.904167
 11
-73.114258
 21
-78.904167
  0
LINE
  8
0
 10
-85.114258
 20
-78.904167
 11
-80.614258
 21
-78.904167
  0
LINE
  8
0
 10
-88.114258
 20
-71.804161
 11
-70.114258
 21
-71.804161
  0
LINE
  8
0
 10
-88.114258
 20
-76.804161
 11
-70.114258
 21
-76.804161
  0
LINE
  8
0
 10
-85.114258
 20
-73.804161
 11
-88.114258
 21
-73.804161
  0
LINE
  8
0
 10
-73.114243
 20
-73.804161
 11
-70.114258
 21
-73.804161
  0
LINE
  8
0
 10
-80.614243
 20
-73.804161
 11
-77.614243
 21
-73.804161
  0
LINE
  8
0
 10
-88.114258
 20
-90.804161
 11
-88.114258
 21
-71.804169
  0
LINE
  8
0
 10
-69.614243
 20
-93.804161
 11
-88.614243
 21
-93.804161
  0
LINE
  8
0
 10
-69.614243
 20
-90.804161
 11
-88.614243
 21
-90.804161
  0
LINE
  8
0
 10
-88.614243
 20
-118.804161
 11
-88.614243
 21
-90.804161
  0
LINE
  8
0
 10
-69.614243
 20
-118.804161
 11
-88.614243
 21
-118.804161
  0
LINE
  8
0
 10
-69.614243
 20
-119.304161
 11
-88.614243
 21
-119.304161
  0
LINE
  8
0
 10
-60.114243
 20
-69.804146
 11
-60.114243
 21
-147.304138
  0
LINE
  8
0
 10
-50.614243
 20
-90.804131
 11
-50.614243
 21
-145.804138
  0
LINE
  8
0
 10
-50.614201
 20
-145.804169
 11
-69.614197
 21
-145.804169
  0
LINE
  8
0
 10
-50.614285
 20
-93.804161
 11
-69.614304
 21
-93.804161
  0
LINE
  8
0
 10
-51.114258
 20
-90.804146
 11
-51.114258
 21
-71.804146
  0
LINE
  8
0
 10
-54.114258
 20
-86.804153
 11
-54.114258
 21
-73.804153
  0
LINE
  8
0
 10
-58.614258
 20
-86.804161
 11
-58.614258
 21
-73.804161
  0
LINE
  8
0
 10
-61.614258
 20
-86.804161
 11
-61.614258
 21
-73.804161
  0
LINE
  8
0
 10
-66.114258
 20
-86.804153
 11
-66.114258
 21
-73.804153
  0
LINE
  8
0
 10
-58.614307
 20
-86.804161
 11
-54.114307
 21
-86.804161
  0
LINE
  8
0
 10
-66.114304
 20
-86.804161
 11
-61.614307
 21
-86.804161
  0
LINE
  8
0
 10
-58.614319
 20
-81.804161
 11
-54.114319
 21
-81.804161
  0
LINE
  8
0
 10
-66.114319
 20
-81.804161
 11
-61.614319
 21
-81.804161
  0
LINE
  8
0
 10
-58.614323
 20
-78.904167
 11
-54.114323
 21
-78.904167
  0
LINE
  8
0
 10
-66.114319
 20
-78.904167
 11
-61.614323
 21
-78.904167
  0
LINE
  8
0
 10
-69.114334
 20
-71.804161
 11
-51.114334
 21
-71.804161
  0
LINE
  8
0
 10
-69.114326
 20
-76.804161
 11
-51.114326
 21
-76.804161
  0
LINE
  8
0
 10
-66.114334
 20
-73.804161
 11
-69.114334
 21
-73.804161
  0
LINE
  8
0
 10
-54.114315
 20
-73.804161
 11
-51.114330
 21
-73.804161
  0
LINE
  8
0
 10
-61.614315
 20
-73.804161
 11
-58.614315
 21
-73.804161
  0
LINE
  8
0
 10
-69.114258
 20
-90.804161
 11
-69.114258
 21
-71.804161
  0
LINE
  8
0
 10
-50.614288
 20
-90.804161
 11
-69.614288
 21
-90.804161
  0
LINE
  8
0
 10
-69.614258
 20
-118.804161
 11
-69.614258
 21
-90.804161
  0
LINE
  8
0
 10
-50.614243
 20
-119.304161
 11
-69.614243
 21
-119.304161
  0
LINE
  8
0
 10
-50.614243
 20
-118.804161
 11
-69.614243
 21
-118.804161
  0
LINE
  8
0
 10
-31.614243
 20
-90.804161
 11
-50.614227
 21
-90.804161
  0
LINE
  8
0
 10
-41.114243
 20
-70.804146
 11
-41.114243
 21
-147.304169
  0
LINE
  8
0
 10
-50.614243
 20
-90.804161
 11
-50.614243
 21
-118.804161
  0
LINE
  8
0
 10
-31.614243
 20
-145.804169
 11
-50.614243
 21
-145.804169
  0
LINE
  8
0
 10
-31.614243
 20
-93.804161
 11
-50.614243
 21
-93.804161
  0
LINE
  8
0
 10
-42.614212
 20
-73.804146
 11
-39.614212
 21
-73.804146
  0
LINE
  8
0
 10
-45.864227
 20
-73.804161
 11
-45.864227
 21
-81.804146
  0
LINE
  8
0
 10
-35.364227
 20
-73.804161
 11
-35.364227
 21
-81.804146
  0
LINE
  8
0
 10
-46.614227
 20
-73.804146
 11
-34.614243
 21
-73.804146
  0
LINE
  8
0
 10
-45.864227
 20
-81.804146
 11
-35.364227
 21
-81.804146
  0
LINE
  8
0
 10
-47.614227
 20
-76.804146
 11
-46.614227
 21
-76.804146
  0
LINE
  8
0
 10
-46.614227
 20
-73.804146
 11
-46.614227
 21
-90.804146
  0
LINE
  8
0
 10
-34.614243
 20
-73.804146
 11
-34.614243
 21
-90.804146
  0
LINE
  8
0
 10
-33.614243
 20
-71.804146
 11
-33.614243
 21
-76.804146
  0
LINE
  8
0
 10
-47.614227
 20
-71.804146
 11
-47.614227
 21
-76.804146
  0
LINE
  8
0
 10
-34.614243
 20
-76.804146
 11
-33.614243
 21
-76.804146
  0
LINE
  8
0
 10
-47.614227
 20
-71.804146
 11
-33.614243
 21
-71.804146
  0
LINE
  8
0
 10
-31.614243
 20
-90.804161
 11
-31.614243
 21
-145.804169
  0
LINE
  8
0
 10
-31.614243
 20
-118.804161
 11
-50.614243
 21
-118.804161
  0
LINE
  8
0
 10
-31.614243
 20
-119.304161
 11
-50.614243
 21
-119.304161
  0
LINE
  8
0
 10
-15.614258
 20
-145.804169
 11
-15.614258
 21
-118.804161
  0
LINE
  8
0
 10
-31.614258
 20
-145.804169
 11
-15.614258
 21
-145.804169
  0
LINE
  8
0
 10
-23.614258
 20
-87.304161
 11
-23.614258
 21
-147.304169
  0
LINE
  8
0
 10
-31.114258
 20
-93.804161
 11
-16.114258
 21
-93.804161
  0
LINE
  8
0
 10
-16.114258
 20
-118.804161
 11
-16.114258
 21
-93.804161
  0
LINE
  8
0
 10
-31.114258
 20
-118.804161
 11
-31.114258
 21
-93.804161
  0
LINE
  8
0
 10
-16.788849
 20
-88.304161
 11
-30.439651
 21
-88.304161
  0
LINE
  8
0
 10
-30.631714
 20
-93.804153
 11
-30.439651
 21
-88.304153
  0
LINE
  8
0
 10
-16.596786
 20
-93.804153
 11
-16.788849
 21
-88.304146
  0
LINE
  8
0
 10
-15.614258
 20
-118.804161
 11
-31.614258
 21
-118.804161
  0
LINE
  8
0
 10
-31.114258
 20
-117.804161
 11
-16.114258
 21
-117.804161
  0
LINE
  8
0
 10
16.385742
 20
-145.804169
 11
16.385742
 21
-118.804161
  0
LINE
  8
0
 10
8.385742
 20
-87.304161
 11
8.385742
 21
-147.304169
  0
LINE
  8
0
 10
15.885742
 20
-118.804161
 11
15.885742
 21
-93.804161
  0
LINE
  8
0
 10
15.211174
 20
-88.304161
 11
1.560356
 21
-88.304161
  0
LINE
  8
0
 10
1.368309
 20
-93.804161
 11
1.560371
 21
-88.304169
  0
LINE
  8
0
 10
15.403259
 20
-93.804169
 11
15.211189
 21
-88.304169
  0
LINE
  8
0
 10
0.385742
 20
-145.604156
 11
0.385742
 21
-118.804161
  0
LINE
  8
0
 10
-15.614258
 20
-145.804169
 11
16.385742
 21
-145.804169
  0
LINE
  8
0
 10
-7.614258
 20
-87.304161
 11
-7.614258
 21
-147.304169
  0
LINE
  8
0
 10
-15.114250
 20
-118.804161
 11
-15.114250
 21
-93.804161
  0
LINE
  8
0
 10
-0.788849
 20
-88.304161
 11
-14.439651
 21
-88.304161
  0
LINE
  8
0
 10
-14.631721
 20
-93.804184
 11
-14.439651
 21
-88.304176
  0
LINE
  8
0
 10
-0.596779
 20
-93.804169
 11
-0.788841
 21
-88.304161
  0
LINE
  8
0
 10
15.885742
 20
-93.804161
 11
-15.114250
 21
-93.804161
  0
LINE
  8
0
 10
16.385742
 20
-118.804161
 11
-15.614258
 21
-118.804161
  0
LINE
  8
0
 10
-15.114250
 20
-117.804161
 11
15.885742
 21
-117.804161
  0
LINE
  8
0
 10
32.385742
 20
-145.804169
 11
32.385742
 21
-118.804161
  0
LINE
  8
0
 10
16.385742
 20
-145.804169
 11
32.385742
 21
-145.804169
  0
LINE
  8
0
 10
24.385742
 20
-86.304161
 11
24.385742
 21
-147.304169
  0
LINE
  8
0
 10
16.885742
 20
-118.804161
 11
16.885742
 21
-93.304146
  0
LINE
  8
0
 10
31.885742
 20
-118.804161
 11
31.885742
 21
-93.304146
  0
LINE
  8
0
 10
17.560287
 20
-88.304161
 11
31.210922
 21
-88.304161
  0
LINE
  8
0
 10
31.385468
 20
-93.304161
 11
31.210861
 21
-88.304169
  0
LINE
  8
0
 10
17.385643
 20
-93.304153
 11
17.560249
 21
-88.304169
  0
LINE
  8
0
 10
16.885742
 20
-93.304146
 11
31.885742
 21
-93.304146
  0
LINE
  8
0
 10
31.885742
 20
-117.804161
 11
16.885742
 21
-117.804161
  0
LINE
  8
0
 10
17.385742
 20
-126.304161
 11
29.385742
 21
-126.304161
  0
LINE
  8
0
 10
19.385742
 20
-138.304169
 11
31.385742
 21
-138.304169
  0
LINE
  8
0
 10
25.385742
 20
-132.304169
 11
25.385742
 21
-144.304169
  0
LINE
  8
0
 10
23.385742
 20
-120.304161
 11
23.385742
 21
-132.304169
  0
LINE
  8
0
 10
16.385742
 20
-118.804161
 11
32.385742
 21
-118.804161
  0
LINE
  8
0
 10
27.285736
 20
-125.304161
 11
27.285736
 21
-127.304161
  0
LINE
  8
0
 10
19.485733
 20
-125.304161
 11
19.485733
 21
-127.304161
  0
LINE
  8
0
 10
29.285736
 20
-137.304169
 11
29.285736
 21
-139.304169
  0
LINE
  8
0
 10
21.485733
 20
-137.304169
 11
21.485733
 21
-139.304169
  0
LINE
  8
0
 10
64.385742
 20
-145.804169
 11
64.385742
 21
-118.804161
  0
LINE
  8
0
 10
56.385742
 20
-86.304161
 11
56.385742
 21
-147.304169
  0
LINE
  8
0
 10
48.385742
 20
-145.804169
 11
48.385742
 21
-118.804161
  0
LINE
  8
0
 10
32.385742
 20
-145.804169
 11
64.385742
 21
-145.804169
  0
LINE
  8
0
 10
40.385742
 20
-86.304161
 11
40.385742
 21
-147.304169
  0
LINE
  8
0
 10
63.885742
 20
-93.804161
 11
32.885742
 21
-93.804161
  0
LINE
  8
0
 10
32.885742
 20
-118.804161
 11
32.885742
 21
-93.804161
  0
LINE
  8
0
 10
33.560333
 20
-88.304161
 11
47.211044
 21
-88.304161
  0
LINE
  8
0
 10
47.403015
 20
-93.804169
 11
47.210953
 21
-88.304169
  0
LINE
  8
0
 10
33.368225
 20
-93.804169
 11
33.560287
 21
-88.304169
  0
LINE
  8
0
 10
63.885742
 20
-118.804161
 11
63.885742
 21
-93.804161
  0
LINE
  8
0
 10
49.560272
 20
-88.304161
 11
63.211014
 21
-88.304161
  0
LINE
  8
0
 10
63.402969
 20
-93.804169
 11
63.210907
 21
-88.304169
  0
LINE
  8
0
 10
49.368149
 20
-93.804153
 11
49.560226
 21
-88.304169
  0
LINE
  8
0
 10
63.885742
 20
-117.804161
 11
32.885742
 21
-117.804161
  0
LINE
  8
0
 10
39.385742
 20
-118.804161
 11
39.385742
 21
-133.804169
  0
LINE
  8
0
 10
41.385742
 20
-130.804169
 11
41.385742
 21
-145.804169
  0
LINE
  8
0
 10
57.385742
 20
-130.804169
 11
57.385742
 21
-145.804169
  0
LINE
  8
0
 10
55.385742
 20
-118.804161
 11
55.385742
 21
-133.804169
  0
LINE
  8
0
 10
33.385742
 20
-126.304161
 11
45.385742
 21
-126.304161
  0
LINE
  8
0
 10
49.385742
 20
-126.304161
 11
61.385742
 21
-126.304161
  0
LINE
  8
0
 10
51.385742
 20
-138.304169
 11
63.385742
 21
-138.304169
  0
LINE
  8
0
 10
35.385742
 20
-138.304169
 11
47.385742
 21
-138.304169
  0
LINE
  8
0
 10
32.385742
 20
-118.804161
 11
64.385742
 21
-118.804161
  0
LINE
  8
0
 10
59.285736
 20
-125.304161
 11
59.285736
 21
-127.304161
  0
LINE
  8
0
 10
51.485733
 20
-125.304161
 11
51.485733
 21
-127.304161
  0
LINE
  8
0
 10
61.285736
 20
-137.304169
 11
61.285736
 21
-139.304169
  0
LINE
  8
0
 10
53.485733
 20
-137.304169
 11
53.485733
 21
-139.304169
  0
LINE
  8
0
 10
43.285736
 20
-125.304161
 11
43.285736
 21
-127.304161
  0
LINE
  8
0
 10
35.485733
 20
-125.304161
 11
35.485733
 21
-127.304161
  0
LINE
  8
0
 10
45.285736
 20
-137.304169
 11
45.285736
 21
-139.304169
  0
LINE
  8
0
 10
37.485733
 20
-137.304169
 11
37.485733
 21
-139.304169
  0
LINE
  8
0
 10
64.385742
 20
-145.804169
 11
83.385742
 21
-145.804169
  0
LINE
  8
0
 10
83.385742
 20
-118.804161
 11
83.385742
 21
-145.804169
  0
LINE
  8
0
 10
80.711151
 20
-86.804161
 11
67.060349
 21
-86.804161
  0
LINE
  8
0
 10
66.920715
 20
-90.804169
 11
67.060394
 21
-86.804153
  0
LINE
  8
0
 10
80.850906
 20
-90.804169
 11
80.711227
 21
-86.804169
  0
LINE
  8
0
 10
73.885742
 20
-146.804169
 11
73.885742
 21
-85.804161
  0
LINE
  8
0
 10
64.885742
 20
-90.804161
 11
82.885742
 21
-90.804161
  0
LINE
  8
0
 10
64.885742
 20
-90.804161
 11
64.885742
 21
-118.804161
  0
LINE
  8
0
 10
82.885742
 20
-90.804161
 11
82.885742
 21
-118.804161
  0
LINE
  8
0
 10
64.385742
 20
-118.804161
 11
83.385742
 21
-118.804161
  0
LINE
  8
0
 10
64.885742
 20
-117.804161
 11
82.885742
 21
-117.804161
  0
LINE
  8
0
 10
83.385742
 20
-145.804169
 11
121.385742
 21
-145.804169
  0
LINE
  8
0
 10
121.385742
 20
-118.804161
 11
121.385742
 21
-145.804169
  0
LINE
  8
0
 10
118.711182
 20
-86.804161
 11
105.060394
 21
-86.804161
  0
LINE
  8
0
 10
104.920746
 20
-90.804169
 11
105.060425
 21
-86.804169
  0
LINE
  8
0
 10
118.850891
 20
-90.804138
 11
118.711212
 21
-86.804153
  0
LINE
  8
0
 10
111.885742
 20
-146.804169
 11
111.885742
 21
-85.804161
  0
LINE
  8
0
 10
102.385742
 20
-118.804161
 11
102.385742
 21
-145.804169
  0
LINE
  8
0
 10
99.711151
 20
-86.804161
 11
86.060349
 21
-86.804161
  0
LINE
  8
0
 10
85.920700
 20
-90.804184
 11
86.060379
 21
-86.804169
  0
LINE
  8
0
 10
99.850906
 20
-90.804161
 11
99.711212
 21
-86.804153
  0
LINE
  8
0
 10
92.885742
 20
-146.804169
 11
92.885742
 21
-85.804161
  0
LINE
  8
0
 10
120.885742
 20
-90.804161
 11
120.885742
 21
-118.804161
  0
LINE
  8
0
 10
83.885742
 20
-90.804161
 11
83.885742
 21
-118.804161
  0
LINE
  8
0
 10
120.885742
 20
-90.804161
 11
83.885742
 21
-90.804161
  0
LINE
  8
0
 10
83.385742
 20
-118.804161
 11
121.385742
 21
-118.804161
  0
LINE
  8
0
 10
83.885742
 20
-117.804161
 11
120.885742
 21
-117.804161
  0
LINE
  8
0
 10
140.385742
 20
-118.804161
 11
140.385742
 21
-145.804169
  0
LINE
  8
0
 10
121.385742
 20
-145.804169
 11
140.385742
 21
-145.804169
  0
LINE
  8
0
 10
139.885742
 20
-118.804161
 11
139.885742
 21
-90.804161
  0
LINE
  8
0
 10
121.885742
 20
-118.804161
 11
121.885742
 21
-90.804161
  0
LINE
  8
0
 10
121.885742
 20
-90.804161
 11
139.885742
 21
-90.804161
  0
LINE
  8
0
 10
137.711166
 20
-86.804161
 11
124.060364
 21
-86.804161
  0
LINE
  8
0
 10
123.920731
 20
-90.804161
 11
124.060410
 21
-86.804153
  0
LINE
  8
0
 10
137.850937
 20
-90.804153
 11
137.711258
 21
-86.804153
  0
LINE
  8
0
 10
133.285736
 20
-126.804161
 11
133.285736
 21
-128.804169
  0
LINE
  8
0
 10
123.485748
 20
-126.804161
 11
123.485748
 21
-128.804169
  0
LINE
  8
0
 10
138.285736
 20
-137.804169
 11
138.285736
 21
-139.804169
  0
LINE
  8
0
 10
128.485748
 20
-137.804169
 11
128.485748
 21
-139.804169
  0
LINE
  8
0
 10
121.385742
 20
-118.804161
 11
140.385742
 21
-118.804161
  0
LINE
  8
0
 10
122.385742
 20
-127.804161
 11
134.385742
 21
-127.804161
  0
LINE
  8
0
 10
127.385742
 20
-138.804169
 11
139.385742
 21
-138.804169
  0
LINE
  8
0
 10
128.385742
 20
-120.304161
 11
128.385742
 21
-135.304169
  0
LINE
  8
0
 10
133.385742
 20
-131.304169
 11
133.385742
 21
-146.304169
  0
LINE
  8
0
 10
121.885742
 20
-117.804161
 11
139.885742
 21
-117.804161
  0
LINE
  8
0
 10
178.385757
 20
-118.804161
 11
178.385757
 21
-145.804169
  0
LINE
  8
0
 10
168.885757
 20
-146.804169
 11
168.885757
 21
-85.804161
  0
LINE
  8
0
 10
171.285721
 20
-126.804161
 11
171.285721
 21
-128.804169
  0
LINE
  8
0
 10
161.485733
 20
-126.804161
 11
161.485733
 21
-128.804169
  0
LINE
  8
0
 10
166.485733
 20
-137.804169
 11
166.485733
 21
-139.804169
  0
LINE
  8
0
 10
159.385757
 20
-118.804161
 11
159.385757
 21
-145.804169
  0
LINE
  8
0
 10
140.385742
 20
-145.804169
 11
178.385757
 21
-145.804169
  0
LINE
  8
0
 10
149.885742
 20
-146.804169
 11
149.885742
 21
-85.804161
  0
LINE
  8
0
 10
152.285736
 20
-126.804161
 11
152.285736
 21
-128.804169
  0
LINE
  8
0
 10
142.485748
 20
-126.804161
 11
142.485748
 21
-128.804169
  0
LINE
  8
0
 10
157.285721
 20
-137.804169
 11
157.285721
 21
-139.804169
  0
LINE
  8
0
 10
147.485748
 20
-137.804169
 11
147.485748
 21
-139.804169
  0
LINE
  8
0
 10
177.885757
 20
-90.804161
 11
177.885757
 21
-118.804161
  0
LINE
  8
0
 10
140.885742
 20
-90.804161
 11
140.885742
 21
-118.804161
  0
LINE
  8
0
 10
177.885757
 20
-90.804161
 11
140.885742
 21
-90.804161
  0
LINE
  8
0
 10
175.711136
 20
-86.804161
 11
162.060379
 21
-86.804161
  0
LINE
  8
0
 10
161.920731
 20
-90.804184
 11
162.060410
 21
-86.804169
  0
LINE
  8
0
 10
175.850967
 20
-90.804169
 11
175.711258
 21
-86.804161
  0
LINE
  8
0
 10
142.920731
 20
-90.804169
 11
143.060410
 21
-86.804169
  0
LINE
  8
0
 10
156.711136
 20
-86.804161
 11
143.060349
 21
-86.804161
  0
LINE
  8
0
 10
156.850937
 20
-90.804153
 11
156.711258
 21
-86.804146
  0
LINE
  8
0
 10
140.385742
 20
-118.804161
 11
178.385757
 21
-118.804161
  0
LINE
  8
0
 10
176.285782
 20
-137.804169
 11
176.285782
 21
-139.804169
  0
LINE
  8
0
 10
152.385742
 20
-131.304169
 11
152.385742
 21
-146.304169
  0
LINE
  8
0
 10
147.385742
 20
-120.304161
 11
147.385742
 21
-135.304169
  0
LINE
  8
0
 10
166.385757
 20
-120.304161
 11
166.385757
 21
-135.304169
  0
LINE
  8
0
 10
171.385757
 20
-131.304169
 11
171.385757
 21
-146.304169
  0
LINE
  8
0
 10
141.385742
 20
-127.804161
 11
153.385757
 21
-127.804161
  0
LINE
  8
0
 10
146.385742
 20
-138.804169
 11
158.385757
 21
-138.804169
  0
LINE
  8
0
 10
160.385757
 20
-127.804161
 11
172.385757
 21
-127.804161
  0
LINE
  8
0
 10
165.385757
 20
-138.804169
 11
177.385757
 21
-138.804169
  0
LINE
  8
0
 10
140.885742
 20
-117.804161
 11
177.885757
 21
-117.804161
  0
LINE
  8
0
 10
216.885757
 20
-90.804161
 11
234.885757
 21
-90.804161
  0
LINE
  8
0
 10
216.885757
 20
-90.804161
 11
216.885757
 21
-117.804161
  0
LINE
  8
0
 10
234.885757
 20
-90.804161
 11
234.885757
 21
-117.804161
  0
LINE
  8
0
 10
235.385757
 20
-117.804161
 11
235.385757
 21
-145.804169
  0
LINE
  8
0
 10
235.385757
 20
-145.804169
 11
216.385757
 21
-145.804169
  0
LINE
  8
0
 10
235.385757
 20
-117.804161
 11
216.385757
 21
-117.804161
  0
LINE
  8
0
 10
233.885757
 20
-83.804161
 11
233.885757
 21
-90.804161
  0
LINE
  8
0
 10
233.885757
 20
-83.804161
 11
217.885757
 21
-83.804161
  0
LINE
  8
0
 10
225.885757
 20
-83.804161
 11
225.885757
 21
-90.804161
  0
LINE
  8
0
 10
217.885757
 20
-83.804161
 11
217.885757
 21
-90.804161
  0
LINE
  8
0
 10
225.885757
 20
-80.800537
 11
225.885757
 21
-147.804169
  0
LINE
  8
0
 10
235.385757
 20
-118.804161
 11
216.385757
 21
-118.804161
  0
LINE
  8
0
 10
216.385757
 20
-117.804161
 11
216.385757
 21
-118.804161
  0
LINE
  8
0
 10
250.385757
 20
-126.804161
 11
238.385757
 21
-126.804161
  0
LINE
  8
0
 10
238.385757
 20
-126.804161
 11
238.385757
 21
-117.882721
  0
LINE
  8
0
 10
250.385757
 20
-146.804169
 11
235.385757
 21
-146.804169
  0
LINE
  8
0
 10
235.385757
 20
-117.804161
 11
235.385757
 21
-146.804169
  0
LINE
  8
0
 10
250.385757
 20
-118.196953
 11
250.385757
 21
-146.804169
  0
LINE
  8
0
 10
250.385727
 20
-118.196915
 11
235.385696
 21
-117.804123
  0
LINE
  8
0
 10
238.385788
 20
-119.383286
 11
235.346512
 21
-119.303696
  0
LINE
  8
0
 10
130.885742
 20
-85.756149
 11
130.885742
 21
-146.578079
  0
LINE
  8
0
 10
187.885757
 20
-110.667259
 11
187.885757
 21
-147.063370
  0
CIRCLE
  8
0
 10
185.385757
 20
-127.804161
 40
3.000000
  0
ARC
  8
0
 10
185.385757
 20
-126.804161
 40
4.899994
 50
0.000000
 51
179.999908
  0
ARC
  8
0
 10
185.385757
 20
-128.804169
 40
4.899994
 50
179.999817
 51
0.000000
  0
CIRCLE
  8
0
 10
190.385757
 20
-138.804169
 40
3.000000
  0
ARC
  8
0
 10
190.385757
 20
-137.804169
 40
4.899994
 50
0.000000
 51
179.999817
  0
ARC
  8
0
 10
190.385757
 20
-139.804169
 40
4.899994
 50
180.000000
 51
0.000000
  0
ARC
  8
0
 10
194.385757
 20
-116.504166
 40
5.000000
 50
55.944370
 51
124.055679
  0
ARC
  8
0
 10
181.385757
 20
-116.504166
 40
4.999994
 50
55.944321
 51
124.055679
  0
ARC
  8
0
 10
-63.864315
 20
-83.404160
 40
6.499997
 50
69.747742
 51
110.252289
  0
ARC
  8
0
 10
-56.364315
 20
-83.404160
 40
6.499998
 50
69.747711
 51
110.252258
  0
CIRCLE
  8
0
 10
23.385742
 20
-126.304161
 40
2.000000
  0
ARC
  8
0
 10
23.385742
 20
-125.304161
 40
3.899994
 50
0.000000
 51
180.000000
  0
ARC
  8
0
 10
23.385742
 20
-127.304161
 40
3.900002
 50
180.000000
 51
359.999878
  0
CIRCLE
  8
0
 10
25.385742
 20
-138.304169
 40
2.000000
  0
ARC
  8
0
 10
25.385742
 20
-137.304169
 40
3.899994
 50
0.000000
 51
179.999771
  0
ARC
  8
0
 10
25.385742
 20
-139.304169
 40
3.900002
 50
180.000000
 51
0.000000
  0
CIRCLE
  8
0
 10
55.385742
 20
-126.304161
 40
2.000000
  0
ARC
  8
0
 10
55.385742
 20
-125.304161
 40
3.899994
 50
0.000000
 51
180.000000
  0
ARC
  8
0
 10
55.385742
 20
-127.304161
 40
3.899994
 50
180.000000
 51
359.999878
  0
CIRCLE
  8
0
 10
57.385742
 20
-138.304169
 40
2.000000
  0
ARC
  8
0
 10
57.385742
 20
-137.304169
 40
3.899994
 50
0.000000
 51
179.999771
  0
ARC
  8
0
 10
57.385742
 20
-139.304169
 40
3.899994
 50
180.000000
 51
0.000000
  0
CIRCLE
  8
0
 10
39.385742
 20
-126.304161
 40
2.000000
  0
ARC
  8
0
 10
39.385742
 20
-125.304161
 40
3.899994
 50
0.000000
 51
180.000000
  0
ARC
  8
0
 10
39.385742
 20
-127.304161
 40
3.899994
 50
180.000000
 51
359.999878
  0
CIRCLE
  8
0
 10
41.385742
 20
-138.304169
 40
2.000000
  0
ARC
  8
0
 10
41.385742
 20
-137.304169
 40
3.899994
 50
0.000000
 51
179.999771
  0
ARC
  8
0
 10
41.385742
 20
-139.304169
 40
3.899994
 50
180.000000
 51
0.000000
  0
CIRCLE
  8
0
 10
128.385742
 20
-127.804161
 40
3.000000
  0
ARC
  8
0
 10
128.385742
 20
-126.804161
 40
4.900009
 50
0.000000
 51
179.999908
  0
ARC
  8
0
 10
128.385742
 20
-128.804169
 40
4.900009
 50
179.999817
 51
0.000000
  0
CIRCLE
  8
0
 10
133.385742
 20
-138.804169
 40
3.000000
  0
ARC
  8
0
 10
133.385742
 20
-137.804169
 40
4.900009
 50
0.000000
 51
179.999817
  0
ARC
  8
0
 10
133.385742
 20
-139.804169
 40
4.900009
 50
180.000000
 51
0.000000
  0
CIRCLE
  8
0
 10
166.385757
 20
-127.804161
 40
3.000000
  0
ARC
  8
0
 10
166.385757
 20
-126.804161
 40
4.899994
 50
0.000000
 51
179.999908
  0
ARC
  8
0
 10
166.385757
 20
-128.804169
 40
4.899994
 50
179.999817
 51
0.000000
  0
CIRCLE
  8
0
 10
171.385757
 20
-138.804169
 40
3.000000
  0
ARC
  8
0
 10
171.385757
 20
-137.804169
 40
4.899994
 50
0.000000
 51
179.999817
  0
ARC
  8
0
 10
171.385757
 20
-139.804169
 40
4.899994
 50
180.000000
 51
0.000000
  0
CIRCLE
  8
0
 10
147.385742
 20
-127.804161
 40
3.000000
  0
ARC
  8
0
 10
147.385742
 20
-126.804161
 40
4.900009
 50
0.000000
 51
179.999908
  0
ARC
  8
0
 10
147.385742
 20
-128.804169
 40
4.900009
 50
179.999817
 51
0.000000
  0
CIRCLE
  8
0
 10
152.385742
 20
-138.804169
 40
3.000000
  0
ARC
  8
0
 10
152.385742
 20
-137.804169
 40
4.900009
 50
0.000000
 51
179.999817
  0
ARC
  8
0
 10
152.385742
 20
-139.804169
 40
4.900009
 50
180.000000
 51
0.000000
  0
TEXT
  8
0
 10
192.707321
 20
-129.504166
 40
3.000000
  1
B
 50
0.000000
 41
1.052632
 51
0.000000
  7
STANDARD
  0
TEXT
  8
0
 10
179.707321
 20
-140.504166
 40
3.000000
  1
A
 50
0.000000
 41
1.052632
 51
0.000000
  7
STANDARD
  0
TEXT
  8
0
 10
18.350117
 20
-144.104172
 40
2.000000
  1
A
 50
0.000000
 41
1.052632
 51
0.000000
  7
STANDARD
  0
TEXT
  8
0
 10
28.350117
 20
-122.104164
 40
2.000000
  1
B
 50
0.000000
 41
1.052632
 51
0.000000
  7
STANDARD
  0
TEXT
  8
0
 10
44.350117
 20
-122.104164
 40
2.000000
  1
B
 50
0.000000
 41
1.052632
 51
0.000000
  7
STANDARD
  0
TEXT
  8
0
 10
34.350117
 20
-144.104172
 40
2.000000
  1
A
 50
0.000000
 41
1.052632
 51
0.000000
  7
STANDARD
  0
TEXT
  8
0
 10
60.350117
 20
-122.104164
 40
2.000000
  1
B
 50
0.000000
 41
1.052632
 51
0.000000
  7
STANDARD
  0
TEXT
  8
0
 10
50.350117
 20
-144.104172
 40
2.000000
  1
A
 50
0.000000
 41
1.052632
 51
0.000000
  7
STANDARD
  0
TEXT
  8
0
 10
135.707306
 20
-129.504166
 40
3.000000
  1
B
 50
0.000000
 41
1.052632
 51
0.000000
  7
STANDARD
  0
TEXT
  8
0
 10
122.707306
 20
-140.504166
 40
3.000000
  1
A
 50
0.000000
 41
1.052632
 51
0.000000
  7
STANDARD
  0
TEXT
  8
0
 10
173.707321
 20
-129.504166
 40
3.000000
  1
B
 50
0.000000
 41
1.052632
 51
0.000000
  7
STANDARD
  0
TEXT
  8
0
 10
160.707321
 20
-140.504166
 40
3.000000
  1
A
 50
0.000000
 41
1.052632
 51
0.000000
  7
STANDARD
  0
TEXT
  8
0
 10
141.707306
 20
-140.504166
 40
3.000000
  1
A
 50
0.000000
 41
1.052632
 51
0.000000
  7
STANDARD
  0
TEXT
  8
0
 10
154.707321
 20
-129.504166
 40
3.000000
  1
B
 50
0.000000
 41
1.052632
 51
0.000000
  7
STANDARD
  0
POINT
  8
0
 10
-232.456955
 20
36.112759
  0
POINT
  8
0
 10
-176.457016
 20
36.112759
  0
LINE
  8
0
 10
-203.456970
 20
134.112732
 11
-203.456970
 21
36.112759
  0
LINE
  8
0
 10
-232.456955
 20
134.112732
 11
-232.456955
 21
36.112759
  0
LINE
  8
0
 10
-232.456970
 20
36.112759
 11
-203.456970
 21
36.112759
  0
LINE
  8
0
 10
-232.456940
 20
134.112732
 11
-203.456970
 21
134.112732
  0
LINE
  8
0
 10
-212.456970
 20
46.112759
 11
-203.456970
 21
46.112759
  0
LINE
  8
0
 10
-212.456955
 20
134.112732
 11
-212.456955
 21
124.112732
  0
LINE
  8
0
 10
-212.456955
 20
124.112732
 11
-203.456955
 21
124.112732
  0
LINE
  8
0
 10
-212.456955
 20
46.112743
 11
-212.456955
 21
36.112743
  0
LINE
  8
0
 10
-233.938293
 20
41.112759
 11
-227.456970
 21
41.112759
  0
LINE
  8
0
 10
-233.938263
 20
129.112732
 11
-227.456940
 21
129.112732
  0
LINE
  8
0
 10
-211.456955
 20
69.612747
 11
-211.456955
 21
56.612743
  0
LINE
  8
0
 10
-217.956970
 20
63.112759
 11
-204.956970
 21
63.112759
  0
LINE
  8
0
 10
-157.456970
 20
69.112778
 11
-157.456970
 21
55.112774
  0
LINE
  8
0
 10
-157.456985
 20
69.112762
 11
-162.456985
 21
69.112762
  0
LINE
  8
0
 10
-159.456985
 20
68.112778
 11
-159.456985
 21
56.112774
  0
LINE
  8
0
 10
-162.456970
 20
69.112778
 11
-162.456970
 21
68.112778
  0
LINE
  8
0
 10
-159.456985
 20
68.112762
 11
-176.456955
 21
68.112762
  0
LINE
  8
0
 10
-159.456985
 20
67.362762
 11
-167.456985
 21
67.362762
  0
LINE
  8
0
 10
-167.456985
 20
67.362778
 11
-167.456985
 21
56.862774
  0
LINE
  8
0
 10
-159.456985
 20
56.862759
 11
-167.456985
 21
56.862759
  0
LINE
  8
0
 10
-159.456985
 20
56.112759
 11
-176.456955
 21
56.112759
  0
LINE
  8
0
 10
-157.456985
 20
55.112759
 11
-162.456985
 21
55.112759
  0
LINE
  8
0
 10
-162.456985
 20
56.112774
 11
-162.456985
 21
55.112774
  0
LINE
  8
0
 10
-169.456985
 20
119.612762
 11
-177.456985
 21
119.612762
  0
LINE
  8
0
 10
-169.456970
 20
72.612762
 11
-177.456970
 21
72.612762
  0
LINE
  8
0
 10
-175.456955
 20
69.612762
 11
-176.456955
 21
69.612762
  0
LINE
  8
0
 10
-175.456985
 20
122.612762
 11
-176.456985
 21
122.612762
  0
LINE
  8
0
 10
-169.456970
 20
81.939621
 11
-169.456970
 21
110.285614
  0
LINE
  8
0
 10
-170.456970
 20
116.862778
 11
-170.456970
 21
122.362778
  0
LINE
  8
0
 10
-175.456970
 20
69.437347
 11
-175.456970
 21
74.022812
  0
LINE
  8
0
 10
-170.702606
 20
118.025055
 11
-174.962906
 21
118.025055
  0
LINE
  8
0
 10
-170.702606
 20
121.200470
 11
-175.456985
 21
121.200470
  0
LINE
  8
0
 10
-170.702606
 20
122.788193
 11
-175.456985
 21
122.788193
  0
LINE
  8
0
 10
-170.457016
 20
116.862808
 11
-170.702637
 21
116.437393
  0
LINE
  8
0
 10
-170.457031
 20
122.362732
 11
-170.702637
 21
122.788162
  0
LINE
  8
0
 10
-170.456970
 20
69.862778
 11
-170.456970
 21
75.362778
  0
LINE
  8
0
 10
-170.702591
 20
69.437332
 11
-175.456955
 21
69.437332
  0
LINE
  8
0
 10
-170.702591
 20
71.025055
 11
-175.456970
 21
71.025055
  0
LINE
  8
0
 10
-170.702591
 20
74.200470
 11
-174.963470
 21
74.200470
  0
LINE
  8
0
 10
-170.456985
 20
69.862808
 11
-170.702606
 21
69.437378
  0
LINE
  8
0
 10
-170.457001
 20
75.362778
 11
-170.702606
 21
75.788208
  0
LINE
  8
0
 10
-179.457047
 20
36.612766
 11
-179.457047
 21
133.612747
  0
LINE
  8
0
 10
-180.456985
 20
44.112766
 11
-183.456985
 21
44.112766
  0
LINE
  8
0
 10
-180.457062
 20
126.112747
 11
-183.457062
 21
126.112747
  0
LINE
  8
0
 10
-183.457047
 20
43.112812
 11
-183.457047
 21
127.112793
  0
LINE
  8
0
 10
-187.957047
 20
43.112812
 11
-187.957047
 21
127.112793
  0
LINE
  8
0
 10
-192.457047
 20
43.112797
 11
-192.457047
 21
127.112793
  0
LINE
  8
0
 10
-196.957047
 20
43.112797
 11
-196.957047
 21
127.112793
  0
LINE
  8
0
 10
-201.457047
 20
43.112797
 11
-201.457047
 21
127.112793
  0
LINE
  8
0
 10
-198.457047
 20
43.112797
 11
-198.457047
 21
127.112793
  0
LINE
  8
0
 10
-193.957047
 20
43.112797
 11
-193.957047
 21
127.112793
  0
LINE
  8
0
 10
-189.457047
 20
43.112812
 11
-189.457047
 21
127.112793
  0
LINE
  8
0
 10
-184.957047
 20
43.112812
 11
-184.957047
 21
127.112793
  0
LINE
  8
0
 10
-180.457047
 20
43.112812
 11
-180.457047
 21
127.112793
  0
LINE
  8
0
 10
-198.456970
 20
44.112766
 11
-201.456970
 21
44.112766
  0
LINE
  8
0
 10
-193.956985
 20
44.112766
 11
-196.956970
 21
44.112766
  0
LINE
  8
0
 10
-189.456985
 20
44.112766
 11
-192.456985
 21
44.112766
  0
LINE
  8
0
 10
-184.956985
 20
44.112766
 11
-187.956985
 21
44.112766
  0
LINE
  8
0
 10
-184.957062
 20
126.112747
 11
-187.957062
 21
126.112747
  0
LINE
  8
0
 10
-189.457062
 20
126.112747
 11
-192.457062
 21
126.112747
  0
LINE
  8
0
 10
-193.957062
 20
126.112747
 11
-196.957062
 21
126.112747
  0
LINE
  8
0
 10
-198.457062
 20
126.112747
 11
-201.457062
 21
126.112747
  0
LINE
  8
0
 10
-163.679291
 20
113.962769
 11
-160.457062
 21
113.962769
  0
LINE
  8
0
 10
-160.457001
 20
113.962555
 11
-157.849976
 21
114.841171
  0
LINE
  8
0
 10
-165.945786
 20
111.501297
 11
-161.445801
 21
111.501297
  0
LINE
  8
0
 10
-161.445786
 20
111.001312
 11
-161.445786
 21
111.501282
  0
LINE
  8
0
 10
-161.356476
 20
109.887268
 11
-161.680588
 21
110.059509
  0
LINE
  8
0
 10
-169.957031
 20
82.112686
 11
-169.957031
 21
110.112549
  0
LINE
  8
0
 10
-176.457047
 20
73.662796
 11
-163.679276
 21
78.262787
  0
LINE
  8
0
 10
-169.957001
 20
82.112717
 11
-165.945801
 21
80.724228
  0
LINE
  8
0
 10
-157.380188
 20
77.997246
 11
-160.055084
 21
82.009590
  0
LINE
  8
0
 10
-163.679260
 20
78.262772
 11
-160.457031
 21
78.262772
  0
LINE
  8
0
 10
-160.456940
 20
78.263031
 11
-157.849899
 21
77.384407
  0
LINE
  8
0
 10
-165.945755
 20
80.724243
 11
-161.445755
 21
80.724243
  0
LINE
  8
0
 10
-161.445755
 20
81.224258
 11
-161.445755
 21
80.724258
  0
LINE
  8
0
 10
-161.356323
 20
82.338120
 11
-161.680435
 21
82.165878
  0
LINE
  8
0
 10
-176.456909
 20
118.562897
 11
-163.679092
 21
113.962891
  0
LINE
  8
0
 10
-169.957016
 20
110.112457
 11
-165.945068
 21
111.501221
  0
LINE
  8
0
 10
-157.457016
 20
69.112793
 11
-157.457016
 21
55.112782
  0
LINE
  8
0
 10
-157.457031
 20
69.112762
 11
-162.457031
 21
69.112762
  0
LINE
  8
0
 10
-159.457031
 20
68.112778
 11
-159.457031
 21
56.112782
  0
LINE
  8
0
 10
-162.457016
 20
69.112778
 11
-162.457016
 21
68.112778
  0
LINE
  8
0
 10
-159.457031
 20
68.112762
 11
-176.457016
 21
68.112762
  0
LINE
  8
0
 10
-159.457031
 20
67.362762
 11
-167.457031
 21
67.362762
  0
LINE
  8
0
 10
-167.457031
 20
67.362778
 11
-167.457031
 21
56.862782
  0
LINE
  8
0
 10
-159.457031
 20
56.862766
 11
-167.457031
 21
56.862766
  0
LINE
  8
0
 10
-159.457031
 20
56.112766
 11
-176.457016
 21
56.112766
  0
LINE
  8
0
 10
-157.457031
 20
55.112766
 11
-162.457031
 21
55.112766
  0
LINE
  8
0
 10
-162.457031
 20
56.112782
 11
-162.457031
 21
55.112782
  0
LINE
  8
0
 10
-176.457016
 20
36.612766
 11
-176.457016
 21
133.612762
  0
LINE
  8
0
 10
-157.380188
 20
114.228317
 11
-160.055084
 21
110.215973
  0
LINE
  8
0
 10
-176.456970
 20
36.612766
 11
-203.456970
 21
36.612766
  0
LINE
  8
0
 10
-176.456970
 20
133.612747
 11
-203.456970
 21
133.612747
  0
LINE
  8
0
 10
-175.456970
 20
118.202911
 11
-175.456970
 21
122.788208
  0
LINE
  8
0
 10
-170.456970
 20
121.112747
 11
-159.456924
 21
121.112747
  0
LINE
  8
0
 10
-157.456909
 20
124.112732
 11
-157.456909
 21
114.766937
  0
LINE
  8
0
 10
-162.456909
 20
124.112732
 11
-162.456909
 21
113.962769
  0
LINE
  8
0
 10
-159.456909
 20
121.112747
 11
-159.456909
 21
124.112732
  0
LINE
  8
0
 10
-176.456924
 20
124.112732
 11
-157.456924
 21
124.112732
  0
LINE
  8
0
 10
-165.556915
 20
121.112747
 11
-165.556915
 21
116.612747
  0
LINE
  8
0
 10
-165.556915
 20
119.862762
 11
-164.556946
 21
119.285431
  0
LINE
  8
0
 10
-165.556900
 20
118.862808
 11
-164.556885
 21
118.285461
  0
LINE
  8
0
 10
-164.556915
 20
121.112747
 11
-164.556915
 21
116.612747
  0
LINE
  8
0
 10
-170.601349
 20
116.612747
 11
-159.456940
 21
116.612747
  0
LINE
  8
0
 10
-159.456909
 20
116.612717
 11
-159.456909
 21
114.299652
  0
LINE
  8
0
 10
-169.456970
 20
109.112747
 11
-159.456940
 21
109.112747
  0
LINE
  8
0
 10
-159.456909
 20
109.112717
 11
-159.456909
 21
106.112717
  0
LINE
  8
0
 10
-169.456970
 20
106.112747
 11
-159.456924
 21
106.112747
  0
LINE
  8
0
 10
-165.556915
 20
111.501297
 11
-165.556915
 21
109.112747
  0
LINE
  8
0
 10
-165.556915
 20
106.112747
 11
-165.556915
 21
101.612747
  0
LINE
  8
0
 10
-165.556900
 20
111.362747
 11
-164.556885
 21
110.785385
  0
LINE
  8
0
 10
-164.556915
 20
111.501297
 11
-164.556915
 21
109.112747
  0
LINE
  8
0
 10
-169.456970
 20
101.612747
 11
-159.456940
 21
101.612747
  0
LINE
  8
0
 10
-159.456909
 20
101.612717
 11
-159.456909
 21
98.612732
  0
LINE
  8
0
 10
-169.456970
 20
98.612717
 11
-159.456940
 21
98.612717
  0
LINE
  8
0
 10
-169.456970
 20
94.112717
 11
-159.456940
 21
94.112717
  0
LINE
  8
0
 10
-159.456909
 20
94.112732
 11
-159.456909
 21
91.112732
  0
LINE
  8
0
 10
-169.456970
 20
91.112717
 11
-159.456924
 21
91.112717
  0
LINE
  8
0
 10
-164.556915
 20
98.612732
 11
-164.556915
 21
94.112732
  0
LINE
  8
0
 10
-165.556915
 20
98.612732
 11
-165.556915
 21
94.112732
  0
LINE
  8
0
 10
-165.556915
 20
97.362770
 11
-164.556900
 21
96.785416
  0
LINE
  8
0
 10
-165.556870
 20
96.362762
 11
-164.556885
 21
95.785416
  0
LINE
  8
0
 10
-165.556915
 20
91.112732
 11
-165.556915
 21
86.612732
  0
LINE
  8
0
 10
-165.556931
 20
89.862762
 11
-164.556931
 21
89.285416
  0
LINE
  8
0
 10
-165.556915
 20
88.862747
 11
-164.556915
 21
88.285400
  0
LINE
  8
0
 10
-164.556915
 20
91.112732
 11
-164.556915
 21
86.612732
  0
LINE
  8
0
 10
-169.456970
 20
86.612717
 11
-159.456940
 21
86.612717
  0
LINE
  8
0
 10
-159.456909
 20
86.612717
 11
-159.456909
 21
83.612717
  0
LINE
  8
0
 10
-169.456970
 20
83.612717
 11
-159.456940
 21
83.612717
  0
LINE
  8
0
 10
-159.456909
 20
77.925995
 11
-159.456909
 21
76.112717
  0
LINE
  8
0
 10
-169.651627
 20
76.112732
 11
-159.456924
 21
76.112732
  0
LINE
  8
0
 10
-164.556915
 20
83.612732
 11
-164.556915
 21
80.724243
  0
LINE
  8
0
 10
-165.556915
 20
83.612732
 11
-165.556915
 21
80.724243
  0
LINE
  8
0
 10
-165.556885
 20
82.362747
 11
-164.556885
 21
81.785400
  0
LINE
  8
0
 10
-165.556915
 20
81.362770
 11
-164.556915
 21
80.785423
  0
LINE
  8
0
 10
-172.456909
 20
68.612701
 11
-162.456909
 21
68.612701
  0
LINE
  8
0
 10
-159.456909
 20
55.112766
 11
-159.456909
 21
53.612713
  0
LINE
  8
0
 10
-172.456909
 20
53.612698
 11
-172.456909
 21
49.112698
  0
LINE
  8
0
 10
-172.456909
 20
53.612698
 11
-159.456940
 21
53.612698
  0
LINE
  8
0
 10
-172.456909
 20
49.112698
 11
-159.456940
 21
49.112698
  0
LINE
  8
0
 10
-159.456909
 20
49.112698
 11
-159.456909
 21
46.112698
  0
LINE
  8
0
 10
-176.456909
 20
46.112698
 11
-157.456909
 21
46.112698
  0
LINE
  8
0
 10
-164.556915
 20
53.612713
 11
-164.556915
 21
49.112698
  0
LINE
  8
0
 10
-165.556915
 20
53.612713
 11
-165.556915
 21
49.112698
  0
LINE
  8
0
 10
-165.556885
 20
52.362755
 11
-164.556885
 21
51.785400
  0
LINE
  8
0
 10
-165.556900
 20
51.362759
 11
-164.556915
 21
50.785412
  0
LINE
  8
0
 10
-164.556915
 20
106.112747
 11
-164.556915
 21
101.612747
  0
LINE
  8
0
 10
-165.556885
 20
103.862747
 11
-164.556870
 21
103.285400
  0
LINE
  8
0
 10
-165.556915
 20
104.862793
 11
-164.556931
 21
104.285446
  0
LINE
  8
0
 10
-170.456970
 20
71.612732
 11
-159.456940
 21
71.612732
  0
LINE
  8
0
 10
-159.456909
 20
71.612717
 11
-159.456909
 21
69.112762
  0
LINE
  8
0
 10
-164.556915
 20
76.112732
 11
-164.556915
 21
71.612732
  0
LINE
  8
0
 10
-165.556915
 20
74.862770
 11
-164.556915
 21
74.285423
  0
LINE
  8
0
 10
-165.556900
 20
73.862823
 11
-164.556885
 21
73.285477
  0
LINE
  8
0
 10
-165.556915
 20
76.112732
 11
-165.556915
 21
71.612732
  0
LINE
  8
0
 10
-172.456909
 20
68.612717
 11
-172.456909
 21
68.112762
  0
LINE
  8
0
 10
-162.456909
 20
111.501297
 11
-162.456909
 21
80.724243
  0
LINE
  8
0
 10
-157.456909
 20
114.113174
 11
-157.456909
 21
78.112305
  0
LINE
  8
0
 10
-157.456909
 20
77.251953
 11
-157.456909
 21
69.112762
  0
LINE
  8
0
 10
-162.456909
 20
78.262772
 11
-162.456909
 21
69.112762
  0
LINE
  8
0
 10
-162.456909
 20
55.112766
 11
-162.456909
 21
46.112698
  0
LINE
  8
0
 10
-157.456909
 20
55.112766
 11
-157.456909
 21
46.112713
  0
LINE
  8
0
 10
-176.456985
 20
131.712769
 11
-172.456985
 21
131.712769
  0
LINE
  8
0
 10
-172.456985
 20
131.712769
 11
-172.456985
 21
124.112732
  0
LINE
  8
0
 10
-201.456894
 20
133.712769
 11
-178.956940
 21
133.712769
  0
LINE
  8
0
 10
-201.506973
 20
133.612778
 11
-201.456955
 21
133.712814
  0
LINE
  8
0
 10
-229.857452
 20
33.912762
 11
-229.857452
 21
32.712765
  0
LINE
  8
0
 10
-227.457458
 20
36.112759
 11
-227.457458
 21
33.912762
  0
LINE
  8
0
 10
-220.457458
 20
36.112759
 11
-220.457458
 21
33.912762
  0
LINE
  8
0
 10
-206.057449
 20
33.912762
 11
-206.057449
 21
32.712765
  0
LINE
  8
0
 10
-217.857452
 20
33.912762
 11
-217.857452
 21
32.712765
  0
LINE
  8
0
 10
-215.457458
 20
36.112759
 11
-215.457458
 21
33.912762
  0
LINE
  8
0
 10
-208.457458
 20
36.112759
 11
-208.457458
 21
33.912762
  0
LINE
  8
0
 10
-206.057449
 20
32.712765
 11
-229.857452
 21
32.712765
  0
LINE
  8
0
 10
-206.057449
 20
33.912762
 11
-229.857452
 21
33.912762
  0
CIRCLE
  8
0
 10
-211.456970
 20
63.112743
 40
4.863999
  0
CIRCLE
  8
0
 10
-211.456970
 20
63.112743
 40
4.283000
  0
ARC
  8
0
 10
-171.862701
 20
121.994354
 40
1.405699
 50
325.615784
 51
25.615438
  0
ARC
  8
0
 10
-175.711349
 20
72.612778
 40
5.254377
 50
342.412109
 51
17.587898
  0
ARC
  8
0
 10
-171.862671
 20
70.231216
 40
1.405709
 50
334.384277
 51
34.384209
  0
ARC
  8
0
 10
-171.862686
 20
74.994354
 40
1.405703
 50
325.615540
 51
25.615707
  0
ARC
  8
0
 10
-175.711365
 20
119.612778
 40
5.254377
 50
342.412109
 51
17.587898
  0
ARC
  8
0
 10
-171.862686
 20
117.231216
 40
1.405699
 50
334.383728
 51
34.384209
  0
ARC
  8
0
 10
-160.887009
 20
81.454987
 40
0.999998
 50
33.690311
 51
117.987579
  0
ARC
  8
0
 10
-157.719681
 20
114.454636
 40
0.408132
 50
326.309326
 51
108.625969
  0
ARC
  8
0
 10
-161.445755
 20
81.724258
 40
0.500001
 50
117.986809
 51
270.000000
  0
ARC
  8
0
 10
-157.719650
 20
77.770935
 40
0.408141
 50
251.374023
 51
33.691551
  0
ARC
  8
0
 10
-160.887054
 20
110.770599
 40
0.999995
 50
242.012009
 51
326.309692
  0
ARC
  8
0
 10
-161.445801
 20
110.501282
 40
0.500000
 50
90.000000
 51
242.011642
  0
ARC
  8
0
 10
-169.056946
 20
51.362698
 40
6.499991
 50
339.747681
 51
20.252312
  0
ARC
  8
0
 10
-169.056931
 20
73.862717
 40
6.500004
 50
339.747772
 51
20.252234
  0
ARC
  8
0
 10
-169.056931
 20
103.862717
 40
6.500004
 50
339.747772
 51
20.252234
  0
ARC
  8
0
 10
-169.056931
 20
118.862747
 40
6.500004
 50
339.747772
 51
20.252234
  0
ARC
  8
0
 10
-169.056931
 20
111.362717
 40
6.500004
 50
339.747772
 51
1.221642
  0
ARC
  8
0
 10
-169.056946
 20
96.362732
 40
6.499992
 50
339.747650
 51
20.252279
  0
ARC
  8
0
 10
-169.056931
 20
88.862732
 40
6.500004
 50
339.747772
 51
20.252234
  0
ARC
  8
0
 10
-169.056946
 20
81.362732
 40
6.500002
 50
354.362793
 51
20.252279
  0
TEXT
  8
0
 10
-223.056976
 20
65.433990
 40
4.000000
  1
P
 50
-90.000000
 41
1.052632
 51
0.000000
  7
STANDARD
  0
TEXT
  8
0
 10
-211.056961
 20
84.433998
 40
4.000000
  1
R
 50
-90.000000
 41
1.052632
 51
0.000000
  7
STANDARD
  0
LINE
  8
0
 10
-41.114223
 20
-71.804153
 11
-35.340729
 21
-61.804169
  0
LINE
  8
0
 10
-41.114223
 20
-71.804153
 11
-38.992905
 21
-69.682831
  0
LINE
  8
0
 10
-41.114223
 20
-71.804153
 11
-40.337765
 21
-68.906380
  0
LINE
  8
0
 10
-79.114250
 20
-71.804192
 11
-73.340729
 21
-61.804176
  0
LINE
  8
0
 10
-79.114250
 20
-71.804192
 11
-76.992928
 21
-69.682869
  0
LINE
  8
0
 10
-79.114250
 20
-71.804192
 11
-78.337791
 21
-68.906418
  0
LINE
  8
0
 10
-60.114220
 20
-71.804169
 11
-54.340729
 21
-61.804180
  0
LINE
  8
0
 10
-60.114220
 20
-71.804169
 11
-57.992901
 21
-69.682846
  0
LINE
  8
0
 10
-60.114220
 20
-71.804169
 11
-59.337765
 21
-68.906387
  0
LINE
  8
0
 10
-23.614254
 20
-88.304138
 11
-8.314476
 21
-61.804169
  0
LINE
  8
0
 10
-23.614254
 20
-88.304138
 11
-21.492933
 21
-86.182816
  0
LINE
  8
0
 10
-23.614254
 20
-88.304138
 11
-22.837795
 21
-85.406364
  0
LINE
  8
0
 10
8.385757
 20
-88.304176
 11
23.685539
 21
-61.804176
  0
LINE
  8
0
 10
8.385757
 20
-88.304176
 11
10.507077
 21
-86.182854
  0
LINE
  8
0
 10
8.385757
 20
-88.304176
 11
9.162214
 21
-85.406403
  0
LINE
  8
0
 10
56.385757
 20
-88.304184
 11
71.685547
 21
-61.804180
  0
LINE
  8
0
 10
56.385757
 20
-88.304184
 11
58.507076
 21
-86.182861
  0
LINE
  8
0
 10
56.385757
 20
-88.304184
 11
57.162216
 21
-85.406410
  0
LINE
  8
0
 10
168.885834
 20
-86.804192
 11
183.319595
 21
-61.804173
  0
LINE
  8
0
 10
168.885834
 20
-86.804192
 11
171.007156
 21
-84.682869
  0
LINE
  8
0
 10
168.885834
 20
-86.804192
 11
169.662292
 21
-83.906418
  0
LINE
  8
0
 10
73.885780
 20
-86.804192
 11
88.319534
 21
-61.804192
  0
LINE
  8
0
 10
73.885780
 20
-86.804192
 11
76.007103
 21
-84.682869
  0
LINE
  8
0
 10
73.885780
 20
-86.804192
 11
74.662239
 21
-83.906418
  0
LINE
  8
0
 10
111.885834
 20
-86.804176
 11
126.319595
 21
-61.804180
  0
LINE
  8
0
 10
111.885834
 20
-86.804176
 11
114.007156
 21
-84.682854
  0
LINE
  8
0
 10
111.885834
 20
-86.804176
 11
112.662292
 21
-83.906403
  0
LINE
  8
0
 10
130.885803
 20
-86.804169
 11
145.319565
 21
-61.804169
  0
LINE
  8
0
 10
130.885803
 20
-86.804169
 11
133.007126
 21
-84.682846
  0
LINE
  8
0
 10
130.885803
 20
-86.804169
 11
131.662262
 21
-83.906395
  0
LINE
  8
0
 10
187.885742
 20
-113.804161
 11
187.885742
 21
-86.804161
  0
LINE
  8
0
 10
187.885742
 20
-113.804161
 11
188.662201
 21
-110.906387
  0
LINE
  8
0
 10
187.885742
 20
-113.804161
 11
187.109283
 21
-110.906387
  0
LINE
  8
0
 10
206.885849
 20
-90.804207
 11
223.629028
 21
-61.804195
  0
LINE
  8
0
 10
206.885849
 20
-90.804207
 11
209.007172
 21
-88.682884
  0
LINE
  8
0
 10
206.885849
 20
-90.804207
 11
207.662308
 21
-87.906433
  0
LINE
  8
0
 10
225.885773
 20
-83.804176
 11
238.587509
 21
-61.804173
  0
LINE
  8
0
 10
225.885773
 20
-83.804176
 11
228.007095
 21
-81.682861
  0
LINE
  8
0
 10
225.885773
 20
-83.804176
 11
226.662231
 21
-80.906403
  0
LINE
  8
0
 10
24.385763
 20
-88.304192
 11
39.685547
 21
-61.804184
  0
LINE
  8
0
 10
24.385763
 20
-88.304192
 11
26.507084
 21
-86.182869
  0
LINE
  8
0
 10
24.385763
 20
-88.304192
 11
25.162220
 21
-85.406418
  0
ENDSEC
  0
EOF
