  0
SECTION
  2
HEADER
  0
ENDSEC
  0
SECTION
  2
TABLES
  0
TABLE
  2
LTYPE
 70
     4
  0
LTYPE
  2
CONTINUOUS
 70
    64
  3
Solid line
 72
    65
 73
     0
 40
0.000000
  0
LTYPE
  2
DASHED
 70
    64
  3
__ __ __ __ __ __ __ __ __ __ __ __ __ __ __
 72
    65
 73
     2
 40
3.500000
 49
2.000000
 49
-1.500000
  0
LTYPE
  2
CENTER
 70
    64
  3
____ _ ____ _ ____ _ ____ _ ____ _ ____ _ ____
 72
    65
 73
     4
 40
17.500000
 49
13.000000
 49
-1.500000
 49
1.500000
 49
-1.500000
  0
LTYPE
  2
PHANTOM
 70
    64
  3
_____ _ _ _____ _ _ _____ _ _ _____ _ _ ____  
 72
    65
 73
     6
 40
15.500000
 49
8.000000
 49
-1.500000
 49
1.500000
 49
-1.500000
 49
1.500000
 49
-1.500000
  0
LTYPE
  2
DASHED1
 70
    64
  3
__ __ __ __ __ __ __ __ __ __ __ __ __ __ __
 72
    65
 73
     2
 40
1.500000
 49
1.000000
 49
-0.500000
  0
LTYPE
  2
DASHED2
 70
    64
  3
__ __ __ __ __ __ __ __ __ __ __ __ __ __ __
 72
    65
 73
     2
 40
3.500000
 49
2.500000
 49
-1.000000
  0
LTYPE
  2
DASHED3
 70
    64
  3
__ __ __ __ __ __ __ __ __ __ __ __ __ __ __
 72
    65
 73
     2
 40
6.000000
 49
4.000000
 49
-2.000000
  0
LTYPE
  2
DASHED4
 70
    64
  3
__ __ __ __ __ __ __ __ __ __ __ __ __ __ __
 72
    65
 73
     2
 40
12.000000
 49
10.000000
 49
-2.000000
  0
LTYPE
  2
DASHED5
 70
    64
  3
__ __ __ __ __ __ __ __ __ __ __ __ __ __ __
 72
    65
 73
     2
 40
17.000000
 49
15.000000
 49
-2.000000
  0
LTYPE
  2
DASHED6
 70
    64
  3
__ __ __ __ __ __ __ __ __ __ __ __ __ __ __
 72
    65
 73
     2
 40
29.000000
 49
27.000000
 49
-2.000000
  0
LTYPE
  2
PHANTOM1
 70
    64
  3
_____ _ _ _____ _ _ _____ _ _ _____ _ _ ____  
 72
    65
 73
     6
 40
31.000000
 49
25.000000
 49
-1.500000
 49
1.000000
 49
-1.000000
 49
1.000000
 49
-1.500000
  0
LTYPE
  2
PHANTOM2
 70
    64
  3
_____ _ _ _____ _ _ _____ _ _ _____ _ _ ____  
 72
    65
 73
     6
 40
36.000000
 49
27.000000
 49
-1.500000
 49
2.500000
 49
-1.000000
 49
2.500000
 49
-1.500000
  0
LTYPE
  2
PHANTOM3
 70
    64
  3
_____ _ _ _____ _ _ _____ _ _ _____ _ _ ____  
 72
    65
 73
     6
 40
78.000000
 49
64.000000
 49
-2.000000
 49
4.000000
 49
-2.000000
 49
4.000000
 49
-2.000000
  0
LTYPE
  2
CENTER1
 70
    64
  3
____ _ ____ _ ____ _ ____ _ ____ _ ____ _ ____
 72
    65
 73
     4
 40
19.000000
 49
14.000000
 49
-1.000000
 49
3.000000
 49
-1.000000
  0
LTYPE
  2
CENTER2
 70
    64
  3
____ _ ____ _ ____ _ ____ _ ____ _ ____ _ ____
 72
    65
 73
     4
 40
28.500000
 49
25.000000
 49
-1.000000
 49
1.500000
 49
-1.000000
  0
LTYPE
  2
CENTER3
 70
    64
  3
____ _ ____ _ ____ _ ____ _ ____ _ ____ _ ____
 72
    65
 73
     4
 40
31.500000
 49
27.000000
 49
-1.000000
 49
2.500000
 49
-1.000000
  0
LTYPE
  2
CENTER4
 70
    64
  3
____ _ ____ _ ____ _ ____ _ ____ _ ____ _ ____
 72
    65
 73
     4
 40
50.000000
 49
45.000000
 49
-1.000000
 49
3.000000
 49
-1.000000
  0
LTYPE
  2
CENTER5
 70
    64
  3
____ _ ____ _ ____ _ ____ _ ____ _ ____ _ ____
 72
    65
 73
     4
 40
100.000000
 49
92.000000
 49
-2.000000
 49
4.000000
 49
-2.000000
  0
LTYPE
  2
SBK1
 70
    64
  3
______ _ _ _ ______ _ _ _ ______ _ _ _ _____  
 72
    65
 73
     8
 40
60.500000
 49
45.000000
 49
-2.000000
 49
2.500000
 49
-2.000000
 49
2.500000
 49
-2.000000
 49
2.500000
 49
-2.000000
  0
LTYPE
  2
SBK2
 70
    64
  3
______ _ _ _ ______ _ _ _ ______ _ _ _ _____  
 72
    65
 73
     8
 40
84.000000
 49
64.000000
 49
-2.000000
 49
4.000000
 49
-2.000000
 49
4.000000
 49
-2.000000
 49
4.000000
 49
-2.000000
  0
LTYPE
  2
STCH
 70
    64
  3
__ __ __ __ __ __ __ __ __ __ __ __ __ __ __
 72
    65
 73
     2
 40
3.000000
 49
1.000000
 49
-2.000000
  0
LTYPE
  2
MTCH
 70
    64
  3
_____ _ _ _____ _ _ _____ _ _ _____ _ _ ____  
 72
    65
 73
     6
 40
80.000000
 49
66.000000
 49
-2.000000
 49
4.000000
 49
-2.000000
 49
4.000000
 49
-2.000000
  0
ENDTAB
  0
TABLE
  2
LAYER
 70
     1
  0
LAYER
  2
0
 70
     0
 62
     7
  6
CONTINUOUS
  0
ENDTAB
  0
TABLE
  2
STYLE
 70
     1
  0
STYLE
  2
STANDARD
 70
     0
 40
0.000000
 41
1.000000
 50
0.000000
 71
     0
 42
0.200000
  3
txt
  4
BIGFONT
  0
ENDTAB
  0
TABLE
  2
VIEW
 70
     0
  0
ENDTAB
  0
ENDSEC
  0
SECTION
  2
BLOCKS
  0
ENDSEC
  0
SECTION
  2
ENTITIES
  0
LINE
  8
0
 10
-297.000000
 20
210.000000
 11
297.000000
 21
210.000000
  0
LINE
  8
0
 10
-297.000000
 20
-210.000000
 11
297.000000
 21
-210.000000
  0
LINE
  8
0
 10
297.000000
 20
210.000000
 11
297.000000
 21
-210.000000
  0
LINE
  8
0
 10
-297.000000
 20
210.000000
 11
-297.000000
 21
-210.000000
  0
LINE
  8
0
 10
-281.250000
 20
195.500000
 11
282.099976
 21
195.500000
  0
LINE
  8
0
 10
-281.250000
 20
195.500000
 11
-281.250000
 21
-195.000000
  0
LINE
  8
0
 10
282.099976
 20
195.500000
 11
282.099976
 21
-195.000000
  0
LINE
  8
0
 10
-281.250000
 20
-195.000000
 11
282.099976
 21
-195.000000
  0
LINE
  8
0
 10
162.099976
 20
-175.000000
 11
162.099976
 21
-195.000000
  0
LINE
  8
0
 10
-281.250000
 20
-175.000000
 11
282.099976
 21
-175.000000
  0
LINE
  8
0
 10
162.099976
 20
175.500000
 11
282.099976
 21
175.500000
  0
LINE
  8
0
 10
-281.250000
 20
175.500000
 11
-161.250000
 21
175.500000
  0
LINE
  8
0
 10
162.099976
 20
195.500000
 11
162.099976
 21
175.500000
  0
LINE
  8
0
 10
-161.250000
 20
195.500000
 11
-161.250000
 21
175.500000
  0
LINE
  8
0
 10
0.424988
 20
195.500000
 11
0.424988
 21
-195.000000
  0
LINE
  8
0
  6
PHANTOM
 10
-229.890640
 20
91.174622
 11
-229.890640
 21
-6.825378
  0
LINE
  8
0
  6
PHANTOM
 10
-257.890625
 20
91.174622
 11
-257.890625
 21
-6.825378
  0
LINE
  8
0
  6
PHANTOM
 10
-229.890640
 20
-6.825378
 11
-257.890625
 21
-6.825378
  0
LINE
  8
0
  6
PHANTOM
 10
-229.890640
 20
91.174622
 11
-257.890625
 21
91.174622
  0
LINE
  8
0
  6
PHANTOM
 10
70.592667
 20
91.174622
 11
70.592667
 21
-6.825378
  0
LINE
  8
0
  6
PHANTOM
 10
42.592667
 20
91.174622
 11
42.592667
 21
-6.825378
  0
LINE
  8
0
  6
PHANTOM
 10
70.592667
 20
-6.825378
 11
42.592667
 21
-6.825378
  0
LINE
  8
0
  6
PHANTOM
 10
70.592667
 20
91.174622
 11
42.592667
 21
91.174622
  0
TEXT
  8
0
 10
174.200241
 20
180.830002
 40
6.300000
  1
DATE: SEP ,1992
 50
0.000000
 41
1.052632
 51
0.000000
  7
STANDARD
  0
TEXT
  8
0
 10
167.564667
 20
-192.100006
 40
9.000000
  1
KOGANEI CORP.
 50
0.000000
 41
1.052632
 51
0.000000
  7
STANDARD
  0
TEXT
  8
0
 10
-240.285309
 20
178.399994
 40
9.000000
  1
X88M
 50
0.000000
 41
1.052632
 51
0.000000
  7
STANDARD
  0
TEXT
  8
0
 10
-152.940643
 20
-36.695278
 40
6.300000
  1
-FR01S
 50
0.000000
 41
1.052631
 51
0.000000
  7
STANDARD
  0
TEXT
  8
0
 10
-74.940651
 20
-36.695278
 40
6.300000
  1
-FR02S
 50
0.000000
 41
1.052631
 51
0.000000
  7
STANDARD
  0
TEXT
  8
0
 10
-194.612503
 20
-184.669998
 40
6.300000
  1
MODEL : FMP-FR01S
 50
0.000000
 41
1.052631
 51
0.000000
  7
STANDARD
  0
TEXT
  8
0
 10
-194.612503
 20
-194.669998
 40
6.300000
  1
        FMP-FR02S
 50
0.000000
 41
1.052631
 51
0.000000
  7
STANDARD
  0
TEXT
  8
0
 10
27.062485
 20
-189.669998
 40
6.300000
  1
MODEL : FMP-PR02S
 50
0.000000
 41
1.052631
 51
0.000000
  7
STANDARD
  0
POINT
  8
0
 10
188.592651
 20
-6.825363
  0
POINT
  8
0
 10
207.592651
 20
-6.825363
  0
LINE
  8
0
 10
198.092651
 20
92.174606
 11
198.092651
 21
-7.825363
  0
LINE
  8
0
 10
190.092651
 20
15.174637
 11
206.092651
 21
15.174637
  0
LINE
  8
0
 10
190.092651
 20
63.174622
 11
206.092651
 21
63.174622
  0
LINE
  8
0
 10
190.092651
 20
38.174622
 11
206.092651
 21
38.174622
  0
LINE
  8
0
 10
188.592651
 20
-6.825363
 11
207.592651
 21
-6.825363
  0
LINE
  8
0
 10
188.592651
 20
91.174606
 11
207.592651
 21
91.174606
  0
LINE
  8
0
 10
207.592651
 20
91.174606
 11
207.592651
 21
-6.825363
  0
LINE
  8
0
 10
188.592651
 20
90.674622
 11
207.592651
 21
90.674622
  0
LINE
  8
0
 10
188.592651
 20
-6.325378
 11
207.592651
 21
-6.325378
  0
LINE
  8
0
 10
190.925919
 20
-2.992102
 11
193.259384
 21
-0.658639
  0
LINE
  8
0
 10
190.925903
 20
-0.658622
 11
193.259384
 21
-2.992101
  0
LINE
  8
0
 10
202.925919
 20
-2.992102
 11
205.259384
 21
-0.658640
  0
LINE
  8
0
 10
202.925903
 20
-0.658622
 11
205.259384
 21
-2.992101
  0
LINE
  8
0
 10
190.925919
 20
85.007866
 11
193.259384
 21
87.341331
  0
LINE
  8
0
 10
190.925903
 20
87.341354
 11
193.259384
 21
85.007874
  0
LINE
  8
0
 10
202.925919
 20
85.007866
 11
205.259384
 21
87.341331
  0
LINE
  8
0
 10
202.925903
 20
87.341347
 11
205.259384
 21
85.007874
  0
CIRCLE
  8
0
 10
198.092651
 20
15.174629
 40
6.578500
  0
CIRCLE
  8
0
 10
198.092651
 20
15.174629
 40
5.722500
  0
CIRCLE
  8
0
 10
198.092651
 20
63.174614
 40
5.722500
  0
CIRCLE
  8
0
 10
198.092651
 20
63.174614
 40
6.578500
  0
CIRCLE
  8
0
 10
198.092651
 20
38.174614
 40
5.722500
  0
CIRCLE
  8
0
 10
198.092651
 20
38.174614
 40
6.578500
  0
CIRCLE
  8
0
 10
192.092651
 20
-1.825363
 40
3.000000
  0
CIRCLE
  8
0
 10
204.092651
 20
-1.825363
 40
3.000000
  0
CIRCLE
  8
0
 10
192.092651
 20
86.174606
 40
3.000000
  0
CIRCLE
  8
0
 10
204.092651
 20
86.174606
 40
3.000000
  0
TEXT
  8
0
 10
191.414215
 20
46.974621
 40
3.000000
  1
R
 50
0.000000
 41
1.052632
 51
0.000000
  7
STANDARD
  0
TEXT
  8
0
 10
191.414215
 20
71.974625
 40
3.000000
  1
R
 50
0.000000
 41
1.052632
 51
0.000000
  7
STANDARD
  0
TEXT
  8
0
 10
191.414215
 20
23.974636
 40
3.000000
  1
P
 50
0.000000
 41
1.052632
 51
0.000000
  7
STANDARD
  0
POINT
  8
0
 10
-123.890656
 20
-7.025276
  0
POINT
  8
0
 10
-142.890656
 20
-7.025276
  0
LINE
  8
0
 10
-141.890656
 20
14.974724
 11
-124.890656
 21
14.974724
  0
LINE
  8
0
 10
-142.890656
 20
-7.025276
 11
-123.890656
 21
-7.025276
  0
LINE
  8
0
 10
-142.890656
 20
90.974709
 11
-123.890656
 21
90.974709
  0
LINE
  8
0
 10
-133.390640
 20
92.974709
 11
-133.390640
 21
-9.025276
  0
LINE
  8
0
 10
-123.890656
 20
90.974709
 11
-123.890656
 21
-7.025276
  0
LINE
  8
0
 10
-141.390640
 20
19.593538
 11
-133.390625
 21
24.212347
  0
LINE
  8
0
 10
-133.390640
 20
24.212343
 11
-125.390640
 21
19.593538
  0
LINE
  8
0
 10
-125.390625
 20
19.593513
 11
-125.390625
 21
10.355919
  0
LINE
  8
0
 10
-133.390625
 20
5.737106
 11
-125.390633
 21
10.355904
  0
LINE
  8
0
 10
-141.390625
 20
10.355915
 11
-133.390640
 21
5.737123
  0
LINE
  8
0
 10
-141.390625
 20
19.593513
 11
-141.390625
 21
10.355919
  0
LINE
  8
0
 10
-139.890640
 20
26.474716
 11
-126.890640
 21
26.474716
  0
LINE
  8
0
 10
-139.890640
 20
32.474716
 11
-126.890640
 21
32.474716
  0
LINE
  8
0
 10
-139.890640
 20
39.974716
 11
-126.890640
 21
39.974716
  0
LINE
  8
0
 10
-139.890640
 20
47.474716
 11
-126.890640
 21
47.474716
  0
LINE
  8
0
 10
-139.890640
 20
54.974716
 11
-126.890640
 21
54.974716
  0
LINE
  8
0
 10
-139.890640
 20
62.474709
 11
-126.890640
 21
62.474709
  0
LINE
  8
0
 10
-139.890640
 20
69.974709
 11
-126.890640
 21
69.974709
  0
LINE
  8
0
 10
-139.890640
 20
77.474709
 11
-126.890640
 21
77.474709
  0
LINE
  8
0
 10
-136.518356
 20
83.974709
 11
-130.262924
 21
83.974709
  0
LINE
  8
0
 10
-139.890640
 20
31.474716
 11
-126.890640
 21
31.474716
  0
LINE
  8
0
 10
-139.890640
 20
38.974716
 11
-126.890640
 21
38.974716
  0
LINE
  8
0
 10
-139.890640
 20
46.474716
 11
-126.890640
 21
46.474716
  0
LINE
  8
0
 10
-139.890640
 20
53.974716
 11
-126.890640
 21
53.974716
  0
LINE
  8
0
 10
-139.890640
 20
61.474709
 11
-126.890640
 21
61.474709
  0
LINE
  8
0
 10
-139.890640
 20
68.974709
 11
-126.890640
 21
68.974709
  0
LINE
  8
0
 10
-139.890640
 20
76.474709
 11
-126.890640
 21
76.474709
  0
LINE
  8
0
 10
-126.890640
 20
82.510612
 11
-126.890640
 21
77.474709
  0
LINE
  8
0
 10
-139.890640
 20
82.510612
 11
-139.890640
 21
77.474709
  0
LINE
  8
0
 10
-139.890640
 20
31.474716
 11
-139.890640
 21
26.474716
  0
LINE
  8
0
 10
-139.890640
 20
38.974716
 11
-139.890640
 21
32.474716
  0
LINE
  8
0
 10
-126.890640
 20
31.474716
 11
-126.890640
 21
26.474716
  0
LINE
  8
0
 10
-126.890640
 20
38.974716
 11
-126.890640
 21
32.474716
  0
LINE
  8
0
 10
-139.890640
 20
46.474716
 11
-139.890640
 21
39.974716
  0
LINE
  8
0
 10
-126.890640
 20
46.474716
 11
-126.890640
 21
39.974716
  0
LINE
  8
0
 10
-139.890640
 20
53.974716
 11
-139.890640
 21
47.474716
  0
LINE
  8
0
 10
-126.890640
 20
53.974716
 11
-126.890640
 21
47.474716
  0
LINE
  8
0
 10
-139.890640
 20
61.474709
 11
-139.890640
 21
54.974716
  0
LINE
  8
0
 10
-126.890640
 20
61.474709
 11
-126.890640
 21
54.974716
  0
LINE
  8
0
 10
-139.890640
 20
68.974709
 11
-139.890640
 21
62.474709
  0
LINE
  8
0
 10
-126.890640
 20
68.974709
 11
-126.890640
 21
62.474709
  0
LINE
  8
0
 10
-139.890640
 20
76.474709
 11
-139.890640
 21
69.974709
  0
LINE
  8
0
 10
-126.890640
 20
76.474709
 11
-126.890640
 21
69.974709
  0
LINE
  8
0
 10
-140.557327
 20
87.141510
 11
-138.223846
 21
84.808029
  0
LINE
  8
0
 10
-140.557312
 20
84.808044
 11
-138.223846
 21
87.141510
  0
LINE
  8
0
 10
-128.557373
 20
87.141457
 11
-126.223892
 21
84.807976
  0
LINE
  8
0
 10
-128.557373
 20
84.807983
 11
-126.223907
 21
87.141449
  0
LINE
  8
0
 10
-140.557388
 20
-0.858536
 11
-138.223907
 21
-3.192015
  0
LINE
  8
0
 10
-140.557373
 20
-3.192014
 11
-138.223907
 21
-0.858552
  0
LINE
  8
0
 10
-128.557373
 20
-0.858537
 11
-126.223900
 21
-3.192015
  0
LINE
  8
0
 10
-128.557373
 20
-3.192013
 11
-126.223907
 21
-0.858550
  0
LINE
  8
0
 10
-142.890656
 20
-6.525284
 11
-123.890656
 21
-6.525284
  0
LINE
  8
0
 10
-142.890656
 20
90.474716
 11
-123.890656
 21
90.474716
  0
CIRCLE
  8
0
 10
-133.390640
 20
14.974724
 40
3.750000
  0
CIRCLE
  8
0
 10
-133.390640
 20
14.974724
 40
8.000000
  0
ARC
  8
0
 10
-139.390640
 20
85.974709
 40
3.500002
 50
261.786804
 51
325.150116
  0
ARC
  8
0
 10
-127.390640
 20
85.974709
 40
3.500002
 50
214.849884
 51
278.213196
  0
CIRCLE
  8
0
 10
-139.390640
 20
85.974709
 40
3.000000
  0
CIRCLE
  8
0
 10
-127.390640
 20
85.974709
 40
3.000000
  0
CIRCLE
  8
0
 10
-139.390640
 20
-2.025276
 40
3.000000
  0
CIRCLE
  8
0
 10
-127.390640
 20
-2.025276
 40
3.000000
  0
TEXT
  8
0
 10
-135.197662
 20
1.594724
 40
3.200000
  1
P
 50
0.000000
 41
1.052632
 51
0.000000
  7
STANDARD
  0
POINT
  8
0
 10
-123.890656
 20
-93.501480
  0
POINT
  8
0
 10
-142.890656
 20
-93.501480
  0
LINE
  8
0
 10
-142.390640
 20
-65.501480
 11
-124.390640
 21
-65.501480
  0
LINE
  8
0
 10
-142.390640
 20
-65.501480
 11
-142.390640
 21
-92.501480
  0
LINE
  8
0
 10
-124.390640
 20
-65.501480
 11
-124.390640
 21
-92.501480
  0
LINE
  8
0
 10
-123.890656
 20
-92.501480
 11
-123.890656
 21
-120.501480
  0
LINE
  8
0
 10
-123.890656
 20
-120.501480
 11
-142.890656
 21
-120.501480
  0
LINE
  8
0
 10
-123.890656
 20
-92.501480
 11
-142.890656
 21
-92.501480
  0
LINE
  8
0
 10
-125.390640
 20
-58.501480
 11
-125.390640
 21
-65.501480
  0
LINE
  8
0
 10
-125.390640
 20
-58.501480
 11
-141.390640
 21
-58.501480
  0
LINE
  8
0
 10
-133.390640
 20
-58.501480
 11
-133.390640
 21
-65.501480
  0
LINE
  8
0
 10
-141.390640
 20
-58.501480
 11
-141.390640
 21
-65.501480
  0
LINE
  8
0
 10
-133.390656
 20
-55.497860
 11
-133.390656
 21
-122.501480
  0
LINE
  8
0
 10
-123.890656
 20
-93.501480
 11
-142.890656
 21
-93.501480
  0
LINE
  8
0
 10
-142.890656
 20
-92.501480
 11
-142.890656
 21
-93.501480
  0
POINT
  8
0
 10
-229.890640
 20
-6.825378
  0
POINT
  8
0
 10
-209.890640
 20
-6.825378
  0
LINE
  8
0
 10
-202.890640
 20
90.674622
 11
-202.890640
 21
-6.325348
  0
LINE
  8
0
 10
-227.890686
 20
82.974709
 11
-224.890686
 21
82.974709
  0
LINE
  8
0
 10
-227.890625
 20
0.974724
 11
-224.890625
 21
0.974724
  0
LINE
  8
0
 10
-224.890640
 20
83.974693
 11
-224.890640
 21
-0.025307
  0
LINE
  8
0
 10
-220.390640
 20
83.974709
 11
-220.390640
 21
-0.025291
  0
LINE
  8
0
 10
-215.890640
 20
83.974709
 11
-215.890640
 21
-0.025291
  0
LINE
  8
0
 10
-211.390640
 20
83.974709
 11
-211.390640
 21
-0.025291
  0
LINE
  8
0
 10
-206.890640
 20
83.974709
 11
-206.890640
 21
-0.025291
  0
LINE
  8
0
 10
-209.890640
 20
83.974709
 11
-209.890640
 21
-0.025291
  0
LINE
  8
0
 10
-214.390640
 20
83.974709
 11
-214.390640
 21
-0.025291
  0
LINE
  8
0
 10
-218.890640
 20
83.974709
 11
-218.890640
 21
-0.025291
  0
LINE
  8
0
 10
-223.390640
 20
83.974693
 11
-223.390640
 21
-0.025307
  0
LINE
  8
0
 10
-227.890640
 20
83.974693
 11
-227.890640
 21
-0.025307
  0
LINE
  8
0
 10
-209.890686
 20
82.974709
 11
-206.890686
 21
82.974709
  0
LINE
  8
0
 10
-214.390686
 20
82.974709
 11
-211.390686
 21
82.974709
  0
LINE
  8
0
 10
-218.890686
 20
82.974709
 11
-215.890686
 21
82.974709
  0
LINE
  8
0
 10
-223.390686
 20
82.974709
 11
-220.390686
 21
82.974709
  0
LINE
  8
0
 10
-223.390625
 20
0.974724
 11
-220.390625
 21
0.974724
  0
LINE
  8
0
 10
-218.890625
 20
0.974724
 11
-215.890625
 21
0.974724
  0
LINE
  8
0
 10
-214.390625
 20
0.974724
 11
-211.390625
 21
0.974724
  0
LINE
  8
0
 10
-209.890625
 20
0.974724
 11
-206.890625
 21
0.974724
  0
LINE
  8
0
 10
-203.890625
 20
14.974724
 11
-194.890625
 21
14.974724
  0
LINE
  8
0
 10
-195.890640
 20
5.737114
 11
-202.890625
 21
5.737114
  0
LINE
  8
0
 10
-195.890640
 20
5.737114
 11
-195.890640
 21
24.212318
  0
LINE
  8
0
 10
-195.890640
 20
24.212318
 11
-202.890625
 21
24.212318
  0
LINE
  8
0
 10
-229.890640
 20
90.674622
 11
-202.890640
 21
90.674622
  0
LINE
  8
0
 10
-229.890640
 20
-6.325348
 11
-202.890640
 21
-6.325348
  0
LINE
  8
0
 10
-202.890640
 20
19.793411
 11
-195.890640
 21
19.793411
  0
LINE
  8
0
 10
-202.890640
 20
10.555817
 11
-195.890640
 21
10.555817
  0
POINT
  8
0
 10
-64.890656
 20
-7.025276
  0
POINT
  8
0
 10
-45.890656
 20
-7.025276
  0
LINE
  8
0
 10
-63.890656
 20
14.974724
 11
-46.890656
 21
14.974724
  0
LINE
  8
0
 10
-64.890656
 20
-7.025276
 11
-45.890656
 21
-7.025276
  0
LINE
  8
0
 10
-64.890656
 20
90.974709
 11
-45.890656
 21
90.974709
  0
LINE
  8
0
 10
-55.390640
 20
92.974709
 11
-55.390640
 21
-9.025276
  0
LINE
  8
0
 10
-45.890656
 20
90.974709
 11
-45.890656
 21
-7.025276
  0
LINE
  8
0
 10
-63.390656
 20
19.593533
 11
-55.390652
 21
24.212337
  0
LINE
  8
0
 10
-63.390625
 20
19.593513
 11
-63.390625
 21
10.355919
  0
LINE
  8
0
 10
-55.390633
 20
24.212345
 11
-47.390629
 21
19.593542
  0
LINE
  8
0
 10
-47.390625
 20
19.593513
 11
-47.390625
 21
10.355919
  0
LINE
  8
0
 10
-55.390602
 20
5.737109
 11
-47.390598
 21
10.355913
  0
LINE
  8
0
 10
-63.390606
 20
10.355911
 11
-55.390614
 21
5.737114
  0
LINE
  8
0
 10
-61.890640
 20
26.474716
 11
-48.890640
 21
26.474716
  0
LINE
  8
0
 10
-61.890640
 20
32.474716
 11
-48.890640
 21
32.474716
  0
LINE
  8
0
 10
-61.890640
 20
39.974716
 11
-48.890640
 21
39.974716
  0
LINE
  8
0
 10
-61.890640
 20
47.474716
 11
-48.890640
 21
47.474716
  0
LINE
  8
0
 10
-61.890640
 20
54.974716
 11
-48.890640
 21
54.974716
  0
LINE
  8
0
 10
-61.890640
 20
62.474709
 11
-48.890640
 21
62.474709
  0
LINE
  8
0
 10
-61.890640
 20
69.974709
 11
-48.890640
 21
69.974709
  0
LINE
  8
0
 10
-61.890640
 20
77.474709
 11
-48.890640
 21
77.474709
  0
LINE
  8
0
 10
-58.518356
 20
83.974709
 11
-52.262924
 21
83.974709
  0
LINE
  8
0
 10
-61.890640
 20
31.474716
 11
-48.890640
 21
31.474716
  0
LINE
  8
0
 10
-61.890640
 20
38.974716
 11
-48.890640
 21
38.974716
  0
LINE
  8
0
 10
-61.890640
 20
46.474716
 11
-48.890640
 21
46.474716
  0
LINE
  8
0
 10
-61.890640
 20
53.974716
 11
-48.890640
 21
53.974716
  0
LINE
  8
0
 10
-61.890640
 20
61.474709
 11
-48.890640
 21
61.474709
  0
LINE
  8
0
 10
-61.890640
 20
68.974709
 11
-48.890640
 21
68.974709
  0
LINE
  8
0
 10
-61.890640
 20
76.474709
 11
-48.890640
 21
76.474709
  0
LINE
  8
0
 10
-48.890640
 20
82.510612
 11
-48.890640
 21
77.474709
  0
LINE
  8
0
 10
-61.890640
 20
82.510612
 11
-61.890640
 21
77.474709
  0
LINE
  8
0
 10
-61.890640
 20
31.474716
 11
-61.890640
 21
26.474716
  0
LINE
  8
0
 10
-61.890640
 20
38.974716
 11
-61.890640
 21
32.474716
  0
LINE
  8
0
 10
-48.890640
 20
31.474716
 11
-48.890640
 21
26.474716
  0
LINE
  8
0
 10
-48.890640
 20
38.974716
 11
-48.890640
 21
32.474716
  0
LINE
  8
0
 10
-61.890640
 20
46.474716
 11
-61.890640
 21
39.974716
  0
LINE
  8
0
 10
-48.890640
 20
46.474716
 11
-48.890640
 21
39.974716
  0
LINE
  8
0
 10
-61.890640
 20
53.974716
 11
-61.890640
 21
47.474716
  0
LINE
  8
0
 10
-48.890640
 20
53.974716
 11
-48.890640
 21
47.474716
  0
LINE
  8
0
 10
-61.890640
 20
61.474709
 11
-61.890640
 21
54.974716
  0
LINE
  8
0
 10
-48.890640
 20
61.474709
 11
-48.890640
 21
54.974716
  0
LINE
  8
0
 10
-61.890640
 20
68.974709
 11
-61.890640
 21
62.474709
  0
LINE
  8
0
 10
-48.890640
 20
68.974709
 11
-48.890640
 21
62.474709
  0
LINE
  8
0
 10
-61.890640
 20
76.474709
 11
-61.890640
 21
69.974709
  0
LINE
  8
0
 10
-48.890640
 20
76.474709
 11
-48.890640
 21
69.974709
  0
LINE
  8
0
 10
-62.557320
 20
87.141510
 11
-60.223843
 21
84.808029
  0
LINE
  8
0
 10
-62.557320
 20
84.808044
 11
-60.223854
 21
87.141510
  0
LINE
  8
0
 10
-50.557373
 20
87.141457
 11
-48.223892
 21
84.807976
  0
LINE
  8
0
 10
-50.557373
 20
84.807983
 11
-48.223907
 21
87.141449
  0
LINE
  8
0
 10
-62.557381
 20
-0.858536
 11
-60.223904
 21
-3.192015
  0
LINE
  8
0
 10
-62.557373
 20
-3.192014
 11
-60.223907
 21
-0.858552
  0
LINE
  8
0
 10
-50.557381
 20
-0.858537
 11
-48.223900
 21
-3.192015
  0
LINE
  8
0
 10
-50.557369
 20
-3.192013
 11
-48.223907
 21
-0.858550
  0
LINE
  8
0
 10
-64.890656
 20
-6.525284
 11
-45.890656
 21
-6.525284
  0
LINE
  8
0
 10
-64.890656
 20
90.474716
 11
-45.890656
 21
90.474716
  0
CIRCLE
  8
0
 10
-55.390640
 20
14.974724
 40
8.000000
  0
CIRCLE
  8
0
 10
-55.390640
 20
14.974724
 40
3.750000
  0
ARC
  8
0
 10
-61.390640
 20
85.974709
 40
3.500002
 50
261.786804
 51
325.150085
  0
ARC
  8
0
 10
-49.390640
 20
85.974709
 40
3.499999
 50
214.849915
 51
278.213196
  0
CIRCLE
  8
0
 10
-61.390640
 20
85.974709
 40
3.000000
  0
CIRCLE
  8
0
 10
-49.390640
 20
85.974709
 40
3.000000
  0
CIRCLE
  8
0
 10
-61.390640
 20
-2.025276
 40
3.000000
  0
CIRCLE
  8
0
 10
-49.390640
 20
-2.025276
 40
3.000000
  0
TEXT
  8
0
 10
-57.197655
 20
1.594724
 40
3.200000
  1
P
 50
0.000000
 41
1.052632
 51
0.000000
  7
STANDARD
  0
POINT
  8
0
 10
207.592651
 20
-79.325378
  0
POINT
  8
0
 10
188.592651
 20
-79.325378
  0
LINE
  8
0
 10
189.092667
 20
-51.325378
 11
207.092667
 21
-51.325378
  0
LINE
  8
0
 10
189.092667
 20
-51.325378
 11
189.092667
 21
-78.325378
  0
LINE
  8
0
 10
207.092667
 20
-51.325378
 11
207.092667
 21
-78.325378
  0
LINE
  8
0
 10
198.092651
 20
-49.325378
 11
198.092651
 21
-107.825378
  0
LINE
  8
0
 10
207.592651
 20
-78.325378
 11
207.592651
 21
-106.325378
  0
LINE
  8
0
 10
207.592651
 20
-106.325378
 11
188.592651
 21
-106.325378
  0
LINE
  8
0
 10
207.592651
 20
-78.325378
 11
188.592651
 21
-78.325378
  0
LINE
  8
0
 10
207.592651
 20
-79.325378
 11
188.592651
 21
-79.325378
  0
LINE
  8
0
 10
188.592651
 20
-78.325378
 11
188.592651
 21
-79.325378
  0
POINT
  8
0
 10
70.592667
 20
-6.825378
  0
POINT
  8
0
 10
90.592667
 20
-6.825333
  0
LINE
  8
0
 10
97.592445
 20
90.674706
 11
97.592667
 21
-6.325294
  0
LINE
  8
0
 10
70.592667
 20
-6.325378
 11
97.592682
 21
-6.325316
  0
LINE
  8
0
 10
97.592445
 20
90.674706
 11
70.592445
 21
90.674644
  0
ENDSEC
  0
EOF
