  0
SECTION
  2
HEADER
  0
ENDSEC
  0
SECTION
  2
TABLES
  0
TABLE
  2
LTYPE
 70
     4
  0
LTYPE
  2
CONTINUOUS
 70
    64
  3
Solid line
 72
    65
 73
     0
 40
0.000000
  0
LTYPE
  2
DASHED
 70
    64
  3
__ __ __ __ __ __ __ __ __ __ __ __ __ __ __
 72
    65
 73
     2
 40
3.500000
 49
2.000000
 49
-1.500000
  0
LTYPE
  2
CENTER
 70
    64
  3
____ _ ____ _ ____ _ ____ _ ____ _ ____ _ ____
 72
    65
 73
     4
 40
17.500000
 49
13.000000
 49
-1.500000
 49
1.500000
 49
-1.500000
  0
LTYPE
  2
PHANTOM
 70
    64
  3
_____ _ _ _____ _ _ _____ _ _ _____ _ _ ____  
 72
    65
 73
     6
 40
15.500000
 49
8.000000
 49
-1.500000
 49
1.500000
 49
-1.500000
 49
1.500000
 49
-1.500000
  0
LTYPE
  2
DASHED1
 70
    64
  3
__ __ __ __ __ __ __ __ __ __ __ __ __ __ __
 72
    65
 73
     2
 40
1.500000
 49
1.000000
 49
-0.500000
  0
LTYPE
  2
DASHED2
 70
    64
  3
__ __ __ __ __ __ __ __ __ __ __ __ __ __ __
 72
    65
 73
     2
 40
3.500000
 49
2.500000
 49
-1.000000
  0
LTYPE
  2
DASHED3
 70
    64
  3
__ __ __ __ __ __ __ __ __ __ __ __ __ __ __
 72
    65
 73
     2
 40
6.000000
 49
4.000000
 49
-2.000000
  0
LTYPE
  2
DASHED4
 70
    64
  3
__ __ __ __ __ __ __ __ __ __ __ __ __ __ __
 72
    65
 73
     2
 40
12.000000
 49
10.000000
 49
-2.000000
  0
LTYPE
  2
DASHED5
 70
    64
  3
__ __ __ __ __ __ __ __ __ __ __ __ __ __ __
 72
    65
 73
     2
 40
17.000000
 49
15.000000
 49
-2.000000
  0
LTYPE
  2
DASHED6
 70
    64
  3
__ __ __ __ __ __ __ __ __ __ __ __ __ __ __
 72
    65
 73
     2
 40
29.000000
 49
27.000000
 49
-2.000000
  0
LTYPE
  2
PHANTOM1
 70
    64
  3
_____ _ _ _____ _ _ _____ _ _ _____ _ _ ____  
 72
    65
 73
     6
 40
31.000000
 49
25.000000
 49
-1.500000
 49
1.000000
 49
-1.000000
 49
1.000000
 49
-1.500000
  0
LTYPE
  2
PHANTOM2
 70
    64
  3
_____ _ _ _____ _ _ _____ _ _ _____ _ _ ____  
 72
    65
 73
     6
 40
36.000000
 49
27.000000
 49
-1.500000
 49
2.500000
 49
-1.000000
 49
2.500000
 49
-1.500000
  0
LTYPE
  2
PHANTOM3
 70
    64
  3
_____ _ _ _____ _ _ _____ _ _ _____ _ _ ____  
 72
    65
 73
     6
 40
78.000000
 49
64.000000
 49
-2.000000
 49
4.000000
 49
-2.000000
 49
4.000000
 49
-2.000000
  0
LTYPE
  2
CENTER1
 70
    64
  3
____ _ ____ _ ____ _ ____ _ ____ _ ____ _ ____
 72
    65
 73
     4
 40
19.000000
 49
14.000000
 49
-1.000000
 49
3.000000
 49
-1.000000
  0
LTYPE
  2
CENTER2
 70
    64
  3
____ _ ____ _ ____ _ ____ _ ____ _ ____ _ ____
 72
    65
 73
     4
 40
28.500000
 49
25.000000
 49
-1.000000
 49
1.500000
 49
-1.000000
  0
LTYPE
  2
CENTER3
 70
    64
  3
____ _ ____ _ ____ _ ____ _ ____ _ ____ _ ____
 72
    65
 73
     4
 40
31.500000
 49
27.000000
 49
-1.000000
 49
2.500000
 49
-1.000000
  0
LTYPE
  2
CENTER4
 70
    64
  3
____ _ ____ _ ____ _ ____ _ ____ _ ____ _ ____
 72
    65
 73
     4
 40
50.000000
 49
45.000000
 49
-1.000000
 49
3.000000
 49
-1.000000
  0
LTYPE
  2
CENTER5
 70
    64
  3
____ _ ____ _ ____ _ ____ _ ____ _ ____ _ ____
 72
    65
 73
     4
 40
100.000000
 49
92.000000
 49
-2.000000
 49
4.000000
 49
-2.000000
  0
LTYPE
  2
SBK1
 70
    64
  3
______ _ _ _ ______ _ _ _ ______ _ _ _ _____  
 72
    65
 73
     8
 40
60.500000
 49
45.000000
 49
-2.000000
 49
2.500000
 49
-2.000000
 49
2.500000
 49
-2.000000
 49
2.500000
 49
-2.000000
  0
LTYPE
  2
SBK2
 70
    64
  3
______ _ _ _ ______ _ _ _ ______ _ _ _ _____  
 72
    65
 73
     8
 40
84.000000
 49
64.000000
 49
-2.000000
 49
4.000000
 49
-2.000000
 49
4.000000
 49
-2.000000
 49
4.000000
 49
-2.000000
  0
LTYPE
  2
STCH
 70
    64
  3
__ __ __ __ __ __ __ __ __ __ __ __ __ __ __
 72
    65
 73
     2
 40
3.000000
 49
1.000000
 49
-2.000000
  0
LTYPE
  2
MTCH
 70
    64
  3
_____ _ _ _____ _ _ _____ _ _ _____ _ _ ____  
 72
    65
 73
     6
 40
80.000000
 49
66.000000
 49
-2.000000
 49
4.000000
 49
-2.000000
 49
4.000000
 49
-2.000000
  0
ENDTAB
  0
TABLE
  2
LAYER
 70
     1
  0
LAYER
  2
0
 70
     0
 62
     7
  6
CONTINUOUS
  0
ENDTAB
  0
TABLE
  2
STYLE
 70
     1
  0
STYLE
  2
STANDARD
 70
     0
 40
0.000000
 41
1.000000
 50
0.000000
 71
     0
 42
0.200000
  3
txt
  4
BIGFONT
  0
ENDTAB
  0
TABLE
  2
VIEW
 70
     0
  0
ENDTAB
  0
ENDSEC
  0
SECTION
  2
BLOCKS
  0
ENDSEC
  0
SECTION
  2
ENTITIES
  0
LINE
  8
0
 10
399.799988
 20
276.250000
 11
399.799988
 21
-276.750000
  0
LINE
  8
0
 10
200.037491
 20
-0.250000
 11
200.037491
 21
-276.750000
  0
LINE
  8
0
 10
-399.250000
 20
276.250000
 11
399.799988
 21
276.250000
  0
LINE
  8
0
 10
-399.250000
 20
-276.750000
 11
399.799988
 21
-276.750000
  0
LINE
  8
0
 10
200.037491
 20
-251.750000
 11
399.799988
 21
-251.750000
  0
LINE
  8
0
 10
239.799988
 20
251.250000
 11
399.799988
 21
251.250000
  0
LINE
  8
0
 10
-399.250000
 20
251.250000
 11
-239.250000
 21
251.250000
  0
LINE
  8
0
 10
239.799988
 20
-251.750000
 11
239.799988
 21
-276.750000
  0
LINE
  8
0
 10
239.799988
 20
251.250000
 11
239.799988
 21
276.250000
  0
LINE
  8
0
 10
-239.250000
 20
276.250000
 11
-239.250000
 21
251.250000
  0
LINE
  8
0
  6
PHANTOM
 62
     2
 10
-348.250000
 20
-139.514832
 11
-348.250000
 21
-41.514832
  0
LINE
  8
0
  6
PHANTOM
 62
     2
 10
-348.250000
 20
-139.514832
 11
-375.250000
 21
-139.514832
  0
LINE
  8
0
  6
PHANTOM
 62
     2
 10
-348.250000
 20
-41.514832
 11
-375.250000
 21
-41.514832
  0
LINE
  8
0
  6
PHANTOM
 62
     2
 10
-375.250000
 20
-139.514847
 11
-375.250000
 21
-41.514832
  0
LINE
  8
0
  6
PHANTOM
 62
     2
 10
245.403931
 20
-121.514847
 11
245.403931
 21
-23.514832
  0
LINE
  8
0
  6
PHANTOM
 62
     2
 10
245.403992
 20
-121.514832
 11
218.403961
 21
-121.514832
  0
LINE
  8
0
  6
PHANTOM
 62
     2
 10
245.403961
 20
-23.514832
 11
218.403961
 21
-23.514832
  0
LINE
  8
0
  6
PHANTOM
 62
     2
 10
218.403931
 20
-121.514832
 11
218.403931
 21
-23.514847
  0
LINE
  8
0
  6
PHANTOM
 62
     2
 10
-143.371002
 20
-116.514847
 11
-143.371002
 21
-18.514832
  0
LINE
  8
0
  6
PHANTOM
 62
     2
 10
-143.370987
 20
-116.514832
 11
-170.371002
 21
-116.514832
  0
LINE
  8
0
  6
PHANTOM
 62
     2
 10
-143.371002
 20
-18.514832
 11
-170.371002
 21
-18.514832
  0
LINE
  8
0
  6
PHANTOM
 62
     2
 10
-170.371002
 20
-116.514832
 11
-170.371002
 21
-18.514847
  0
LINE
  8
0
  6
PHANTOM
 62
     2
 10
43.766468
 20
-116.514847
 11
43.766468
 21
-18.514832
  0
LINE
  8
0
  6
PHANTOM
 62
     2
 10
43.766468
 20
-116.514832
 11
16.766468
 21
-116.514832
  0
LINE
  8
0
  6
PHANTOM
 62
     2
 10
43.766468
 20
-18.514832
 11
16.766468
 21
-18.514832
  0
LINE
  8
0
  6
PHANTOM
 62
     2
 10
16.766468
 20
-116.514832
 11
16.766468
 21
-18.514847
  0
LINE
  8
0
 10
-399.250000
 20
-0.250000
 11
399.799988
 21
-0.250000
  0
LINE
  8
0
 10
-399.250000
 20
276.250000
 11
-399.250000
 21
-276.750000
  0
LINE
  8
0
 10
-199.487503
 20
-0.250000
 11
-199.487503
 21
-276.750000
  0
LINE
  8
0
 10
0.274994
 20
276.250000
 11
0.274994
 21
-276.750000
  0
LINE
  8
0
  6
PHANTOM
 62
     2
 10
-269.453247
 20
147.659119
 11
-296.453247
 21
147.659119
  0
LINE
  8
0
  6
PHANTOM
 62
     2
 10
-269.453247
 20
245.659119
 11
-296.453247
 21
245.659119
  0
LINE
  8
0
  6
PHANTOM
 62
     2
 10
-269.453247
 20
147.659119
 11
-269.453247
 21
245.659119
  0
LINE
  8
0
  6
PHANTOM
 62
     2
 10
-296.453247
 20
147.659119
 11
-296.453247
 21
245.659119
  0
LINE
  8
0
  6
PHANTOM
 62
     2
 10
63.953266
 20
245.659119
 11
63.953266
 21
147.659119
  0
LINE
  8
0
 62
     4
 10
257.285522
 20
169.893753
 11
288.186249
 21
169.893753
  0
LINE
  8
0
 62
     4
 10
340.046753
 20
62.608307
 11
340.046753
 21
92.132042
  0
LINE
  8
0
 62
     4
 10
257.285522
 20
169.893753
 11
288.186249
 21
169.893753
  0
LINE
  8
0
 62
     4
 10
340.046753
 20
63.216629
 11
340.046753
 21
92.742981
  0
LINE
  8
0
  6
PHANTOM
 62
     2
 10
36.953266
 20
147.659119
 11
63.953266
 21
147.659119
  0
LINE
  8
0
  6
PHANTOM
 62
     2
 10
36.953266
 20
245.659119
 11
63.953266
 21
245.659119
  0
LINE
  8
0
  6
PHANTOM
 62
     2
 10
36.953266
 20
245.659119
 11
36.953266
 21
147.659119
  0
LINE
  8
0
 62
     4
 10
360.304382
 20
169.893753
 11
333.078796
 21
169.893753
  0
LINE
  8
0
 62
     2
 10
-399.250000
 20
14.750000
 11
399.799988
 21
14.750000
  0
LINE
  8
0
 62
     2
 10
-399.250000
 20
-261.750000
 11
200.037491
 21
-261.750000
  0
LINE
  8
0
 62
     2
 10
200.037491
 20
-236.750000
 11
399.799988
 21
-236.750000
  0
LINE
  8
0
 10
-170.237396
 20
147.659134
 11
-127.237396
 21
147.659134
  0
LINE
  8
0
  6
CENTER
 62
     2
 10
-157.737396
 20
164.659134
 11
-139.737366
 21
164.659134
  0
LINE
  8
0
 10
-168.737366
 20
187.659134
 11
-128.737381
 21
187.659134
  0
LINE
  8
0
  6
CENTER
 62
     2
 10
-148.737381
 20
251.659103
 11
-148.737381
 21
144.659103
  0
LINE
  8
0
 10
-169.737381
 20
179.659134
 11
-127.737366
 21
179.659134
  0
LINE
  8
0
 10
-127.737381
 20
179.659103
 11
-127.737381
 21
147.659103
  0
LINE
  8
0
 10
-169.737396
 20
179.659103
 11
-169.737396
 21
147.659103
  0
LINE
  8
0
 10
-168.737366
 20
187.659134
 11
-168.737366
 21
179.659103
  0
LINE
  8
0
 10
-128.737381
 20
187.659134
 11
-128.737381
 21
179.659103
  0
LINE
  8
0
 10
-127.237381
 20
245.659119
 11
-127.237381
 21
147.659119
  0
LINE
  8
0
 10
-170.237396
 20
245.659134
 11
-170.237396
 21
147.659134
  0
LINE
  8
0
 10
-170.237366
 20
245.659134
 11
-157.137390
 21
245.659134
  0
LINE
  8
0
 10
-140.337387
 20
245.659134
 11
-127.237366
 21
245.659134
  0
LINE
  8
0
 10
-140.337387
 20
248.659119
 11
-157.137390
 21
248.659119
  0
LINE
  8
0
 10
-166.587387
 20
234.159119
 11
-166.587387
 21
187.659134
  0
LINE
  8
0
 10
-130.887390
 20
234.159134
 11
-130.887390
 21
187.659134
  0
LINE
  8
0
 10
-157.137390
 20
248.659119
 11
-157.137390
 21
245.135803
  0
LINE
  8
0
 10
-140.337387
 20
248.659119
 11
-140.337387
 21
245.135803
  0
LINE
  8
0
 10
-144.737381
 20
230.659119
 11
-144.737381
 21
198.659134
  0
LINE
  8
0
 10
-152.737381
 20
230.659119
 11
-152.737381
 21
198.659134
  0
LINE
  8
0
 10
-146.237396
 20
232.159119
 11
-151.237396
 21
232.159119
  0
LINE
  8
0
 10
-146.237396
 20
197.159119
 11
-151.237396
 21
197.159119
  0
LINE
  8
0
 10
-141.737396
 20
242.159119
 11
-155.737396
 21
242.159119
  0
LINE
  8
0
 62
     4
 10
-153.340897
 20
145.989136
 11
-164.133774
 21
145.989136
  0
LINE
  8
0
 62
     4
 10
-152.128448
 20
146.689133
 11
-165.346207
 21
146.689133
  0
LINE
  8
0
 62
     4
 10
-165.346207
 20
146.689133
 11
-164.133774
 21
145.989136
  0
LINE
  8
0
 62
     4
 10
-165.346161
 20
146.689133
 11
-165.315857
 21
147.659119
  0
LINE
  8
0
 62
     1
 10
-164.505325
 20
146.203644
 11
-164.459839
 21
147.659119
  0
LINE
  8
0
 62
     4
 10
-152.128510
 20
146.689209
 11
-153.340942
 21
145.989212
  0
LINE
  8
0
 62
     1
 10
-152.969299
 20
146.203720
 11
-153.014786
 21
147.659149
  0
LINE
  8
0
 62
     4
 10
-152.128448
 20
146.689148
 11
-152.158768
 21
147.659134
  0
LINE
  8
0
  6
CENTER
 62
     2
 10
-158.737396
 20
150.159134
 11
-158.737396
 21
145.159134
  0
LINE
  8
0
 10
-269.453247
 20
187.659119
 11
-229.453247
 21
187.659119
  0
LINE
  8
0
  6
CENTER
 62
     2
 10
-249.453262
 20
251.659103
 11
-249.453262
 21
144.659088
  0
LINE
  8
0
 10
-229.453247
 20
187.659119
 11
-229.453247
 21
147.659119
  0
LINE
  8
0
  6
CENTER
 62
     2
 10
-231.934509
 20
164.659119
 11
-226.397629
 21
164.659119
  0
LINE
  8
0
 10
-269.453247
 20
147.659119
 11
-229.453262
 21
147.659119
  0
LINE
  8
0
 10
-241.053284
 20
248.659119
 11
-257.853271
 21
248.659119
  0
LINE
  8
0
 10
-267.303284
 20
234.159119
 11
-267.303284
 21
187.659134
  0
LINE
  8
0
 10
-231.603271
 20
234.159119
 11
-231.603271
 21
187.659134
  0
LINE
  8
0
 10
-257.853271
 20
248.659119
 11
-257.853271
 21
245.135803
  0
LINE
  8
0
 10
-241.053268
 20
248.659119
 11
-241.053268
 21
245.135803
  0
LINE
  8
0
 10
-242.453278
 20
242.159119
 11
-256.453278
 21
242.159119
  0
LINE
  8
0
 10
-229.453262
 20
179.659134
 11
-269.453247
 21
179.659134
  0
LINE
  8
0
 62
     4
 10
-272.056763
 20
145.989120
 11
-282.849640
 21
145.989120
  0
LINE
  8
0
 62
     4
 10
-270.844299
 20
146.689133
 11
-284.062073
 21
146.689133
  0
LINE
  8
0
 62
     4
 10
-284.062042
 20
146.689117
 11
-282.849609
 21
145.989120
  0
LINE
  8
0
 62
     4
 10
-284.061951
 20
146.689087
 11
-284.031647
 21
147.659088
  0
LINE
  8
0
 62
     1
 10
-283.221039
 20
146.203629
 11
-283.175537
 21
147.659103
  0
LINE
  8
0
 62
     4
 10
-270.844421
 20
146.689270
 11
-272.056824
 21
145.989288
  0
LINE
  8
0
 62
     1
 10
-271.685303
 20
146.203705
 11
-271.730774
 21
147.659134
  0
LINE
  8
0
 62
     4
 10
-270.844452
 20
146.689133
 11
-270.874786
 21
147.659119
  0
LINE
  8
0
  6
CENTER
 62
     2
 10
-277.453247
 20
150.159119
 11
-277.453247
 21
145.159119
  0
LINE
  8
0
 10
-170.237366
 20
34.234146
 11
-127.237366
 21
34.234146
  0
LINE
  8
0
  6
CENTER
 62
     2
 10
-148.737366
 20
104.789764
 11
-148.737366
 21
32.234146
  0
LINE
  8
0
 10
-127.237366
 20
61.234146
 11
-127.237366
 21
34.234146
  0
LINE
  8
0
 10
-170.237366
 20
61.234138
 11
-170.237366
 21
34.234138
  0
LINE
  8
0
  6
CENTER
 62
     2
 10
-167.237366
 20
53.234138
 11
-150.237366
 21
53.234138
  0
LINE
  8
0
  6
CENTER
 62
     2
 10
-158.737381
 20
63.289764
 11
-158.737381
 21
44.734138
  0
LINE
  8
0
 10
-148.737366
 20
61.234138
 11
-148.737366
 21
34.234146
  0
LINE
  8
0
 10
-169.737381
 20
101.234131
 11
-127.737381
 21
101.234131
  0
LINE
  8
0
 10
-127.737366
 20
101.234146
 11
-127.737366
 21
61.234146
  0
LINE
  8
0
 10
-169.737366
 20
101.234138
 11
-169.737366
 21
61.234138
  0
LINE
  8
0
  6
CENTER
 62
     2
 10
-171.737381
 20
81.234131
 11
-125.737381
 21
81.234131
  0
LINE
  8
0
 10
-170.237381
 20
61.234138
 11
-127.237381
 21
61.234138
  0
LINE
  8
0
 10
-148.737366
 20
42.234146
 11
-148.737366
 21
34.234146
  0
LINE
  8
0
 62
     4
 10
-161.237411
 20
54.677547
 11
-158.737411
 21
56.120922
  0
LINE
  8
0
 62
     4
 10
-158.737427
 20
50.347404
 11
-156.237427
 21
51.790779
  0
LINE
  8
0
 62
     4
 10
-161.237396
 20
54.677525
 11
-161.237396
 21
51.790764
  0
LINE
  8
0
 62
     4
 10
-156.237396
 20
54.677517
 11
-156.237396
 21
51.790764
  0
LINE
  8
0
 62
     4
 10
-161.237411
 20
51.790760
 11
-158.737411
 21
50.347385
  0
LINE
  8
0
 62
     4
 10
-158.737396
 20
56.120888
 11
-156.237396
 21
54.677513
  0
LINE
  8
0
 62
     4
 10
173.453247
 20
153.215759
 11
173.453247
 21
156.102509
  0
LINE
  8
0
 62
     4
 10
178.453247
 20
153.215759
 11
178.453247
 21
156.102509
  0
LINE
  8
0
 62
     4
 10
178.453278
 20
156.102448
 11
175.953262
 21
157.545837
  0
LINE
  8
0
 62
     4
 10
175.953232
 20
151.772415
 11
173.453232
 21
153.215790
  0
LINE
  8
0
 62
     4
 10
173.453125
 20
156.102768
 11
175.953125
 21
157.546143
  0
LINE
  8
0
 62
     4
 10
175.953079
 20
151.772614
 11
178.453079
 21
153.215988
  0
LINE
  8
0
 10
197.453262
 20
245.659134
 11
197.453262
 21
147.659134
  0
LINE
  8
0
 10
154.453262
 20
245.659119
 11
154.453262
 21
147.659134
  0
LINE
  8
0
 10
197.453262
 20
245.659119
 11
186.744125
 21
245.659119
  0
LINE
  8
0
 10
196.953262
 20
204.659134
 11
196.953262
 21
147.659134
  0
LINE
  8
0
 10
196.953262
 20
162.659119
 11
154.953262
 21
162.659119
  0
LINE
  8
0
  6
CENTER
 62
     2
 10
182.953262
 20
154.659119
 11
168.953262
 21
154.659119
  0
LINE
  8
0
 10
196.953262
 20
192.659119
 11
154.953262
 21
192.659119
  0
LINE
  8
0
  6
CENTER
 62
     2
 10
185.453262
 20
183.659119
 11
166.453262
 21
183.659119
  0
LINE
  8
0
 10
180.203262
 20
184.659119
 11
171.703262
 21
184.659119
  0
LINE
  8
0
 10
154.953262
 20
204.659119
 11
154.953262
 21
147.659134
  0
LINE
  8
0
 10
196.953262
 20
204.659119
 11
154.953247
 21
204.659119
  0
LINE
  8
0
 10
189.953262
 20
214.659119
 11
161.953262
 21
214.659119
  0
LINE
  8
0
 10
154.953247
 20
204.659119
 11
154.953247
 21
204.659119
  0
LINE
  8
0
 10
165.162323
 20
245.659119
 11
154.453247
 21
245.659119
  0
LINE
  8
0
 10
197.453262
 20
147.659134
 11
154.453262
 21
147.659134
  0
LINE
  8
0
  6
CENTER
 62
     2
 10
175.953262
 20
256.892456
 11
175.953262
 21
143.325790
  0
LINE
  8
0
 10
184.003250
 20
218.359116
 11
189.903244
 21
218.359116
  0
LINE
  8
0
 10
184.003265
 20
217.659134
 11
184.003265
 21
218.359131
  0
LINE
  8
0
 10
189.903259
 20
217.659134
 11
189.903259
 21
218.359131
  0
LINE
  8
0
 10
189.753265
 20
219.530960
 11
189.753265
 21
218.359131
  0
LINE
  8
0
 10
184.153259
 20
219.530960
 11
184.153259
 21
218.359131
  0
LINE
  8
0
 10
189.953262
 20
219.659134
 11
189.953262
 21
205.659134
  0
LINE
  8
0
 10
161.953262
 20
219.659119
 11
161.953262
 21
205.659119
  0
LINE
  8
0
 10
188.953262
 20
220.659119
 11
187.948227
 21
220.659119
  0
LINE
  8
0
 10
183.953262
 20
219.659134
 11
183.953262
 21
217.659134
  0
LINE
  8
0
 10
167.953262
 20
219.659119
 11
167.953262
 21
217.659119
  0
LINE
  8
0
 10
189.903259
 20
217.659119
 11
183.953262
 21
217.659119
  0
LINE
  8
0
 10
167.953262
 20
217.659119
 11
162.003250
 21
217.659119
  0
LINE
  8
0
 10
167.903275
 20
218.359116
 11
162.003265
 21
218.359116
  0
LINE
  8
0
 10
167.903259
 20
217.659119
 11
167.903259
 21
218.359131
  0
LINE
  8
0
 10
162.003265
 20
217.659119
 11
162.003265
 21
218.359131
  0
LINE
  8
0
 10
162.153259
 20
219.530945
 11
162.153259
 21
218.359131
  0
LINE
  8
0
 10
167.753265
 20
219.530945
 11
167.753265
 21
218.359131
  0
LINE
  8
0
 10
185.958267
 20
220.659119
 11
165.948242
 21
220.659119
  0
LINE
  8
0
 10
163.958282
 20
220.659119
 11
162.953262
 21
220.659119
  0
LINE
  8
0
 10
185.953262
 20
230.659119
 11
165.953262
 21
230.659119
  0
LINE
  8
0
 10
187.953262
 20
227.659134
 11
187.953262
 21
220.659134
  0
LINE
  8
0
 10
163.953262
 20
227.659119
 11
163.953262
 21
220.659119
  0
LINE
  8
0
 10
186.953262
 20
228.659119
 11
164.953262
 21
228.659119
  0
LINE
  8
0
 10
186.953262
 20
229.659134
 11
186.953262
 21
228.659134
  0
LINE
  8
0
 10
164.953262
 20
229.659119
 11
164.953262
 21
228.659119
  0
LINE
  8
0
 10
164.953232
 20
228.659103
 11
163.953232
 21
227.659103
  0
LINE
  8
0
 10
186.953171
 20
228.659058
 11
187.953171
 21
227.659058
  0
LINE
  8
0
 10
187.953247
 20
227.659119
 11
163.953262
 21
227.659119
  0
LINE
  8
0
 10
185.953217
 20
230.659073
 11
186.953217
 21
229.659073
  0
LINE
  8
0
 10
165.953247
 20
230.659103
 11
164.953247
 21
229.659103
  0
LINE
  8
0
 10
186.953247
 20
229.659119
 11
164.953262
 21
229.659119
  0
LINE
  8
0
 10
167.453262
 20
233.659134
 11
167.453262
 21
230.659119
  0
LINE
  8
0
 10
184.453262
 20
233.659149
 11
184.453262
 21
230.659134
  0
LINE
  8
0
 62
     2
 10
164.703262
 20
228.409119
 11
164.703262
 21
221.409119
  0
LINE
  8
0
 62
     2
 10
187.203262
 20
228.409134
 11
187.203262
 21
221.409134
  0
LINE
  8
0
 62
     2
 10
163.953217
 20
220.659195
 11
164.703232
 21
221.409210
  0
LINE
  8
0
 62
     2
 10
187.953217
 20
220.659073
 11
187.203217
 21
221.409073
  0
LINE
  8
0
 62
     2
 10
187.203262
 20
221.409119
 11
164.703262
 21
221.409119
  0
LINE
  8
0
 10
182.487976
 20
233.659149
 11
182.487976
 21
230.659134
  0
LINE
  8
0
 10
177.918549
 20
233.659134
 11
177.918549
 21
230.659119
  0
LINE
  8
0
 10
173.987976
 20
233.659134
 11
173.987976
 21
230.659119
  0
LINE
  8
0
 10
169.418549
 20
233.659134
 11
169.418549
 21
230.659119
  0
LINE
  8
0
 10
184.653259
 20
253.659134
 11
167.253250
 21
253.659134
  0
LINE
  8
0
 10
186.453262
 20
233.659134
 11
165.453247
 21
233.659134
  0
LINE
  8
0
 10
186.953278
 20
234.159088
 11
186.453293
 21
233.659103
  0
LINE
  8
0
 10
164.952972
 20
234.158844
 11
165.452972
 21
233.658844
  0
LINE
  8
0
 10
166.253265
 20
252.659134
 11
166.253265
 21
251.659134
  0
LINE
  8
0
 10
185.653259
 20
252.659149
 11
185.653259
 21
251.659149
  0
LINE
  8
0
 10
185.653366
 20
251.659241
 11
186.653366
 21
250.659241
  0
LINE
  8
0
 10
166.253235
 20
251.659103
 11
165.253235
 21
250.659103
  0
LINE
  8
0
 10
186.653091
 20
250.659119
 11
186.953094
 21
234.159119
  0
LINE
  8
0
 10
165.253174
 20
250.659103
 11
164.953171
 21
234.159088
  0
LINE
  8
0
 10
178.953094
 20
250.659073
 11
179.244598
 21
236.159073
  0
LINE
  8
0
 10
172.953064
 20
250.659088
 11
172.661560
 21
236.159073
  0
LINE
  8
0
 10
185.953247
 20
236.736465
 11
185.617081
 21
236.736465
  0
LINE
  8
0
 10
186.524216
 20
236.159119
 11
185.628677
 21
236.159119
  0
LINE
  8
0
 10
179.261917
 20
251.659088
 11
179.561920
 21
236.736450
  0
LINE
  8
0
 10
172.644211
 20
251.659073
 11
172.344223
 21
236.736435
  0
LINE
  8
0
 10
172.344406
 20
236.736465
 11
171.545425
 21
236.736465
  0
LINE
  8
0
 10
172.661728
 20
236.159119
 11
170.520493
 21
236.159119
  0
LINE
  8
0
 10
171.845291
 20
251.659134
 11
171.545288
 21
236.736450
  0
LINE
  8
0
 10
180.060928
 20
251.659103
 11
180.360931
 21
236.736435
  0
LINE
  8
0
 10
171.845428
 20
251.659134
 11
167.166000
 21
251.659134
  0
LINE
  8
0
 10
179.262100
 20
251.659134
 11
172.644394
 21
251.659134
  0
LINE
  8
0
 10
178.953232
 20
250.659134
 11
172.953232
 21
250.659134
  0
LINE
  8
0
 10
170.811996
 20
250.659134
 11
166.569321
 21
250.659134
  0
LINE
  8
0
 10
166.569168
 20
250.659103
 11
166.277664
 21
236.159103
  0
LINE
  8
0
 10
181.094345
 20
250.659088
 11
181.385849
 21
236.159073
  0
LINE
  8
0
 10
184.740540
 20
251.659134
 11
180.061081
 21
251.659134
  0
LINE
  8
0
 10
185.337189
 20
250.659134
 11
181.094513
 21
250.659134
  0
LINE
  8
0
 10
180.361084
 20
236.736465
 11
179.562088
 21
236.736465
  0
LINE
  8
0
 10
181.386017
 20
236.159119
 11
179.244736
 21
236.159119
  0
LINE
  8
0
 10
166.289429
 20
236.736465
 11
165.953247
 21
236.736465
  0
LINE
  8
0
 10
166.277817
 20
236.159119
 11
165.382309
 21
236.159119
  0
LINE
  8
0
 10
170.811813
 20
250.659088
 11
170.520309
 21
236.159088
  0
LINE
  8
0
 10
185.337021
 20
250.659119
 11
185.628525
 21
236.159119
  0
LINE
  8
0
 10
185.653091
 20
251.659103
 11
185.953094
 21
236.736450
  0
LINE
  8
0
 10
165.673645
 20
250.659119
 11
165.382141
 21
236.159088
  0
LINE
  8
0
 10
166.253098
 20
251.659088
 11
165.953094
 21
236.736450
  0
LINE
  8
0
 10
186.232529
 20
250.659088
 11
186.524033
 21
236.159073
  0
LINE
  8
0
 10
165.673828
 20
250.659195
 11
166.253281
 21
251.659210
  0
LINE
  8
0
 10
167.166016
 20
251.659180
 11
166.569336
 21
250.659180
  0
LINE
  8
0
 10
171.845413
 20
251.659119
 11
170.811981
 21
250.659119
  0
LINE
  8
0
 10
172.644623
 20
251.659225
 11
172.953461
 21
250.659225
  0
LINE
  8
0
 10
179.261902
 20
251.659119
 11
178.953049
 21
250.659134
  0
LINE
  8
0
 10
180.061096
 20
251.659134
 11
181.094528
 21
250.659134
  0
LINE
  8
0
 10
184.740631
 20
251.659164
 11
185.337265
 21
250.659164
  0
LINE
  8
0
 10
186.232712
 20
250.659088
 11
185.653259
 21
251.659103
  0
LINE
  8
0
 10
185.953278
 20
236.736542
 11
186.524246
 21
236.159180
  0
LINE
  8
0
 10
180.361221
 20
236.736740
 11
181.386139
 21
236.159393
  0
LINE
  8
0
 10
179.244781
 20
236.159119
 11
179.562134
 21
236.736465
  0
LINE
  8
0
 10
172.344421
 20
236.736511
 11
172.661758
 21
236.159164
  0
LINE
  8
0
 10
171.545395
 20
236.736511
 11
170.520462
 21
236.159164
  0
LINE
  8
0
 10
165.953262
 20
236.736526
 11
165.382324
 21
236.159180
  0
LINE
  8
0
 10
186.953247
 20
234.159119
 11
164.953262
 21
234.159119
  0
LINE
  8
0
 62
     4
 10
169.349747
 20
145.989136
 11
158.556885
 21
145.989136
  0
LINE
  8
0
 62
     4
 10
170.562195
 20
146.689133
 11
157.344452
 21
146.689133
  0
LINE
  8
0
 62
     4
 10
157.344437
 20
146.689102
 11
158.556870
 21
145.989105
  0
LINE
  8
0
 62
     4
 10
157.344406
 20
146.689117
 11
157.374725
 21
147.659119
  0
LINE
  8
0
 62
     1
 10
158.185211
 20
146.203690
 11
158.230682
 21
147.659149
  0
LINE
  8
0
 62
     4
 10
170.562225
 20
146.689117
 11
169.349777
 21
145.989120
  0
LINE
  8
0
 62
     1
 10
169.721436
 20
146.203690
 11
169.675949
 21
147.659119
  0
LINE
  8
0
 62
     4
 10
170.562256
 20
146.689133
 11
170.531952
 21
147.659134
  0
LINE
  8
0
  6
CENTER
 62
     2
 10
163.953262
 20
150.159134
 11
163.953262
 21
142.992462
  0
LINE
  8
0
  6
CENTER
 62
     2
 10
88.953262
 20
256.892456
 11
88.953262
 21
200.659119
  0
LINE
  8
0
 10
97.003242
 20
218.359116
 11
102.903244
 21
218.359116
  0
LINE
  8
0
 10
97.003265
 20
217.659119
 11
97.003265
 21
218.359131
  0
LINE
  8
0
 10
102.903259
 20
217.659119
 11
102.903259
 21
218.359131
  0
LINE
  8
0
 10
102.753265
 20
219.530945
 11
102.753265
 21
218.359131
  0
LINE
  8
0
 10
97.153259
 20
219.530945
 11
97.153259
 21
218.359131
  0
LINE
  8
0
 10
101.953255
 20
220.659119
 11
100.948227
 21
220.659119
  0
LINE
  8
0
 10
96.953262
 20
219.659119
 11
96.953262
 21
217.659119
  0
LINE
  8
0
 10
80.953262
 20
219.659119
 11
80.953262
 21
217.659119
  0
LINE
  8
0
 10
102.903259
 20
217.659119
 11
96.953255
 21
217.659119
  0
LINE
  8
0
 10
80.953262
 20
217.659119
 11
75.003258
 21
217.659119
  0
LINE
  8
0
 10
80.903275
 20
218.359116
 11
75.003265
 21
218.359116
  0
LINE
  8
0
 10
80.903267
 20
217.659119
 11
80.903267
 21
218.359131
  0
LINE
  8
0
 10
75.003265
 20
217.659119
 11
75.003265
 21
218.359131
  0
LINE
  8
0
 10
75.153267
 20
219.530945
 11
75.153267
 21
218.359131
  0
LINE
  8
0
 10
80.753265
 20
219.530945
 11
80.753265
 21
218.359131
  0
LINE
  8
0
 10
98.958267
 20
220.659119
 11
78.948250
 21
220.659119
  0
LINE
  8
0
 10
76.958290
 20
220.659119
 11
75.953262
 21
220.659119
  0
LINE
  8
0
 10
98.953255
 20
230.659119
 11
78.953262
 21
230.659119
  0
LINE
  8
0
 10
100.953262
 20
227.659119
 11
100.953262
 21
220.659119
  0
LINE
  8
0
 10
76.953262
 20
227.659119
 11
76.953262
 21
220.659119
  0
LINE
  8
0
 10
99.953255
 20
228.659119
 11
77.953262
 21
228.659119
  0
LINE
  8
0
 10
99.953262
 20
229.659119
 11
99.953262
 21
228.659119
  0
LINE
  8
0
 10
77.953262
 20
229.659119
 11
77.953262
 21
228.659119
  0
LINE
  8
0
 10
77.953262
 20
228.659073
 11
76.953270
 21
227.659088
  0
LINE
  8
0
 10
99.953171
 20
228.659042
 11
100.953178
 21
227.659042
  0
LINE
  8
0
 10
100.953255
 20
227.659119
 11
76.953262
 21
227.659119
  0
LINE
  8
0
 10
98.953247
 20
230.659103
 11
99.953247
 21
229.659103
  0
LINE
  8
0
 10
78.953278
 20
230.659088
 11
77.953278
 21
229.659088
  0
LINE
  8
0
 10
99.953255
 20
229.659119
 11
77.953262
 21
229.659119
  0
LINE
  8
0
 10
80.453262
 20
233.659134
 11
80.453262
 21
230.659119
  0
LINE
  8
0
 10
97.453262
 20
233.659134
 11
97.453262
 21
230.659119
  0
LINE
  8
0
 62
     2
 10
77.703262
 20
228.409119
 11
77.703262
 21
221.409119
  0
LINE
  8
0
 62
     2
 10
100.203262
 20
228.409119
 11
100.203262
 21
221.409119
  0
LINE
  8
0
 62
     2
 10
76.953140
 20
220.659286
 11
77.703148
 21
221.409286
  0
LINE
  8
0
 62
     2
 10
100.953194
 20
220.659058
 11
100.203201
 21
221.409042
  0
LINE
  8
0
 62
     2
 10
100.203255
 20
221.409119
 11
77.703262
 21
221.409119
  0
LINE
  8
0
 10
95.487976
 20
233.659134
 11
95.487976
 21
230.659119
  0
LINE
  8
0
 10
90.918549
 20
233.659134
 11
90.918549
 21
230.659119
  0
LINE
  8
0
 10
86.987976
 20
233.659134
 11
86.987976
 21
230.659119
  0
LINE
  8
0
 10
82.418549
 20
233.659134
 11
82.418549
 21
230.659119
  0
LINE
  8
0
 10
108.953262
 20
147.659134
 11
63.953266
 21
147.659134
  0
LINE
  8
0
 10
108.953262
 20
204.659119
 11
108.953262
 21
147.659134
  0
LINE
  8
0
  6
CENTER
 62
     2
 10
113.953262
 20
183.659119
 11
104.953262
 21
183.659119
  0
LINE
  8
0
 10
102.953255
 20
214.659119
 11
74.953262
 21
214.659119
  0
LINE
  8
0
 10
74.953262
 20
219.659119
 11
74.953262
 21
205.659119
  0
LINE
  8
0
 10
102.953262
 20
219.659119
 11
102.953262
 21
205.659119
  0
LINE
  8
0
 10
97.653252
 20
253.659134
 11
80.253250
 21
253.659134
  0
LINE
  8
0
 10
99.453262
 20
233.659134
 11
78.453255
 21
233.659134
  0
LINE
  8
0
 10
99.953377
 20
234.158997
 11
99.453377
 21
233.658997
  0
LINE
  8
0
 10
77.953049
 20
234.158905
 11
78.453056
 21
233.658890
  0
LINE
  8
0
 10
79.253265
 20
252.659134
 11
79.253265
 21
251.659134
  0
LINE
  8
0
 10
98.653259
 20
252.659134
 11
98.653259
 21
251.659134
  0
LINE
  8
0
 10
98.653336
 20
251.659225
 11
99.653336
 21
250.659225
  0
LINE
  8
0
 10
79.253273
 20
251.659088
 11
78.253273
 21
250.659088
  0
LINE
  8
0
 10
99.653183
 20
250.659119
 11
99.953186
 21
234.159119
  0
LINE
  8
0
 10
78.253242
 20
250.659088
 11
77.953239
 21
234.159058
  0
LINE
  8
0
 10
91.953178
 20
250.659103
 11
92.244682
 21
236.159103
  0
LINE
  8
0
 10
85.953171
 20
250.659103
 11
85.661674
 21
236.159088
  0
LINE
  8
0
 10
108.953255
 20
192.659119
 11
63.953262
 21
192.659119
  0
LINE
  8
0
 10
98.953247
 20
236.736465
 11
98.617081
 21
236.736465
  0
LINE
  8
0
 10
99.524216
 20
236.159119
 11
98.628685
 21
236.159119
  0
LINE
  8
0
 10
92.262032
 20
251.659119
 11
92.562027
 21
236.736465
  0
LINE
  8
0
 10
85.644348
 20
251.659119
 11
85.344345
 21
236.736481
  0
LINE
  8
0
 10
85.344406
 20
236.736465
 11
84.545425
 21
236.736465
  0
LINE
  8
0
 10
85.661743
 20
236.159119
 11
83.520493
 21
236.159119
  0
LINE
  8
0
 10
84.845375
 20
251.659073
 11
84.545372
 21
236.736420
  0
LINE
  8
0
 10
93.061020
 20
251.659073
 11
93.361023
 21
236.736435
  0
LINE
  8
0
 10
84.845428
 20
251.659134
 11
80.166000
 21
251.659134
  0
LINE
  8
0
 10
92.262100
 20
251.659134
 11
85.644409
 21
251.659134
  0
LINE
  8
0
 10
91.953232
 20
250.659134
 11
85.953247
 21
250.659134
  0
LINE
  8
0
 10
83.811996
 20
250.659134
 11
79.569336
 21
250.659134
  0
LINE
  8
0
 10
79.569290
 20
250.659073
 11
79.277794
 21
236.159058
  0
LINE
  8
0
 10
94.094437
 20
250.659119
 11
94.385941
 21
236.159103
  0
LINE
  8
0
 10
97.740540
 20
251.659134
 11
93.061081
 21
251.659134
  0
LINE
  8
0
 10
98.337181
 20
250.659134
 11
94.094513
 21
250.659134
  0
LINE
  8
0
 10
93.361084
 20
236.736465
 11
92.562088
 21
236.736465
  0
LINE
  8
0
 10
94.386017
 20
236.159119
 11
92.244736
 21
236.159119
  0
LINE
  8
0
 10
79.289436
 20
236.736465
 11
78.953247
 21
236.736465
  0
LINE
  8
0
 10
79.277832
 20
236.159119
 11
78.382309
 21
236.159119
  0
LINE
  8
0
 10
83.811943
 20
250.659103
 11
83.520439
 21
236.159088
  0
LINE
  8
0
 10
98.337105
 20
250.659088
 11
98.628609
 21
236.159088
  0
LINE
  8
0
 10
98.653168
 20
251.659119
 11
98.953163
 21
236.736481
  0
LINE
  8
0
 10
78.673775
 20
250.659103
 11
78.382271
 21
236.159088
  0
LINE
  8
0
 10
79.253204
 20
251.659134
 11
78.953201
 21
236.736465
  0
LINE
  8
0
 10
99.232620
 20
250.659073
 11
99.524124
 21
236.159073
  0
LINE
  8
0
 10
78.673805
 20
250.659134
 11
79.253258
 21
251.659149
  0
LINE
  8
0
 10
80.165863
 20
251.659256
 11
79.569191
 21
250.659256
  0
LINE
  8
0
 10
84.845428
 20
251.659088
 11
83.811996
 21
250.659088
  0
LINE
  8
0
 10
85.644539
 20
251.659210
 11
85.953377
 21
250.659210
  0
LINE
  8
0
 10
92.262123
 20
251.659088
 11
91.953255
 21
250.659073
  0
LINE
  8
0
 10
93.061127
 20
251.659119
 11
94.094543
 21
250.659119
  0
LINE
  8
0
 10
97.740616
 20
251.659180
 11
98.337257
 21
250.659180
  0
LINE
  8
0
 10
99.232704
 20
250.659103
 11
98.653252
 21
251.659119
  0
LINE
  8
0
 10
98.953308
 20
236.736511
 11
99.524277
 21
236.159149
  0
LINE
  8
0
 10
93.361214
 20
236.736694
 11
94.386147
 21
236.159348
  0
LINE
  8
0
 10
92.244705
 20
236.159180
 11
92.562057
 21
236.736526
  0
LINE
  8
0
 10
85.344437
 20
236.736481
 11
85.661774
 21
236.159119
  0
LINE
  8
0
 10
84.545425
 20
236.736542
 11
83.520493
 21
236.159195
  0
LINE
  8
0
 10
78.953217
 20
236.736572
 11
78.382278
 21
236.159210
  0
LINE
  8
0
 10
99.953247
 20
234.159119
 11
77.953262
 21
234.159119
  0
LINE
  8
0
 10
108.953262
 20
162.659119
 11
63.953266
 21
162.659119
  0
LINE
  8
0
 10
108.953262
 20
204.659119
 11
63.953262
 21
204.659119
  0
LINE
  8
0
 62
     4
 10
61.349758
 20
145.989136
 11
50.556881
 21
145.989136
  0
LINE
  8
0
 62
     4
 10
62.562199
 20
146.689133
 11
49.344448
 21
146.689133
  0
LINE
  8
0
 62
     4
 10
49.344448
 20
146.689117
 11
50.556877
 21
145.989120
  0
LINE
  8
0
 62
     4
 10
49.344456
 20
146.689133
 11
49.374767
 21
147.659134
  0
LINE
  8
0
 62
     1
 10
50.185284
 20
146.203659
 11
50.230766
 21
147.659103
  0
LINE
  8
0
 62
     4
 10
62.562176
 20
146.689163
 11
61.349747
 21
145.989166
  0
LINE
  8
0
 62
     1
 10
61.721413
 20
146.203690
 11
61.675930
 21
147.659119
  0
LINE
  8
0
 62
     4
 10
62.562214
 20
146.689133
 11
62.531898
 21
147.659134
  0
LINE
  8
0
  6
CENTER
 62
     2
 10
55.953266
 20
150.159119
 11
55.953266
 21
142.992462
  0
LINE
  8
0
 62
     4
 10
110.253265
 20
158.681870
 11
110.253265
 21
150.636154
  0
LINE
  8
0
 62
     4
 10
109.753265
 20
159.547897
 11
109.753265
 21
149.770126
  0
LINE
  8
0
 62
     4
 10
108.953278
 20
159.522995
 11
109.753273
 21
159.548004
  0
LINE
  8
0
 62
     1
 10
108.953255
 20
158.936874
 11
110.085548
 21
158.972260
  0
LINE
  8
0
 62
     4
 10
108.953293
 20
149.795242
 11
109.753288
 21
149.770248
  0
LINE
  8
0
 62
     1
 10
108.953270
 20
150.381180
 11
110.085602
 21
150.345795
  0
LINE
  8
0
 62
     4
 10
109.753136
 20
159.547821
 11
110.253136
 21
158.681793
  0
LINE
  8
0
 62
     4
 10
109.753265
 20
149.770126
 11
110.253265
 21
150.636154
  0
LINE
  8
0
 62
     2
 10
113.619926
 20
154.659119
 11
106.453262
 21
154.659119
  0
LINE
  8
0
 10
154.453262
 20
34.234146
 11
197.453262
 21
34.234146
  0
LINE
  8
0
 10
154.453262
 20
61.234146
 11
154.453262
 21
34.234146
  0
LINE
  8
0
 10
154.953262
 20
106.234154
 11
196.953262
 21
106.234154
  0
LINE
  8
0
 10
197.453262
 20
61.234146
 11
197.453262
 21
34.234154
  0
LINE
  8
0
  6
CENTER
 62
     2
 10
175.953262
 20
111.567482
 11
175.953262
 21
29.567490
  0
LINE
  8
0
  6
CENTER
 62
     2
 10
155.953262
 20
53.234146
 11
171.953262
 21
53.234146
  0
LINE
  8
0
  6
CENTER
 62
     2
 10
163.953262
 20
62.040932
 11
163.953262
 21
45.234146
  0
LINE
  8
0
 10
196.953262
 20
106.234154
 11
196.953262
 21
61.234146
  0
LINE
  8
0
 10
154.953262
 20
106.234146
 11
154.953262
 21
61.234146
  0
LINE
  8
0
 10
154.453262
 20
61.234146
 11
197.453262
 21
61.234146
  0
LINE
  8
0
  6
CENTER
 62
     2
 10
153.453262
 20
81.234154
 11
198.453262
 21
81.234154
  0
LINE
  8
0
 10
154.953262
 20
65.234146
 11
154.953262
 21
65.117416
  0
LINE
  8
0
 10
175.953262
 20
61.234146
 11
175.953262
 21
34.234154
  0
LINE
  8
0
 62
     4
 10
171.930511
 20
107.534149
 11
179.976227
 21
107.534149
  0
LINE
  8
0
 62
     4
 10
171.064484
 20
107.034149
 11
180.842255
 21
107.034149
  0
LINE
  8
0
 62
     4
 10
171.089600
 20
106.234161
 11
171.064606
 21
107.034172
  0
LINE
  8
0
 62
     1
 10
171.675308
 20
106.234123
 11
171.639923
 21
107.366425
  0
LINE
  8
0
 62
     4
 10
180.817398
 20
106.234161
 11
180.842392
 21
107.034157
  0
LINE
  8
0
 62
     1
 10
180.231323
 20
106.234154
 11
180.266708
 21
107.366478
  0
LINE
  8
0
 62
     4
 10
171.064468
 20
107.034134
 11
171.930496
 21
107.534134
  0
LINE
  8
0
 62
     4
 10
180.842224
 20
107.034119
 11
179.976196
 21
107.534119
  0
LINE
  8
0
 62
     4
 10
161.453308
 20
54.677551
 11
163.953308
 21
56.120926
  0
LINE
  8
0
 62
     4
 10
163.953293
 20
50.347389
 11
166.453293
 21
51.790764
  0
LINE
  8
0
 62
     4
 10
161.453278
 20
54.677532
 11
161.453278
 21
51.790771
  0
LINE
  8
0
 62
     4
 10
166.453278
 20
54.677525
 11
166.453278
 21
51.790771
  0
LINE
  8
0
 62
     4
 10
161.453278
 20
51.790787
 11
163.953278
 21
50.347412
  0
LINE
  8
0
 62
     4
 10
163.953278
 20
56.120914
 11
166.453278
 21
54.677540
  0
LINE
  8
0
 62
     4
 10
267.768341
 20
173.923782
 11
267.894287
 21
169.893784
  0
LINE
  8
0
 62
     1
 10
268.400757
 20
172.423721
 11
268.479828
 21
169.893723
  0
LINE
  8
0
 62
     1
 10
277.115204
 20
172.423737
 11
277.036163
 21
169.893753
  0
LINE
  8
0
 62
     4
 10
277.748352
 20
173.948242
 11
277.621643
 21
169.893753
  0
LINE
  8
0
 62
     1
 10
277.701111
 20
172.423752
 11
267.815216
 21
172.423752
  0
LINE
  8
0
 62
     4
 10
278.531799
 20
173.923752
 11
266.984772
 21
173.923752
  0
LINE
  8
0
 62
     1
 10
277.115051
 20
172.423752
 11
277.748627
 21
173.948212
  0
LINE
  8
0
 62
     1
 10
268.401062
 20
172.423691
 11
267.768188
 21
173.923691
  0
LINE
  8
0
  6
CENTER
 62
     1
 10
287.758270
 20
189.823761
 11
257.548615
 21
189.823761
  0
LINE
  8
0
 62
     4
 10
278.531769
 20
173.923767
 11
278.531769
 21
180.578400
  0
LINE
  8
0
  6
CENTER
 62
     1
 10
272.758270
 20
167.236053
 11
272.758270
 21
203.657104
  0
LINE
  8
0
 62
     4
 10
267.768341
 20
173.923782
 11
267.894287
 21
169.893784
  0
LINE
  8
0
 62
     1
 10
268.400757
 20
172.423721
 11
268.479828
 21
169.893723
  0
LINE
  8
0
 62
     1
 10
277.115204
 20
172.423737
 11
277.036163
 21
169.893753
  0
LINE
  8
0
 62
     4
 10
277.748352
 20
173.948242
 11
277.621643
 21
169.893753
  0
LINE
  8
0
 62
     1
 10
277.701111
 20
172.423752
 11
267.815216
 21
172.423752
  0
LINE
  8
0
 62
     4
 10
278.531799
 20
173.923752
 11
266.984772
 21
173.923752
  0
LINE
  8
0
 62
     1
 10
277.115051
 20
172.423752
 11
277.748627
 21
173.948212
  0
LINE
  8
0
 62
     1
 10
268.401062
 20
172.423691
 11
267.768188
 21
173.923691
  0
LINE
  8
0
 62
     4
 10
266.984772
 20
173.923767
 11
266.984772
 21
180.578400
  0
LINE
  8
0
 62
     4
 10
269.871521
 20
173.923767
 11
269.871521
 21
179.312973
  0
LINE
  8
0
 62
     4
 10
275.645020
 20
173.923767
 11
275.645020
 21
179.312973
  0
LINE
  8
0
 62
     4
 10
343.163788
 20
173.923752
 11
343.163788
 21
179.530975
  0
LINE
  8
0
  6
CENTER
 62
     1
 10
331.050537
 20
189.823746
 11
353.550537
 21
189.823746
  0
LINE
  8
0
 62
     4
 10
346.050537
 20
200.723755
 11
346.050537
 21
180.138184
  0
LINE
  8
0
 62
     4
 10
351.040649
 20
173.923752
 11
350.914734
 21
169.893753
  0
LINE
  8
0
 62
     1
 10
350.408356
 20
172.423737
 11
350.329285
 21
169.893753
  0
LINE
  8
0
 62
     1
 10
341.694122
 20
172.423782
 11
341.773193
 21
169.893784
  0
LINE
  8
0
 62
     4
 10
341.060852
 20
173.948242
 11
341.187561
 21
169.893753
  0
LINE
  8
0
 62
     1
 10
341.107697
 20
172.423737
 11
350.993591
 21
172.423737
  0
LINE
  8
0
 62
     4
 10
340.277008
 20
173.923737
 11
351.824036
 21
173.923737
  0
LINE
  8
0
 62
     1
 10
341.694153
 20
172.423981
 11
341.060577
 21
173.948441
  0
LINE
  8
0
 62
     1
 10
350.407990
 20
172.423599
 11
351.040863
 21
173.923630
  0
LINE
  8
0
  6
CENTER
 62
     1
 10
346.050537
 20
203.657089
 11
346.050537
 21
163.693756
  0
LINE
  8
0
 62
     4
 10
346.050507
 20
197.423737
 11
351.824005
 21
197.423737
  0
LINE
  8
0
 62
     4
 10
333.050537
 20
200.323746
 11
333.050537
 21
179.323746
  0
LINE
  8
0
 62
     4
 10
334.781464
 20
200.723755
 11
346.050507
 21
200.723755
  0
LINE
  8
0
 62
     4
 10
333.050507
 20
200.323746
 11
334.550507
 21
200.323746
  0
LINE
  8
0
 62
     4
 10
334.550598
 20
200.323639
 11
334.781555
 21
200.723663
  0
LINE
  8
0
 62
     4
 10
334.781464
 20
200.538696
 11
343.281464
 21
200.538696
  0
LINE
  8
0
 62
     4
 10
334.550507
 20
200.016266
 11
343.050507
 21
200.016266
  0
LINE
  8
0
 62
     4
 10
334.550507
 20
198.814545
 11
343.281464
 21
198.814545
  0
LINE
  8
0
 62
     4
 10
334.781464
 20
195.986145
 11
343.281464
 21
195.986145
  0
LINE
  8
0
 62
     4
 10
334.550507
 20
195.247314
 11
343.050507
 21
195.247314
  0
LINE
  8
0
 62
     4
 10
336.050507
 20
192.346161
 11
343.050507
 21
192.346161
  0
LINE
  8
0
 62
     4
 10
334.550507
 20
191.823730
 11
343.281464
 21
191.823730
  0
LINE
  8
0
 62
     4
 10
334.550537
 20
200.323746
 11
334.550537
 21
200.016266
  0
LINE
  8
0
 62
     4
 10
343.281464
 20
200.538696
 11
343.281464
 21
198.814545
  0
LINE
  8
0
 62
     4
 10
343.050537
 20
200.016266
 11
343.050537
 21
198.814545
  0
LINE
  8
0
 62
     4
 10
343.050537
 20
195.247314
 11
343.050537
 21
192.346161
  0
LINE
  8
0
 62
     4
 10
343.281464
 20
195.986145
 11
343.281464
 21
191.823730
  0
LINE
  8
0
 62
     4
 10
334.550537
 20
198.814545
 11
334.550537
 21
195.247314
  0
LINE
  8
0
 62
     4
 10
334.781494
 20
198.814545
 11
334.781494
 21
195.986145
  0
LINE
  8
0
 62
     4
 10
343.050568
 20
192.346191
 11
343.281525
 21
191.823761
  0
LINE
  8
0
 62
     4
 10
343.050629
 20
195.247299
 11
343.281555
 21
195.986099
  0
LINE
  8
0
 62
     4
 10
334.781281
 20
195.986176
 11
334.550354
 21
195.247375
  0
LINE
  8
0
 62
     4
 10
343.050873
 20
200.016235
 11
343.281830
 21
200.538666
  0
LINE
  8
0
 62
     4
 10
334.781799
 20
200.538589
 11
334.550873
 21
200.016144
  0
LINE
  8
0
 62
     4
 10
334.550537
 20
187.823761
 11
334.550537
 21
191.823730
  0
LINE
  8
0
 62
     4
 10
336.050537
 20
187.301331
 11
336.050537
 21
192.346161
  0
LINE
  8
0
 62
     4
 10
334.550537
 20
187.823761
 11
343.281464
 21
187.823761
  0
LINE
  8
0
 62
     4
 10
336.050537
 20
187.301331
 11
343.050537
 21
187.301331
  0
LINE
  8
0
 62
     4
 10
343.281464
 20
183.661362
 11
343.281464
 21
187.823761
  0
LINE
  8
0
 62
     4
 10
343.050537
 20
184.400177
 11
343.050537
 21
187.301331
  0
LINE
  8
0
 62
     4
 10
343.050812
 20
187.301208
 11
343.281738
 21
187.823608
  0
LINE
  8
0
 62
     4
 10
334.550537
 20
184.400177
 11
343.050537
 21
184.400177
  0
LINE
  8
0
 62
     4
 10
334.781464
 20
183.661346
 11
343.281464
 21
183.661346
  0
LINE
  8
0
 62
     4
 10
343.050995
 20
184.400314
 11
343.281952
 21
183.661484
  0
LINE
  8
0
 62
     4
 10
334.550537
 20
180.832947
 11
334.550537
 21
184.400177
  0
LINE
  8
0
 62
     4
 10
334.781494
 20
180.832947
 11
334.781494
 21
183.661346
  0
LINE
  8
0
 62
     4
 10
334.781921
 20
183.661469
 11
334.550995
 21
184.400269
  0
LINE
  8
0
 62
     4
 10
334.550537
 20
180.832947
 11
343.281464
 21
180.832947
  0
LINE
  8
0
 62
     4
 10
343.281464
 20
179.555725
 11
343.281464
 21
180.832947
  0
LINE
  8
0
 62
     4
 10
343.050537
 20
179.631226
 11
343.050537
 21
180.832947
  0
LINE
  8
0
 62
     4
 10
334.550537
 20
179.631226
 11
343.050537
 21
179.631226
  0
LINE
  8
0
 62
     4
 10
343.050598
 20
179.631195
 11
343.100800
 21
179.517685
  0
LINE
  8
0
 62
     4
 10
334.781464
 20
179.108795
 11
341.156799
 21
179.108795
  0
LINE
  8
0
 62
     4
 10
334.781464
 20
178.923737
 11
340.277008
 21
178.923737
  0
LINE
  8
0
 62
     4
 10
334.780884
 20
179.108582
 11
334.549927
 21
179.631012
  0
LINE
  8
0
 62
     4
 10
334.550690
 20
179.323853
 11
334.781647
 21
178.923843
  0
LINE
  8
0
 62
     4
 10
334.550537
 20
179.323746
 11
334.550537
 21
179.631226
  0
LINE
  8
0
 62
     4
 10
333.050537
 20
179.323746
 11
334.550537
 21
179.323746
  0
LINE
  8
0
 62
     4
 10
351.824036
 20
173.923752
 11
351.824036
 21
197.423752
  0
LINE
  8
0
 62
     4
 10
348.937286
 20
173.923752
 11
348.937286
 21
197.423752
  0
LINE
  8
0
 62
     4
 10
340.277039
 20
173.923752
 11
340.277039
 21
178.923752
  0
LINE
  8
0
 62
     4
 10
346.050537
 20
180.138199
 11
340.277039
 21
178.923752
  0
LINE
  8
0
  6
CENTER
 62
     1
 10
278.758270
 20
91.250732
 11
278.758270
 21
63.922150
  0
LINE
  8
0
  6
CENTER
 62
     1
 10
265.126007
 20
77.714020
 11
292.546295
 21
77.714020
  0
LINE
  8
0
  6
CENTER
 62
     1
 10
316.016785
 20
77.714020
 11
345.516785
 21
77.714020
  0
LINE
  8
0
 62
     4
 10
318.016754
 20
88.214020
 11
318.016754
 21
67.214020
  0
LINE
  8
0
 62
     4
 10
321.016785
 20
80.236420
 11
328.016785
 21
80.236420
  0
LINE
  8
0
 62
     4
 10
319.516785
 20
79.714020
 11
328.247711
 21
79.714020
  0
LINE
  8
0
 62
     4
 10
328.016754
 20
83.137573
 11
328.016754
 21
80.236420
  0
LINE
  8
0
 62
     4
 10
328.247681
 20
83.876404
 11
328.247681
 21
79.714020
  0
LINE
  8
0
 62
     4
 10
328.016510
 20
80.236320
 11
328.247467
 21
79.713860
  0
LINE
  8
0
 62
     4
 10
328.017181
 20
83.137466
 11
328.248108
 21
83.876266
  0
LINE
  8
0
 62
     4
 10
319.516754
 20
75.714020
 11
319.516754
 21
79.713989
  0
LINE
  8
0
 62
     4
 10
321.016754
 20
75.191589
 11
321.016754
 21
80.236420
  0
LINE
  8
0
 62
     4
 10
319.516785
 20
75.714020
 11
328.247711
 21
75.714020
  0
LINE
  8
0
 62
     4
 10
321.016785
 20
75.191589
 11
328.016785
 21
75.191589
  0
LINE
  8
0
 62
     4
 10
328.016663
 20
75.191803
 11
328.247589
 21
75.714203
  0
LINE
  8
0
 62
     4
 10
319.516754
 20
68.723206
 11
319.516754
 21
72.290436
  0
LINE
  8
0
 62
     4
 10
319.747681
 20
68.723206
 11
319.747681
 21
71.551636
  0
LINE
  8
0
 62
     4
 10
319.747742
 20
71.551613
 11
319.516785
 21
72.290443
  0
LINE
  8
0
 62
     4
 10
319.516785
 20
68.723206
 11
328.247711
 21
68.723206
  0
LINE
  8
0
 62
     4
 10
331.016754
 20
66.814026
 11
331.016754
 21
88.614014
  0
LINE
  8
0
 62
     4
 10
336.016754
 20
71.940521
 11
336.016754
 21
83.487518
  0
LINE
  8
0
 62
     4
 10
336.016785
 20
71.940521
 11
331.016785
 21
71.940521
  0
LINE
  8
0
 62
     4
 10
336.016785
 20
83.487518
 11
331.016785
 21
83.487518
  0
LINE
  8
0
 62
     4
 10
331.016785
 20
80.600769
 11
336.016785
 21
80.600769
  0
LINE
  8
0
 62
     4
 10
331.016785
 20
74.827271
 11
336.016785
 21
74.827271
  0
LINE
  8
0
 62
     4
 10
331.016785
 20
74.827271
 11
336.016785
 21
74.827271
  0
LINE
  8
0
 62
     4
 10
319.747711
 20
88.614014
 11
331.016785
 21
88.614014
  0
LINE
  8
0
 62
     4
 10
318.016785
 20
88.214020
 11
319.516785
 21
88.214020
  0
LINE
  8
0
 62
     4
 10
319.516602
 20
88.214127
 11
319.747528
 21
88.614098
  0
LINE
  8
0
 62
     4
 10
319.747711
 20
88.428955
 11
328.247711
 21
88.428955
  0
LINE
  8
0
 62
     4
 10
319.516785
 20
87.906525
 11
328.016785
 21
87.906525
  0
LINE
  8
0
 62
     4
 10
319.516785
 20
86.704834
 11
328.247711
 21
86.704834
  0
LINE
  8
0
 62
     4
 10
319.747711
 20
83.876404
 11
328.247711
 21
83.876404
  0
LINE
  8
0
 62
     4
 10
319.516785
 20
83.137573
 11
328.016785
 21
83.137573
  0
LINE
  8
0
 62
     4
 10
319.516754
 20
88.214020
 11
319.516754
 21
87.906525
  0
LINE
  8
0
 62
     4
 10
319.747681
 20
88.614014
 11
319.747681
 21
88.428955
  0
LINE
  8
0
 62
     4
 10
328.247681
 20
88.428955
 11
328.247681
 21
86.704834
  0
LINE
  8
0
 62
     4
 10
328.016754
 20
87.906525
 11
328.016754
 21
86.704803
  0
LINE
  8
0
 62
     4
 10
319.516754
 20
86.704834
 11
319.516754
 21
83.137573
  0
LINE
  8
0
 62
     4
 10
319.747681
 20
86.704834
 11
319.747681
 21
83.876404
  0
LINE
  8
0
 62
     4
 10
328.017181
 20
83.137466
 11
328.248108
 21
83.876266
  0
LINE
  8
0
 62
     4
 10
319.747955
 20
83.876289
 11
319.517029
 21
83.137466
  0
LINE
  8
0
 62
     4
 10
328.016083
 20
87.906723
 11
328.247040
 21
88.429184
  0
LINE
  8
0
 62
     4
 10
319.747742
 20
88.428902
 11
319.516815
 21
87.906502
  0
LINE
  8
0
 62
     4
 10
319.516785
 20
75.714020
 11
328.247711
 21
75.714020
  0
LINE
  8
0
 62
     4
 10
328.247681
 20
71.551636
 11
328.247681
 21
75.714020
  0
LINE
  8
0
 62
     4
 10
328.016754
 20
72.290436
 11
328.016754
 21
75.191589
  0
LINE
  8
0
 62
     4
 10
319.516785
 20
72.290436
 11
328.016785
 21
72.290436
  0
LINE
  8
0
 62
     4
 10
319.747711
 20
71.551636
 11
328.247711
 21
71.551636
  0
LINE
  8
0
 62
     4
 10
328.016663
 20
72.290459
 11
328.247620
 21
71.551605
  0
LINE
  8
0
 62
     4
 10
319.516754
 20
68.723206
 11
319.516754
 21
72.290436
  0
LINE
  8
0
 62
     4
 10
319.747681
 20
68.723206
 11
319.747681
 21
71.551636
  0
LINE
  8
0
 62
     4
 10
319.747742
 20
71.551613
 11
319.516785
 21
72.290443
  0
LINE
  8
0
 62
     4
 10
319.516785
 20
68.723206
 11
328.247711
 21
68.723206
  0
LINE
  8
0
 62
     4
 10
328.247681
 20
66.999084
 11
328.247681
 21
68.723206
  0
LINE
  8
0
 62
     4
 10
328.016754
 20
67.521484
 11
328.016754
 21
68.723206
  0
LINE
  8
0
 62
     4
 10
319.516785
 20
67.521515
 11
328.016785
 21
67.521515
  0
LINE
  8
0
 62
     4
 10
328.016876
 20
67.521523
 11
328.247833
 21
66.999069
  0
LINE
  8
0
 62
     4
 10
319.747711
 20
66.999084
 11
328.247711
 21
66.999084
  0
LINE
  8
0
 62
     4
 10
319.747711
 20
66.814026
 11
331.016785
 21
66.814026
  0
LINE
  8
0
 62
     4
 10
319.748962
 20
66.999542
 11
319.518005
 21
67.521996
  0
LINE
  8
0
 62
     4
 10
319.517365
 20
67.214340
 11
319.748322
 21
66.814331
  0
LINE
  8
0
 62
     4
 10
319.516754
 20
67.214020
 11
319.516754
 21
67.521484
  0
LINE
  8
0
 62
     4
 10
319.747681
 20
66.814026
 11
319.747681
 21
66.999084
  0
LINE
  8
0
 62
     4
 10
318.016785
 20
67.214020
 11
319.516785
 21
67.214020
  0
LINE
  8
0
 62
     4
 10
336.016846
 20
82.703896
 11
340.046814
 21
82.577957
  0
LINE
  8
0
 62
     1
 10
337.516754
 20
82.070869
 11
340.046783
 21
81.991806
  0
LINE
  8
0
 62
     1
 10
337.516754
 20
73.357124
 11
340.046722
 21
73.436188
  0
LINE
  8
0
 62
     4
 10
335.992310
 20
72.723595
 11
340.046783
 21
72.850296
  0
LINE
  8
0
 62
     1
 10
337.516754
 20
72.771179
 11
337.516754
 21
82.657074
  0
LINE
  8
0
 62
     4
 10
336.016754
 20
71.940521
 11
336.016754
 21
83.487518
  0
LINE
  8
0
 62
     1
 10
337.516693
 20
73.357147
 11
335.992218
 21
72.723572
  0
LINE
  8
0
 62
     1
 10
337.517120
 20
82.071693
 11
336.017120
 21
82.704575
  0
LINE
  8
0
 62
     4
 10
336.016785
 20
71.940521
 11
331.016785
 21
71.940521
  0
LINE
  8
0
 62
     4
 10
336.016785
 20
83.487518
 11
331.016785
 21
83.487518
  0
LINE
  8
0
 62
     4
 10
331.016785
 20
80.600769
 11
336.016785
 21
80.600769
  0
LINE
  8
0
 10
-255.900024
 20
-78.014832
 11
-255.900024
 21
-49.014832
  0
LINE
  8
0
 10
-252.600037
 20
-78.014832
 11
-252.600037
 21
-49.014832
  0
LINE
  8
0
 10
-253.100037
 20
-48.514832
 11
-255.400024
 21
-48.514832
  0
LINE
  8
0
 10
-261.750000
 20
-42.014832
 11
-246.750000
 21
-42.014832
  0
LINE
  8
0
 10
-260.250000
 20
-43.514832
 11
-248.250000
 21
-43.514832
  0
LINE
  8
0
 10
-252.900024
 20
-51.014832
 11
-255.600037
 21
-51.014832
  0
LINE
  8
0
 10
-255.400024
 20
-78.514832
 11
-253.100037
 21
-78.514832
  0
LINE
  8
0
 10
-255.799988
 20
-50.814850
 11
-255.799988
 21
-49.214844
  0
LINE
  8
0
 10
-252.700012
 20
-50.814850
 11
-252.700012
 21
-49.214844
  0
LINE
  8
0
 10
-255.799988
 20
-50.014832
 11
-252.700012
 21
-50.014832
  0
LINE
  8
0
 10
-255.600037
 20
-49.014832
 11
-252.900024
 21
-49.014832
  0
LINE
  8
0
 10
-252.700012
 20
-50.314850
 11
-255.799988
 21
-50.314850
  0
LINE
  8
0
 10
-252.700012
 20
-49.714844
 11
-255.799988
 21
-49.714844
  0
LINE
  8
0
 10
-261.750000
 20
-139.014862
 11
-246.750000
 21
-139.014862
  0
LINE
  8
0
  6
CENTER
 62
     2
 10
-260.250000
 20
-130.014862
 11
-248.250000
 21
-130.014862
  0
LINE
  8
0
 10
-261.750000
 20
-95.514832
 11
-260.250000
 21
-95.514832
  0
LINE
  8
0
 10
-260.250000
 20
-96.042694
 11
-260.250000
 21
-43.514832
  0
LINE
  8
0
 10
-248.250000
 20
-105.514832
 11
-248.250000
 21
-43.514832
  0
LINE
  8
0
 10
-248.250000
 20
-95.514832
 11
-246.750000
 21
-95.514832
  0
LINE
  8
0
 10
-256.250000
 20
-105.514832
 11
-248.250000
 21
-105.514832
  0
LINE
  8
0
 10
-256.250000
 20
-100.514832
 11
-256.250000
 21
-105.514832
  0
LINE
  8
0
  6
CENTER
 62
     2
 10
-254.250000
 20
-141.475677
 11
-254.250000
 21
-39.764832
  0
LINE
  8
0
 10
-261.750000
 20
-139.014862
 11
-261.750000
 21
-42.014832
  0
LINE
  8
0
 10
-246.750000
 20
-123.514862
 11
-261.750000
 21
-123.514862
  0
LINE
  8
0
 10
-246.750000
 20
-139.014862
 11
-246.750000
 21
-42.014832
  0
LINE
  8
0
 10
-251.100037
 20
-55.514832
 11
-252.600037
 21
-55.514832
  0
LINE
  8
0
 10
-251.100037
 20
-65.714844
 11
-252.600037
 21
-65.714844
  0
LINE
  8
0
 10
-251.100037
 20
-75.114838
 11
-252.600037
 21
-75.114838
  0
LINE
  8
0
 10
-257.400024
 20
-52.914856
 11
-255.900024
 21
-52.914856
  0
LINE
  8
0
 10
-257.400024
 20
-70.514832
 11
-255.900024
 21
-70.514832
  0
LINE
  8
0
 10
-257.400024
 20
-60.714844
 11
-255.900024
 21
-60.714844
  0
LINE
  8
0
 10
-254.250000
 20
-97.014832
 11
-249.000000
 21
-97.014832
  0
LINE
  8
0
 10
-254.250000
 20
-93.014832
 11
-249.000000
 21
-93.014832
  0
LINE
  8
0
 10
-249.000000
 20
-97.014832
 11
-249.000000
 21
-93.014832
  0
LINE
  8
0
 10
-254.250000
 20
-97.014832
 11
-254.250000
 21
-93.014832
  0
LINE
  8
0
  6
CENTER
 62
     2
 10
-258.250000
 20
-116.014862
 11
-250.250000
 21
-116.014862
  0
LINE
  8
0
 10
-256.587769
 20
-99.014832
 11
-248.250000
 21
-99.014832
  0
LINE
  8
0
 10
-260.250000
 20
-88.014832
 11
-248.250000
 21
-88.014832
  0
LINE
  8
0
 10
-246.250000
 20
-139.514832
 11
-246.250000
 21
-41.514832
  0
LINE
  8
0
 10
-262.250000
 20
-139.514832
 11
-262.250000
 21
-41.514832
  0
LINE
  8
0
 10
-262.250000
 20
-139.514832
 11
-246.250000
 21
-139.514832
  0
LINE
  8
0
 10
-262.250000
 20
-41.514832
 11
-251.450012
 21
-41.514832
  0
LINE
  8
0
 62
     4
 10
-251.450012
 20
-42.014832
 11
-251.450012
 21
-37.479797
  0
LINE
  8
0
  6
CENTER
 62
     1
 10
-249.950012
 20
-43.264832
 11
-249.950012
 21
-35.081726
  0
LINE
  8
0
 62
     4
 10
-248.450012
 20
-42.014832
 11
-248.450012
 21
-38.283661
  0
LINE
  8
0
 62
     4
 10
-248.450012
 20
-37.283661
 11
-248.450012
 21
-35.598175
  0
LINE
  8
0
 62
     4
 10
-251.450012
 20
-36.479797
 11
-251.450012
 21
-35.598175
  0
LINE
  8
0
 10
-248.450012
 20
-41.514832
 11
-246.250000
 21
-41.514832
  0
LINE
  8
0
 62
     1
 10
-247.052277
 20
-37.658081
 11
-252.847839
 21
-36.105167
  0
LINE
  8
0
 62
     1
 10
-247.052246
 20
-38.658092
 11
-252.847809
 21
-37.105175
  0
LINE
  8
0
 62
     4
 10
-256.750000
 20
-131.458221
 11
-256.750000
 21
-128.571472
  0
LINE
  8
0
 62
     4
 10
-251.750000
 20
-131.458221
 11
-251.750000
 21
-128.571472
  0
LINE
  8
0
 62
     4
 10
-251.749969
 20
-128.571518
 11
-254.250000
 21
-127.128120
  0
LINE
  8
0
 62
     4
 10
-254.250000
 20
-132.901596
 11
-256.750000
 21
-131.458221
  0
LINE
  8
0
 62
     4
 10
-256.750153
 20
-128.571213
 11
-254.250153
 21
-127.127846
  0
LINE
  8
0
 62
     4
 10
-254.250183
 20
-132.901352
 11
-251.750183
 21
-131.457977
  0
LINE
  8
0
 62
     1
 10
-326.152252
 20
-26.344398
 11
-331.947815
 21
-24.791483
  0
LINE
  8
0
 62
     1
 10
-326.152191
 20
-27.344570
 11
-331.947754
 21
-25.791655
  0
LINE
  8
0
 10
-347.250000
 20
-42.014832
 11
-347.250000
 21
-139.014832
  0
LINE
  8
0
 10
-320.250000
 20
-42.014832
 11
-320.250000
 21
-123.514862
  0
LINE
  8
0
  6
CENTER
 62
     2
 10
-336.250000
 20
-141.475677
 11
-336.250000
 21
-40.514832
  0
LINE
  8
0
 10
-320.250000
 20
-123.514862
 11
-320.250000
 21
-139.014832
  0
LINE
  8
0
 10
-320.250000
 20
-139.014832
 11
-347.250000
 21
-139.014832
  0
LINE
  8
0
  6
CENTER
 62
     2
 10
-317.562927
 20
-130.014832
 11
-324.126587
 21
-130.014832
  0
LINE
  8
0
 10
-320.250000
 20
-123.514862
 11
-347.250000
 21
-123.514862
  0
LINE
  8
0
 10
-320.250000
 20
-42.014832
 11
-347.250000
 21
-42.014832
  0
LINE
  8
0
 10
-320.250000
 20
-95.514832
 11
-347.250000
 21
-95.514832
  0
LINE
  8
0
 10
-331.250000
 20
-120.114838
 11
-331.250000
 21
-116.914856
  0
LINE
  8
0
 10
-342.750000
 20
-120.114838
 11
-342.750000
 21
-116.914856
  0
LINE
  8
0
 10
-331.250000
 20
-120.114838
 11
-342.750000
 21
-120.114838
  0
LINE
  8
0
 10
-331.250000
 20
-116.914856
 11
-342.750000
 21
-116.914856
  0
LINE
  8
0
 10
-331.250000
 20
-117.214844
 11
-342.750000
 21
-117.214844
  0
LINE
  8
0
 10
-331.250000
 20
-119.814850
 11
-342.750000
 21
-119.814850
  0
LINE
  8
0
 62
     2
 10
-331.250000
 20
-119.571350
 11
-342.750000
 21
-119.571350
  0
LINE
  8
0
 62
     2
 10
-331.250000
 20
-117.458344
 11
-342.750000
 21
-117.458344
  0
LINE
  8
0
 10
-320.074158
 20
-118.764862
 11
-320.250000
 21
-118.764862
  0
LINE
  8
0
 10
-320.074158
 20
-113.264862
 11
-320.250000
 21
-113.264862
  0
LINE
  8
0
 10
-319.667542
 20
-114.400116
 11
-319.480438
 21
-114.514877
  0
LINE
  8
0
 10
-319.480316
 20
-117.514816
 11
-319.667450
 21
-117.629578
  0
LINE
  8
0
 10
-319.667419
 20
-118.014862
 11
-319.667419
 21
-114.014862
  0
LINE
  8
0
 10
-319.306580
 20
-116.764862
 11
-319.306580
 21
-115.264862
  0
LINE
  8
0
 10
-319.480286
 20
-117.514862
 11
-319.480286
 21
-114.514862
  0
LINE
  8
0
 10
-320.074158
 20
-118.764862
 11
-320.074158
 21
-113.264862
  0
LINE
  8
0
 62
     4
 10
-319.449921
 20
-134.903671
 11
-320.249969
 21
-134.878662
  0
LINE
  8
0
 62
     1
 10
-319.120422
 20
-134.332886
 11
-320.249969
 21
-134.297592
  0
LINE
  8
0
 62
     1
 10
-319.120392
 20
-125.696815
 11
-320.249939
 21
-125.732117
  0
LINE
  8
0
 62
     4
 10
-319.449921
 20
-125.125725
 11
-320.249969
 21
-125.150726
  0
LINE
  8
0
 62
     4
 10
-318.950012
 20
-125.991806
 11
-318.950012
 21
-134.037613
  0
LINE
  8
0
 62
     4
 10
-319.450195
 20
-134.903549
 11
-318.950226
 21
-134.037521
  0
LINE
  8
0
 62
     4
 10
-319.449554
 20
-125.125511
 11
-318.949554
 21
-125.991531
  0
LINE
  8
0
 62
     4
 10
-319.450012
 20
-125.125793
 11
-319.450012
 21
-134.903641
  0
LINE
  8
0
 10
-347.250000
 20
-72.264832
 11
-348.250000
 21
-72.264832
  0
LINE
  8
0
 10
-347.250000
 20
-52.764832
 11
-348.250000
 21
-52.764832
  0
LINE
  8
0
 62
     4
 10
-327.549988
 20
-42.014832
 11
-327.549988
 21
-38.283661
  0
LINE
  8
0
 62
     4
 10
-328.599976
 20
-24.014832
 11
-328.599976
 21
-14.014832
  0
LINE
  8
0
 62
     4
 10
-330.549988
 20
-42.014832
 11
-330.549988
 21
-37.479828
  0
LINE
  8
0
 62
     4
 10
-330.549988
 20
-36.479797
 11
-330.549988
 21
-32.108185
  0
LINE
  8
0
 62
     4
 10
-327.549988
 20
-37.283661
 11
-327.549988
 21
-32.108185
  0
LINE
  8
0
 62
     4
 10
-327.549988
 20
-32.108185
 11
-330.549988
 21
-32.108185
  0
LINE
  8
0
  6
CENTER
 62
     1
 10
-328.299988
 20
-33.268982
 11
-328.299988
 21
-12.172195
  0
LINE
  8
0
 62
     4
 10
-327.799988
 20
-32.108185
 11
-327.799988
 21
-26.903076
  0
LINE
  8
0
 62
     4
 10
-328.799988
 20
-32.108185
 11
-328.799988
 21
-26.635132
  0
LINE
  8
0
 62
     4
 10
-329.299988
 20
-32.108185
 11
-329.299988
 21
-26.501160
  0
LINE
  8
0
 62
     4
 10
-329.299988
 20
-25.501160
 11
-329.299988
 21
-24.014832
  0
LINE
  8
0
 62
     4
 10
-330.299988
 20
-32.108185
 11
-330.299988
 21
-26.233215
  0
LINE
  8
0
 62
     4
 10
-327.799988
 20
-25.903076
 11
-327.799988
 21
-24.014832
  0
LINE
  8
0
 62
     4
 10
-328.799988
 20
-25.635132
 11
-328.799988
 21
-24.014832
  0
LINE
  8
0
 62
     4
 10
-329.500000
 20
-24.014832
 11
-329.500000
 21
-14.014832
  0
LINE
  8
0
 62
     4
 10
-328.000000
 20
-14.014847
 11
-328.600037
 21
-14.014847
  0
LINE
  8
0
 62
     4
 10
-330.099976
 20
-24.014832
 11
-330.099976
 21
-14.014832
  0
LINE
  8
0
 62
     4
 10
-330.299988
 20
-25.233215
 11
-330.299988
 21
-24.014832
  0
LINE
  8
0
 62
     4
 10
-329.299988
 20
-24.014832
 11
-330.299988
 21
-24.014832
  0
LINE
  8
0
 62
     4
 10
-327.799988
 20
-24.014832
 11
-328.799988
 21
-24.014832
  0
LINE
  8
0
 62
     4
 10
-328.000000
 20
-24.014832
 11
-328.000000
 21
-14.014832
  0
LINE
  8
0
  6
CENTER
 62
     1
 10
-329.049988
 20
-43.961578
 11
-329.049988
 21
-30.108185
  0
LINE
  8
0
 62
     4
 10
-329.500000
 20
-14.014847
 11
-330.100037
 21
-14.014847
  0
LINE
  8
0
  6
CENTER
 62
     1
 10
-329.799988
 20
-33.268982
 11
-329.799988
 21
-12.198914
  0
LINE
  8
0
 10
-347.250000
 20
-123.514832
 11
-348.250000
 21
-123.514832
  0
LINE
  8
0
 10
-347.250000
 20
-119.814850
 11
-348.250000
 21
-119.814850
  0
LINE
  8
0
 10
-347.250000
 20
-117.214844
 11
-348.250000
 21
-117.214844
  0
LINE
  8
0
 10
-347.250000
 20
-101.814850
 11
-348.250000
 21
-101.814850
  0
LINE
  8
0
 10
-347.250000
 20
-99.214844
 11
-348.250000
 21
-99.214844
  0
LINE
  8
0
 10
-347.250000
 20
-95.514832
 11
-348.250000
 21
-95.514832
  0
LINE
  8
0
 62
     1
 10
-326.152222
 20
-37.658085
 11
-331.947784
 21
-36.105171
  0
LINE
  8
0
 62
     1
 10
-326.152222
 20
-38.658089
 11
-331.947784
 21
-37.105171
  0
LINE
  8
0
 10
-246.750000
 20
-206.514816
 11
-261.750000
 21
-206.514816
  0
LINE
  8
0
  6
CENTER
 62
     2
 10
-254.250000
 20
-175.609512
 11
-254.250000
 21
-237.529266
  0
LINE
  8
0
 10
-246.750000
 20
-179.514816
 11
-246.750000
 21
-207.014832
  0
LINE
  8
0
 10
-261.750000
 20
-179.514816
 11
-261.750000
 21
-207.014832
  0
LINE
  8
0
 10
-246.750000
 20
-179.514832
 11
-261.750000
 21
-179.514832
  0
LINE
  8
0
 62
     4
 10
-249.361206
 20
-178.714813
 11
-249.386215
 21
-179.514816
  0
LINE
  8
0
 62
     4
 10
-249.361099
 20
-178.714661
 11
-250.227127
 21
-178.214661
  0
LINE
  8
0
 62
     1
 10
-249.932983
 20
-178.385269
 11
-249.968277
 21
-179.514816
  0
LINE
  8
0
 62
     4
 10
-258.273071
 20
-178.214813
 11
-250.227234
 21
-178.214813
  0
LINE
  8
0
 62
     4
 10
-259.139038
 20
-178.714813
 11
-249.361206
 21
-178.714813
  0
LINE
  8
0
 62
     1
 10
-258.569122
 20
-178.385300
 11
-258.533813
 21
-179.514862
  0
LINE
  8
0
 62
     4
 10
-259.138824
 20
-178.714813
 11
-259.113831
 21
-179.514816
  0
LINE
  8
0
 62
     4
 10
-259.138947
 20
-178.714905
 11
-258.272919
 21
-178.214905
  0
LINE
  8
0
 10
-246.250000
 20
-207.014832
 11
-246.250000
 21
-234.014832
  0
LINE
  8
0
 10
-262.250000
 20
-207.014832
 11
-262.250000
 21
-234.014832
  0
LINE
  8
0
 10
-246.250000
 20
-234.014832
 11
-262.250000
 21
-234.014832
  0
LINE
  8
0
 10
-246.250000
 20
-207.014816
 11
-262.250000
 21
-207.014816
  0
LINE
  8
0
 10
-78.229965
 20
-19.514832
 11
-47.229950
 21
-19.514832
  0
LINE
  8
0
 10
-78.229965
 20
-104.514832
 11
-47.229965
 21
-104.514832
  0
LINE
  8
0
 10
-69.729980
 20
-41.514832
 11
-55.729965
 21
-41.514832
  0
LINE
  8
0
 10
-69.729980
 20
-21.514832
 11
-55.729958
 21
-21.514832
  0
LINE
  8
0
 10
-52.729980
 20
-38.514832
 11
-52.729980
 21
-24.514832
  0
LINE
  8
0
 10
-57.584858
 20
-87.341751
 11
-60.259308
 21
-78.014832
  0
LINE
  8
0
 10
-51.817242
 20
-85.687912
 11
-55.307816
 21
-73.514832
  0
LINE
  8
0
 10
-64.729980
 20
-85.514832
 11
-64.729980
 21
-78.014832
  0
LINE
  8
0
 10
-60.729980
 20
-85.514832
 11
-60.729980
 21
-78.014832
  0
LINE
  8
0
 10
-66.729980
 20
-78.014832
 11
-66.729980
 21
-73.514832
  0
LINE
  8
0
 10
-58.729980
 20
-78.014832
 11
-58.729980
 21
-73.514832
  0
LINE
  8
0
 10
-76.729965
 20
-43.514832
 11
-48.729950
 21
-43.514832
  0
LINE
  8
0
 10
-76.729965
 20
-73.514832
 11
-48.729965
 21
-73.514832
  0
LINE
  8
0
 10
-77.729980
 20
-72.514832
 11
-77.729980
 21
-44.514832
  0
LINE
  8
0
 10
-47.729950
 20
-72.514832
 11
-47.729950
 21
-44.514832
  0
LINE
  8
0
 10
-66.729965
 20
-78.014832
 11
-58.729965
 21
-78.014832
  0
LINE
  8
0
 10
-77.729965
 20
-63.514832
 11
-47.729965
 21
-63.514832
  0
LINE
  8
0
 10
-75.979980
 20
-61.264832
 11
-75.979980
 21
-45.764832
  0
LINE
  8
0
 10
-49.479950
 20
-61.264832
 11
-49.479950
 21
-45.764832
  0
LINE
  8
0
 10
-73.229965
 20
-49.764832
 11
-52.229965
 21
-49.764832
  0
LINE
  8
0
 10
-73.229965
 20
-57.264832
 11
-52.229965
 21
-57.264832
  0
LINE
  8
0
 10
-52.229980
 20
-57.264832
 11
-52.229980
 21
-49.764832
  0
LINE
  8
0
 10
-73.229980
 20
-57.264832
 11
-73.229980
 21
-49.764832
  0
LINE
  8
0
 10
-73.729980
 20
-63.014832
 11
-73.729980
 21
-60.014832
  0
LINE
  8
0
 10
-70.729980
 20
-63.014832
 11
-70.729980
 21
-60.014832
  0
LINE
  8
0
 10
-73.729965
 20
-60.014832
 11
-70.729965
 21
-60.014832
  0
LINE
  8
0
 10
-60.229965
 20
-60.764832
 11
-52.229965
 21
-60.764832
  0
LINE
  8
0
 10
-60.229965
 20
-57.764832
 11
-52.229965
 21
-57.764832
  0
LINE
  8
0
 10
-52.229980
 20
-60.764832
 11
-52.229980
 21
-57.764832
  0
LINE
  8
0
 10
-60.229980
 20
-60.764832
 11
-60.229980
 21
-57.764832
  0
LINE
  8
0
 10
-76.729980
 20
-64.014832
 11
-76.729980
 21
-73.014847
  0
LINE
  8
0
 10
-48.729950
 20
-64.014832
 11
-48.729950
 21
-73.014832
  0
LINE
  8
0
 10
-76.729965
 20
-73.014832
 11
-48.729950
 21
-73.014832
  0
LINE
  8
0
 10
-74.729980
 20
-66.514832
 11
-74.729980
 21
-70.514832
  0
LINE
  8
0
 10
-69.729980
 20
-66.514832
 11
-69.729980
 21
-70.514832
  0
LINE
  8
0
 10
-67.729980
 20
-66.514832
 11
-67.729980
 21
-70.514832
  0
LINE
  8
0
 10
-62.729980
 20
-66.514832
 11
-62.729980
 21
-70.514832
  0
LINE
  8
0
 10
-74.229965
 20
-67.014832
 11
-70.229965
 21
-67.014832
  0
LINE
  8
0
 10
-74.229965
 20
-70.014832
 11
-70.229965
 21
-70.014832
  0
LINE
  8
0
 10
-74.729965
 20
-66.514832
 11
-69.729965
 21
-66.514832
  0
LINE
  8
0
 10
-74.729965
 20
-70.514832
 11
-69.729965
 21
-70.514832
  0
LINE
  8
0
 10
-63.229980
 20
-67.014832
 11
-63.229980
 21
-70.014832
  0
LINE
  8
0
 10
-67.229980
 20
-67.014832
 11
-67.229980
 21
-70.014832
  0
LINE
  8
0
 10
-70.229980
 20
-67.014832
 11
-70.229980
 21
-70.014832
  0
LINE
  8
0
 10
-74.229980
 20
-67.014832
 11
-74.229980
 21
-70.014832
  0
LINE
  8
0
 10
-67.729965
 20
-66.514832
 11
-62.729965
 21
-66.514832
  0
LINE
  8
0
 10
-67.229965
 20
-67.014832
 11
-63.229965
 21
-67.014832
  0
LINE
  8
0
 10
-67.229965
 20
-70.014832
 11
-63.229965
 21
-70.014832
  0
LINE
  8
0
 10
-67.729965
 20
-70.514832
 11
-62.729965
 21
-70.514832
  0
LINE
  8
0
 10
-74.729965
 20
-66.514832
 11
-69.729965
 21
-66.514832
  0
LINE
  8
0
 10
-76.729965
 20
-64.014832
 11
-48.729965
 21
-64.014832
  0
LINE
  8
0
 10
-67.729965
 20
-66.514832
 11
-62.729965
 21
-66.514832
  0
LINE
  8
0
 10
-78.229980
 20
-104.514832
 11
-78.229980
 21
-19.514832
  0
LINE
  8
0
 10
-78.729980
 20
-116.514832
 11
-46.729965
 21
-116.514832
  0
LINE
  8
0
 10
-78.729965
 20
-18.514832
 11
-46.729950
 21
-18.514832
  0
LINE
  8
0
 10
-78.729980
 20
-116.514832
 11
-78.729980
 21
-18.514832
  0
LINE
  8
0
 10
-46.729950
 20
-116.514832
 11
-46.729950
 21
-18.514832
  0
LINE
  8
0
  6
CENTER
 62
     2
 10
-62.729980
 20
-119.514832
 11
-62.729980
 21
-15.514832
  0
LINE
  8
0
 10
-77.595993
 20
-44.014832
 11
-47.863937
 21
-44.014832
  0
LINE
  8
0
 10
-77.729965
 20
-63.014832
 11
-47.729965
 21
-63.014832
  0
LINE
  8
0
 10
-75.979965
 20
-45.764832
 11
-49.479950
 21
-45.764832
  0
LINE
  8
0
 10
-75.979965
 20
-61.264832
 11
-49.479965
 21
-61.264832
  0
LINE
  8
0
 10
-75.979942
 20
-45.764805
 11
-77.595970
 21
-44.014797
  0
LINE
  8
0
 10
-49.479916
 20
-45.764881
 11
-47.863892
 21
-44.014885
  0
LINE
  8
0
 10
-49.479973
 20
-61.264809
 11
-47.729969
 21
-63.014816
  0
LINE
  8
0
 10
-75.979897
 20
-61.264858
 11
-77.729881
 21
-63.014843
  0
LINE
  8
0
 10
-66.729965
 20
-77.014832
 11
-58.729965
 21
-77.014832
  0
LINE
  8
0
 10
-47.229950
 20
-104.514832
 11
-47.229950
 21
-19.514832
  0
LINE
  8
0
 10
-72.729980
 20
-38.514832
 11
-72.729980
 21
-24.514832
  0
LINE
  8
0
 10
-57.002766
 20
-39.787663
 11
-54.457176
 21
-37.242073
  0
LINE
  8
0
 10
-54.457058
 20
-39.787590
 11
-57.002644
 21
-37.242001
  0
LINE
  8
0
 10
-57.002789
 20
-23.242119
 11
-54.457211
 21
-25.787697
  0
LINE
  8
0
 10
-54.457279
 20
-23.241966
 11
-57.002857
 21
-25.787544
  0
LINE
  8
0
 10
-68.457321
 20
-39.787777
 11
-71.002899
 21
-37.242199
  0
LINE
  8
0
 10
-71.002861
 20
-39.787552
 11
-68.457268
 21
-37.241962
  0
LINE
  8
0
 10
-68.457222
 20
-23.241957
 11
-71.002792
 21
-25.787523
  0
LINE
  8
0
 10
-71.002823
 20
-23.242060
 11
-68.457230
 21
-25.787651
  0
LINE
  8
0
  6
CENTER
 62
     2
 10
-75.704353
 20
-31.514832
 11
-49.548798
 21
-31.514832
  0
LINE
  8
0
 10
-113.871002
 20
-41.514832
 11
-113.871002
 21
-21.514832
  0
LINE
  8
0
 10
-113.023750
 20
-35.838879
 11
-113.871002
 21
-35.764755
  0
LINE
  8
0
 10
-113.023758
 20
-41.190609
 11
-113.871002
 21
-41.264732
  0
LINE
  8
0
 10
-113.023727
 20
-21.838816
 11
-113.870979
 21
-21.764690
  0
LINE
  8
0
 10
-113.023773
 20
-27.190645
 11
-113.871033
 21
-27.264772
  0
LINE
  8
0
 10
-103.871002
 20
-45.764832
 11
-103.871002
 21
-61.264832
  0
LINE
  8
0
 10
-105.370987
 20
-43.514832
 11
-127.371002
 21
-43.514832
  0
LINE
  8
0
 10
-105.371002
 20
-73.514832
 11
-127.371002
 21
-73.514832
  0
LINE
  8
0
 10
-105.371002
 20
-43.514832
 11
-105.371002
 21
-73.514832
  0
LINE
  8
0
 10
-118.371002
 20
-43.514832
 11
-118.371002
 21
-73.514832
  0
LINE
  8
0
 10
-122.371002
 20
-73.514832
 11
-122.371002
 21
-78.014847
  0
LINE
  8
0
 10
-114.371002
 20
-77.014832
 11
-114.371002
 21
-78.014832
  0
LINE
  8
0
 10
-118.371002
 20
-43.514832
 11
-118.371002
 21
-73.514832
  0
LINE
  8
0
 10
-123.371002
 20
-50.758850
 11
-123.371002
 21
-66.270813
  0
LINE
  8
0
 10
-119.371002
 20
-52.514832
 11
-119.371002
 21
-56.514832
  0
LINE
  8
0
 10
-122.658295
 20
-49.801025
 11
-119.083603
 21
-48.728619
  0
LINE
  8
0
 10
-122.658302
 20
-67.228500
 11
-119.083611
 21
-68.300903
  0
LINE
  8
0
 10
-119.371002
 20
-56.514832
 11
-121.871002
 21
-56.514832
  0
LINE
  8
0
 10
-119.371002
 20
-60.514832
 11
-121.871002
 21
-60.514832
  0
LINE
  8
0
 10
-119.371002
 20
-52.514832
 11
-121.871002
 21
-52.514832
  0
LINE
  8
0
 10
-119.371002
 20
-64.514832
 11
-121.871002
 21
-64.514832
  0
LINE
  8
0
 10
-121.871002
 20
-52.514832
 11
-121.871002
 21
-56.514832
  0
LINE
  8
0
 10
-119.371002
 20
-60.514832
 11
-119.371002
 21
-64.514847
  0
LINE
  8
0
 10
-121.871002
 20
-60.514832
 11
-121.871002
 21
-64.514847
  0
LINE
  8
0
 10
-104.871002
 20
-66.514832
 11
-105.371002
 21
-66.514832
  0
LINE
  8
0
 10
-103.871002
 20
-67.014832
 11
-103.871002
 21
-70.014832
  0
LINE
  8
0
 10
-104.871002
 20
-70.514832
 11
-105.371002
 21
-70.514832
  0
LINE
  8
0
 10
-105.371162
 20
-63.014656
 11
-103.871162
 21
-61.264698
  0
LINE
  8
0
 10
-103.870987
 20
-45.764858
 11
-105.370979
 21
-44.014889
  0
LINE
  8
0
 10
-114.371002
 20
-78.014832
 11
-122.371002
 21
-78.014832
  0
LINE
  8
0
 10
-114.371002
 20
-77.014832
 11
-121.371002
 21
-77.014832
  0
LINE
  8
0
 10
-121.371002
 20
-73.514832
 11
-121.371002
 21
-77.014847
  0
LINE
  8
0
 10
-114.871002
 20
-73.514832
 11
-114.871002
 21
-77.014832
  0
LINE
  8
0
 10
-103.871002
 20
-67.014832
 11
-104.871002
 21
-67.014832
  0
LINE
  8
0
 10
-103.871002
 20
-70.014832
 11
-104.871002
 21
-70.014832
  0
LINE
  8
0
 10
-104.871002
 20
-66.514832
 11
-104.871002
 21
-70.514832
  0
LINE
  8
0
 10
-120.371002
 20
-78.014847
 11
-120.371002
 21
-80.514847
  0
LINE
  8
0
 10
-116.371002
 20
-78.014832
 11
-116.371002
 21
-80.514832
  0
LINE
  8
0
 10
-120.871002
 20
-60.514832
 11
-120.871002
 21
-64.514847
  0
LINE
  8
0
 10
-120.871002
 20
-52.514832
 11
-120.871002
 21
-56.514832
  0
LINE
  8
0
 10
-123.370987
 20
-87.514832
 11
-127.370987
 21
-87.514832
  0
LINE
  8
0
 10
-123.371002
 20
-83.514832
 11
-127.371002
 21
-83.514832
  0
LINE
  8
0
 10
-127.370987
 20
-104.514832
 11
-142.370987
 21
-104.514832
  0
LINE
  8
0
 10
-127.371002
 20
-19.514832
 11
-137.371002
 21
-19.514832
  0
LINE
  8
0
 10
-113.870995
 20
-21.514832
 11
-127.371002
 21
-21.514832
  0
LINE
  8
0
 10
-113.870995
 20
-41.514832
 11
-127.371002
 21
-41.514832
  0
LINE
  8
0
 10
-127.371002
 20
-19.514832
 11
-127.371002
 21
-104.514832
  0
LINE
  8
0
 10
-137.371002
 20
-23.514832
 11
-142.871002
 21
-23.514832
  0
LINE
  8
0
 10
-137.371002
 20
-55.514832
 11
-142.871002
 21
-55.514832
  0
LINE
  8
0
 10
-142.871002
 20
-23.514832
 11
-142.871002
 21
-55.514847
  0
LINE
  8
0
 10
-137.371002
 20
-56.514832
 11
-142.371002
 21
-56.514832
  0
LINE
  8
0
 10
-137.371002
 20
-19.514832
 11
-137.371002
 21
-104.514847
  0
LINE
  8
0
 10
-142.370987
 20
-100.514832
 11
-143.370987
 21
-100.514832
  0
LINE
  8
0
 10
-142.370987
 20
-96.814850
 11
-143.370987
 21
-96.814850
  0
LINE
  8
0
 10
-142.370987
 20
-94.214844
 11
-143.370987
 21
-94.214844
  0
LINE
  8
0
 10
-142.370987
 20
-78.814850
 11
-143.370987
 21
-78.814850
  0
LINE
  8
0
 10
-142.370987
 20
-76.214844
 11
-143.370987
 21
-76.214844
  0
LINE
  8
0
 10
-142.370987
 20
-72.514832
 11
-143.370987
 21
-72.514832
  0
LINE
  8
0
 10
-142.371002
 20
-56.514847
 11
-142.371002
 21
-104.514847
  0
LINE
  8
0
 10
-115.871002
 20
-41.514832
 11
-115.871002
 21
-21.514832
  0
LINE
  8
0
 10
-116.871002
 20
-41.514832
 11
-116.871002
 21
-21.514832
  0
LINE
  8
0
 10
-46.729980
 20
-234.014832
 11
-78.729996
 21
-234.014832
  0
LINE
  8
0
 10
-46.729980
 20
-207.014832
 11
-78.729996
 21
-207.014832
  0
LINE
  8
0
 10
-78.729980
 20
-207.014832
 11
-78.729980
 21
-234.014832
  0
LINE
  8
0
 10
-46.729980
 20
-207.014832
 11
-46.729980
 21
-234.014832
  0
LINE
  8
0
 10
-47.229980
 20
-201.014832
 11
-78.229996
 21
-201.014832
  0
LINE
  8
0
 10
-78.229980
 20
-191.014832
 11
-78.229980
 21
-207.014832
  0
LINE
  8
0
 10
-47.229980
 20
-191.014832
 11
-47.229980
 21
-207.014832
  0
LINE
  8
0
 10
-47.229980
 20
-206.014832
 11
-48.229980
 21
-206.014832
  0
LINE
  8
0
 10
-77.229996
 20
-206.014832
 11
-78.229996
 21
-206.014832
  0
LINE
  8
0
 10
-47.229980
 20
-191.014832
 11
-78.229996
 21
-191.014832
  0
LINE
  8
0
 10
-77.729980
 20
-169.014847
 11
-77.729980
 21
-191.014832
  0
LINE
  8
0
 10
-47.729980
 20
-169.014847
 11
-47.729980
 21
-191.014832
  0
LINE
  8
0
 10
-47.729980
 20
-182.014832
 11
-58.729980
 21
-182.014832
  0
LINE
  8
0
 10
-47.729980
 20
-169.014832
 11
-77.729996
 21
-169.014832
  0
LINE
  8
0
 10
-49.229980
 20
-167.514832
 11
-76.229996
 21
-167.514832
  0
LINE
  8
0
 10
-66.729980
 20
-182.014832
 11
-77.729996
 21
-182.014832
  0
LINE
  8
0
 10
-47.729961
 20
-169.014832
 11
-49.229961
 21
-167.514832
  0
LINE
  8
0
 10
-76.230034
 20
-167.514786
 11
-77.730019
 21
-169.014786
  0
LINE
  8
0
 10
-60.229980
 20
-199.514832
 11
-65.229980
 21
-199.514832
  0
LINE
  8
0
 10
-60.229980
 20
-196.514832
 11
-65.229980
 21
-196.514832
  0
LINE
  8
0
 10
-60.229980
 20
-196.514832
 11
-60.229980
 21
-199.514832
  0
LINE
  8
0
 10
-65.229980
 20
-196.514832
 11
-65.229980
 21
-199.514832
  0
LINE
  8
0
 10
-60.229980
 20
-198.514832
 11
-65.229980
 21
-198.514832
  0
LINE
  8
0
  6
CENTER
 62
     2
 10
-62.729980
 20
-164.514832
 11
-62.729980
 21
-237.014832
  0
LINE
  8
0
 10
-66.729980
 20
-178.014832
 11
-58.729980
 21
-178.014832
  0
LINE
  8
0
 10
-66.729980
 20
-186.014832
 11
-64.729980
 21
-186.014832
  0
LINE
  8
0
 10
-58.729980
 20
-178.014832
 11
-58.729980
 21
-186.014832
  0
LINE
  8
0
 10
-66.729980
 20
-178.014832
 11
-66.729980
 21
-186.014832
  0
LINE
  8
0
 10
-60.729980
 20
-182.014832
 11
-60.729980
 21
-191.014832
  0
LINE
  8
0
 10
-64.729980
 20
-182.014832
 11
-64.729980
 21
-191.014832
  0
LINE
  8
0
 10
-60.729980
 20
-186.014832
 11
-58.729980
 21
-186.014832
  0
LINE
  8
0
 10
-67.229950
 20
-167.514832
 11
-67.229950
 21
-168.514832
  0
LINE
  8
0
 10
-63.229950
 20
-167.514832
 11
-63.229950
 21
-168.514832
  0
LINE
  8
0
 10
-62.729950
 20
-168.514832
 11
-62.729950
 21
-169.014832
  0
LINE
  8
0
 10
-67.729950
 20
-168.514832
 11
-67.729950
 21
-169.014832
  0
LINE
  8
0
 10
-67.729965
 20
-168.514832
 11
-62.729965
 21
-168.514832
  0
LINE
  8
0
 10
-67.229965
 20
-167.514832
 11
-63.229965
 21
-167.514832
  0
LINE
  8
0
 10
-74.229950
 20
-167.514832
 11
-74.229950
 21
-168.514832
  0
LINE
  8
0
 10
-70.229950
 20
-167.514832
 11
-70.229950
 21
-168.514832
  0
LINE
  8
0
 10
-69.729950
 20
-168.514832
 11
-69.729950
 21
-169.014832
  0
LINE
  8
0
 10
-74.729950
 20
-168.514847
 11
-74.729950
 21
-169.014847
  0
LINE
  8
0
 10
-74.729965
 20
-168.514832
 11
-69.729965
 21
-168.514832
  0
LINE
  8
0
 10
-74.229965
 20
-167.514832
 11
-70.229965
 21
-167.514832
  0
LINE
  8
0
 10
-47.229980
 20
-206.014832
 11
-78.229996
 21
-206.014832
  0
LINE
  8
0
 10
125.207520
 20
-19.514832
 11
156.207520
 21
-19.514832
  0
LINE
  8
0
 10
125.207520
 20
-104.514832
 11
156.207520
 21
-104.514832
  0
LINE
  8
0
 10
133.707489
 20
-41.514832
 11
147.707520
 21
-41.514832
  0
LINE
  8
0
 10
133.707489
 20
-21.514832
 11
147.707520
 21
-21.514832
  0
LINE
  8
0
 10
150.707520
 20
-38.514832
 11
150.707520
 21
-24.514832
  0
LINE
  8
0
 10
145.852875
 20
-87.341690
 11
143.178421
 21
-78.014740
  0
LINE
  8
0
 10
151.620468
 20
-85.687859
 11
148.129898
 21
-73.514786
  0
LINE
  8
0
 10
138.707520
 20
-85.514832
 11
138.707520
 21
-78.014832
  0
LINE
  8
0
 10
142.707520
 20
-85.514832
 11
142.707520
 21
-78.014832
  0
LINE
  8
0
 10
136.707520
 20
-78.014832
 11
136.707520
 21
-73.514832
  0
LINE
  8
0
 10
144.707520
 20
-78.014832
 11
144.707520
 21
-73.514832
  0
LINE
  8
0
 10
126.707520
 20
-43.514832
 11
154.707520
 21
-43.514832
  0
LINE
  8
0
 10
126.707520
 20
-73.514832
 11
154.707520
 21
-73.514832
  0
LINE
  8
0
 10
125.707520
 20
-72.514832
 11
125.707520
 21
-44.514832
  0
LINE
  8
0
 10
155.707520
 20
-72.514832
 11
155.707520
 21
-44.514832
  0
LINE
  8
0
 10
136.707520
 20
-78.014832
 11
144.707520
 21
-78.014832
  0
LINE
  8
0
 10
125.707520
 20
-63.514832
 11
155.707520
 21
-63.514832
  0
LINE
  8
0
 10
127.457520
 20
-61.264832
 11
127.457520
 21
-45.764832
  0
LINE
  8
0
 10
153.957520
 20
-61.264832
 11
153.957520
 21
-45.764832
  0
LINE
  8
0
 10
130.207520
 20
-49.764832
 11
151.207520
 21
-49.764832
  0
LINE
  8
0
 10
130.207520
 20
-57.264832
 11
151.207520
 21
-57.264832
  0
LINE
  8
0
 10
151.207520
 20
-57.264832
 11
151.207520
 21
-49.764832
  0
LINE
  8
0
 10
130.207520
 20
-57.264832
 11
130.207520
 21
-49.764832
  0
LINE
  8
0
 10
129.707520
 20
-63.014832
 11
129.707520
 21
-60.014832
  0
LINE
  8
0
 10
132.707520
 20
-63.014832
 11
132.707520
 21
-60.014832
  0
LINE
  8
0
 10
129.707520
 20
-60.014832
 11
132.707520
 21
-60.014832
  0
LINE
  8
0
 10
143.207520
 20
-60.764832
 11
151.207520
 21
-60.764832
  0
LINE
  8
0
 10
143.207520
 20
-57.764832
 11
151.207520
 21
-57.764832
  0
LINE
  8
0
 10
151.207520
 20
-60.764832
 11
151.207520
 21
-57.764832
  0
LINE
  8
0
 10
143.207520
 20
-60.764832
 11
143.207520
 21
-57.764832
  0
LINE
  8
0
 10
126.707520
 20
-64.014832
 11
126.707520
 21
-73.014847
  0
LINE
  8
0
 10
154.707520
 20
-64.014832
 11
154.707520
 21
-73.014832
  0
LINE
  8
0
 10
126.707520
 20
-73.014832
 11
154.707520
 21
-73.014832
  0
LINE
  8
0
 10
128.707520
 20
-66.514832
 11
128.707520
 21
-70.514832
  0
LINE
  8
0
 10
133.707520
 20
-66.514832
 11
133.707520
 21
-70.514832
  0
LINE
  8
0
 10
135.707520
 20
-66.514832
 11
135.707520
 21
-70.514832
  0
LINE
  8
0
 10
140.707520
 20
-66.514832
 11
140.707520
 21
-70.514832
  0
LINE
  8
0
 10
129.207520
 20
-67.014832
 11
133.207520
 21
-67.014832
  0
LINE
  8
0
 10
129.207520
 20
-70.014832
 11
133.207520
 21
-70.014832
  0
LINE
  8
0
 10
128.707520
 20
-66.514832
 11
133.707520
 21
-66.514832
  0
LINE
  8
0
 10
128.707520
 20
-70.514832
 11
133.707520
 21
-70.514832
  0
LINE
  8
0
 10
140.207520
 20
-67.014832
 11
140.207520
 21
-70.014832
  0
LINE
  8
0
 10
136.207520
 20
-67.014832
 11
136.207520
 21
-70.014832
  0
LINE
  8
0
 10
133.207520
 20
-67.014832
 11
133.207520
 21
-70.014832
  0
LINE
  8
0
 10
129.207520
 20
-67.014832
 11
129.207520
 21
-70.014832
  0
LINE
  8
0
 10
135.707520
 20
-66.514832
 11
140.707520
 21
-66.514832
  0
LINE
  8
0
 10
136.207520
 20
-67.014832
 11
140.207520
 21
-67.014832
  0
LINE
  8
0
 10
136.207520
 20
-70.014832
 11
140.207520
 21
-70.014832
  0
LINE
  8
0
 10
135.707520
 20
-70.514832
 11
140.707520
 21
-70.514832
  0
LINE
  8
0
 10
128.707520
 20
-66.514832
 11
133.707520
 21
-66.514832
  0
LINE
  8
0
 10
126.707520
 20
-64.014832
 11
154.707520
 21
-64.014832
  0
LINE
  8
0
 10
135.707520
 20
-66.514832
 11
140.707520
 21
-66.514832
  0
LINE
  8
0
 10
125.207520
 20
-104.514832
 11
125.207520
 21
-19.514832
  0
LINE
  8
0
 10
124.707489
 20
-116.514832
 11
156.707520
 21
-116.514832
  0
LINE
  8
0
 10
124.707520
 20
-18.514832
 11
156.707520
 21
-18.514832
  0
LINE
  8
0
 10
124.707520
 20
-116.514832
 11
124.707520
 21
-18.514832
  0
LINE
  8
0
 10
156.707520
 20
-116.514832
 11
156.707520
 21
-18.514832
  0
LINE
  8
0
  6
CENTER
 62
     2
 10
140.707520
 20
-119.514832
 11
140.707520
 21
-15.514832
  0
LINE
  8
0
 10
125.841492
 20
-44.014832
 11
155.573547
 21
-44.014832
  0
LINE
  8
0
 10
125.707520
 20
-63.014832
 11
155.707520
 21
-63.014832
  0
LINE
  8
0
 10
127.457520
 20
-45.764832
 11
153.957520
 21
-45.764832
  0
LINE
  8
0
 10
127.457520
 20
-61.264832
 11
153.957520
 21
-61.264832
  0
LINE
  8
0
 10
127.457825
 20
-45.764576
 11
125.841782
 21
-44.014561
  0
LINE
  8
0
 10
153.957352
 20
-45.764709
 11
155.573364
 21
-44.014725
  0
LINE
  8
0
 10
153.957458
 20
-61.264896
 11
155.707458
 21
-63.014904
  0
LINE
  8
0
 10
127.457352
 20
-61.264786
 11
125.707344
 21
-63.014793
  0
LINE
  8
0
 10
136.707520
 20
-77.014832
 11
144.707520
 21
-77.014832
  0
LINE
  8
0
 10
156.207520
 20
-104.514832
 11
156.207520
 21
-19.514832
  0
LINE
  8
0
 10
130.707520
 20
-38.514832
 11
130.707520
 21
-24.514832
  0
LINE
  8
0
 10
146.434586
 20
-39.787537
 11
148.980194
 21
-37.241932
  0
LINE
  8
0
 10
148.980408
 20
-39.787476
 11
146.434830
 21
-37.241909
  0
LINE
  8
0
 10
146.434601
 20
-23.242167
 11
148.980148
 21
-25.787722
  0
LINE
  8
0
 10
148.980515
 20
-23.242220
 11
146.434937
 21
-25.787809
  0
LINE
  8
0
 10
134.980011
 20
-39.787914
 11
132.434448
 21
-37.242348
  0
LINE
  8
0
 10
132.434952
 20
-39.787792
 11
134.980545
 21
-37.242203
  0
LINE
  8
0
 10
134.980423
 20
-23.242264
 11
132.434860
 21
-25.787838
  0
LINE
  8
0
 10
132.434601
 20
-23.242138
 11
134.980164
 21
-25.787706
  0
LINE
  8
0
  6
CENTER
 62
     2
 10
127.733124
 20
-31.514832
 11
153.888672
 21
-31.514832
  0
LINE
  8
0
 10
73.266464
 20
-41.514832
 11
73.266464
 21
-21.514832
  0
LINE
  8
0
 10
74.113770
 20
-35.838936
 11
73.266510
 21
-35.764812
  0
LINE
  8
0
 10
74.113777
 20
-41.190720
 11
73.266548
 21
-41.264839
  0
LINE
  8
0
 10
74.113724
 20
-21.838888
 11
73.266495
 21
-21.764767
  0
LINE
  8
0
 10
74.113777
 20
-27.190733
 11
73.266472
 21
-27.264862
  0
LINE
  8
0
 10
83.266464
 20
-45.764832
 11
83.266464
 21
-61.264832
  0
LINE
  8
0
 10
81.766464
 20
-43.514832
 11
59.766468
 21
-43.514832
  0
LINE
  8
0
 10
81.766464
 20
-73.514832
 11
59.766468
 21
-73.514832
  0
LINE
  8
0
 10
81.766464
 20
-43.514832
 11
81.766464
 21
-73.514832
  0
LINE
  8
0
 10
68.766464
 20
-43.514832
 11
68.766464
 21
-73.514832
  0
LINE
  8
0
 10
64.766464
 20
-73.514832
 11
64.766464
 21
-78.014847
  0
LINE
  8
0
 10
72.766464
 20
-77.014832
 11
72.766464
 21
-78.014832
  0
LINE
  8
0
 10
68.766464
 20
-43.514832
 11
68.766464
 21
-73.514832
  0
LINE
  8
0
 10
63.766468
 20
-50.758850
 11
63.766468
 21
-66.270813
  0
LINE
  8
0
 10
67.766464
 20
-52.514832
 11
67.766464
 21
-56.514832
  0
LINE
  8
0
 10
64.479164
 20
-49.801052
 11
68.053848
 21
-48.728645
  0
LINE
  8
0
 10
64.479126
 20
-67.228607
 11
68.053818
 21
-68.301018
  0
LINE
  8
0
 10
67.766464
 20
-56.514832
 11
65.266464
 21
-56.514832
  0
LINE
  8
0
 10
67.766464
 20
-60.514832
 11
65.266464
 21
-60.514832
  0
LINE
  8
0
 10
67.766464
 20
-52.514832
 11
65.266464
 21
-52.514832
  0
LINE
  8
0
 10
67.766464
 20
-64.514832
 11
65.266464
 21
-64.514832
  0
LINE
  8
0
 10
65.266464
 20
-52.514832
 11
65.266464
 21
-56.514832
  0
LINE
  8
0
 10
67.766464
 20
-60.514832
 11
67.766464
 21
-64.514847
  0
LINE
  8
0
 10
65.266464
 20
-60.514832
 11
65.266464
 21
-64.514847
  0
LINE
  8
0
 10
82.266464
 20
-66.514832
 11
81.766464
 21
-66.514832
  0
LINE
  8
0
 10
83.266464
 20
-67.014832
 11
83.266464
 21
-70.014832
  0
LINE
  8
0
 10
82.266464
 20
-70.514832
 11
81.766464
 21
-70.514832
  0
LINE
  8
0
 10
81.766655
 20
-63.014927
 11
83.266640
 21
-61.264980
  0
LINE
  8
0
 10
83.266403
 20
-45.764950
 11
81.766403
 21
-44.014969
  0
LINE
  8
0
 10
72.766464
 20
-78.014832
 11
64.766464
 21
-78.014832
  0
LINE
  8
0
 10
72.766464
 20
-77.014832
 11
65.766464
 21
-77.014832
  0
LINE
  8
0
 10
65.766464
 20
-73.514832
 11
65.766464
 21
-77.014847
  0
LINE
  8
0
 10
72.266464
 20
-73.514832
 11
72.266464
 21
-77.014832
  0
LINE
  8
0
 10
83.266464
 20
-67.014832
 11
82.266464
 21
-67.014832
  0
LINE
  8
0
 10
83.266464
 20
-70.014832
 11
82.266464
 21
-70.014832
  0
LINE
  8
0
 10
82.266464
 20
-66.514832
 11
82.266464
 21
-70.514832
  0
LINE
  8
0
 10
66.766464
 20
-78.014847
 11
66.766464
 21
-80.514847
  0
LINE
  8
0
 10
70.766464
 20
-78.014832
 11
70.766464
 21
-80.514832
  0
LINE
  8
0
 10
66.266464
 20
-60.514832
 11
66.266464
 21
-64.514847
  0
LINE
  8
0
 10
66.266464
 20
-52.514832
 11
66.266464
 21
-56.514832
  0
LINE
  8
0
 10
63.766468
 20
-87.514832
 11
59.766468
 21
-87.514832
  0
LINE
  8
0
 10
63.766468
 20
-83.514832
 11
59.766468
 21
-83.514832
  0
LINE
  8
0
 10
59.766468
 20
-104.514832
 11
44.766468
 21
-104.514832
  0
LINE
  8
0
 10
59.766468
 20
-19.514832
 11
49.766468
 21
-19.514832
  0
LINE
  8
0
 10
73.266464
 20
-21.514832
 11
59.766468
 21
-21.514832
  0
LINE
  8
0
 10
73.266464
 20
-41.514832
 11
59.766468
 21
-41.514832
  0
LINE
  8
0
 10
59.766468
 20
-19.514832
 11
59.766468
 21
-104.514832
  0
LINE
  8
0
 10
49.766468
 20
-23.514832
 11
44.266468
 21
-23.514832
  0
LINE
  8
0
 10
49.766468
 20
-55.514832
 11
44.266468
 21
-55.514832
  0
LINE
  8
0
 10
44.266468
 20
-23.514832
 11
44.266468
 21
-55.514847
  0
LINE
  8
0
 10
49.766468
 20
-56.514832
 11
44.766468
 21
-56.514832
  0
LINE
  8
0
 10
49.766468
 20
-19.514832
 11
49.766468
 21
-104.514847
  0
LINE
  8
0
 10
44.766468
 20
-100.514832
 11
43.766468
 21
-100.514832
  0
LINE
  8
0
 10
44.766468
 20
-96.814850
 11
43.766468
 21
-96.814850
  0
LINE
  8
0
 10
44.766468
 20
-94.214844
 11
43.766468
 21
-94.214844
  0
LINE
  8
0
 10
44.766468
 20
-78.814850
 11
43.766468
 21
-78.814850
  0
LINE
  8
0
 10
44.766468
 20
-76.214844
 11
43.766468
 21
-76.214844
  0
LINE
  8
0
 10
44.766468
 20
-72.514832
 11
43.766468
 21
-72.514832
  0
LINE
  8
0
 10
44.766468
 20
-56.514847
 11
44.766468
 21
-104.514847
  0
LINE
  8
0
 10
71.266464
 20
-41.514832
 11
71.266464
 21
-21.514832
  0
LINE
  8
0
 10
70.266464
 20
-41.514832
 11
70.266464
 21
-21.514832
  0
LINE
  8
0
  6
CENTER
 62
     2
 10
64.398697
 20
-31.514832
 11
124.027008
 21
-31.514832
  0
LINE
  8
0
 10
84.766464
 20
-38.814835
 11
75.766464
 21
-38.814835
  0
LINE
  8
0
 10
84.766464
 20
-24.214828
 11
75.766464
 21
-24.214828
  0
LINE
  8
0
 10
75.766464
 20
-24.214828
 11
75.766464
 21
-38.814835
  0
LINE
  8
0
 10
75.266464
 20
-24.714832
 11
75.766457
 21
-24.214838
  0
LINE
  8
0
 10
75.266472
 20
-38.314838
 11
75.766464
 21
-38.814831
  0
LINE
  8
0
 10
85.266464
 20
-24.714828
 11
85.266464
 21
-38.314835
  0
LINE
  8
0
 10
84.766464
 20
-24.214828
 11
84.766464
 21
-38.814835
  0
LINE
  8
0
 10
85.266449
 20
-24.714815
 11
84.766434
 21
-24.214804
  0
LINE
  8
0
 10
85.266418
 20
-38.314789
 11
84.766418
 21
-38.814789
  0
LINE
  8
0
 10
85.766464
 20
-24.714828
 11
85.766464
 21
-38.314835
  0
LINE
  8
0
 10
86.266464
 20
-25.214828
 11
86.266464
 21
-37.814835
  0
LINE
  8
0
 10
85.766464
 20
-24.714828
 11
85.266464
 21
-24.714828
  0
LINE
  8
0
 10
85.766464
 20
-38.314835
 11
85.266464
 21
-38.314835
  0
LINE
  8
0
 10
85.766441
 20
-24.714809
 11
86.266434
 21
-25.214800
  0
LINE
  8
0
 10
85.766464
 20
-38.314816
 11
86.266464
 21
-37.814812
  0
LINE
  8
0
 10
87.266464
 20
-24.514832
 11
87.266464
 21
-38.514832
  0
LINE
  8
0
 10
87.266464
 20
-36.014832
 11
86.266464
 21
-36.014832
  0
LINE
  8
0
 10
87.266464
 20
-27.014832
 11
86.266464
 21
-27.014832
  0
LINE
  8
0
 10
105.466469
 20
-24.514832
 11
87.266464
 21
-24.514832
  0
LINE
  8
0
 10
117.966461
 20
-25.514832
 11
117.966461
 21
-37.514832
  0
LINE
  8
0
 10
116.966461
 20
-24.514832
 11
116.966461
 21
-38.514832
  0
LINE
  8
0
 10
117.966400
 20
-25.514874
 11
116.966400
 21
-24.514872
  0
LINE
  8
0
 10
117.966339
 20
-37.514717
 11
116.966339
 21
-38.514717
  0
LINE
  8
0
 10
105.466469
 20
-38.514832
 11
87.266464
 21
-38.514832
  0
LINE
  8
0
 10
106.466461
 20
-24.514832
 11
106.466461
 21
-38.514832
  0
LINE
  8
0
 10
105.966461
 20
-25.014832
 11
105.966461
 21
-38.014832
  0
LINE
  8
0
 10
105.466461
 20
-24.514832
 11
105.466461
 21
-38.514832
  0
LINE
  8
0
 10
106.466469
 20
-24.514832
 11
116.966461
 21
-24.514832
  0
LINE
  8
0
 10
106.466469
 20
-38.514832
 11
116.966461
 21
-38.514832
  0
LINE
  8
0
 10
105.466469
 20
-24.514812
 11
105.966476
 21
-25.014824
  0
LINE
  8
0
 10
105.966484
 20
-38.014805
 11
106.466484
 21
-38.514805
  0
LINE
  8
0
 10
105.466507
 20
-38.514893
 11
105.966507
 21
-38.014893
  0
LINE
  8
0
 10
105.966522
 20
-25.014906
 11
106.466522
 21
-24.514906
  0
LINE
  8
0
 10
117.966461
 20
-30.014832
 11
122.966461
 21
-30.014832
  0
LINE
  8
0
 10
117.966461
 20
-33.014832
 11
122.966461
 21
-33.014832
  0
LINE
  8
0
 10
75.266464
 20
-24.714828
 11
75.266464
 21
-38.314835
  0
LINE
  8
0
 10
75.266464
 20
-26.514832
 11
74.873871
 21
-26.514832
  0
LINE
  8
0
 10
75.266464
 20
-36.514832
 11
74.873871
 21
-36.514832
  0
LINE
  8
0
 10
156.707489
 20
-234.014832
 11
124.707458
 21
-234.014832
  0
LINE
  8
0
 10
156.707489
 20
-207.014832
 11
124.707458
 21
-207.014832
  0
LINE
  8
0
 10
124.707520
 20
-207.014832
 11
124.707520
 21
-234.014832
  0
LINE
  8
0
 10
156.707520
 20
-207.014832
 11
156.707520
 21
-234.014832
  0
LINE
  8
0
 10
156.207489
 20
-201.014832
 11
125.207458
 21
-201.014832
  0
LINE
  8
0
 10
125.207520
 20
-191.014832
 11
125.207520
 21
-207.014832
  0
LINE
  8
0
 10
156.207520
 20
-191.014832
 11
156.207520
 21
-207.014832
  0
LINE
  8
0
 10
156.207489
 20
-206.014832
 11
155.207489
 21
-206.014832
  0
LINE
  8
0
 10
126.207458
 20
-206.014832
 11
125.207458
 21
-206.014832
  0
LINE
  8
0
 10
156.207489
 20
-191.014832
 11
125.207458
 21
-191.014832
  0
LINE
  8
0
 10
125.707520
 20
-169.014847
 11
125.707520
 21
-191.014832
  0
LINE
  8
0
 10
155.707520
 20
-169.014847
 11
155.707520
 21
-191.014832
  0
LINE
  8
0
 10
155.707489
 20
-182.014832
 11
144.707489
 21
-182.014832
  0
LINE
  8
0
 10
155.707489
 20
-169.014832
 11
125.707458
 21
-169.014832
  0
LINE
  8
0
 10
154.207489
 20
-167.514832
 11
127.207458
 21
-167.514832
  0
LINE
  8
0
 10
136.707489
 20
-182.014832
 11
125.707458
 21
-182.014832
  0
LINE
  8
0
 10
155.707581
 20
-169.014862
 11
154.207565
 21
-167.514847
  0
LINE
  8
0
 10
127.207260
 20
-167.514664
 11
125.707275
 21
-169.014664
  0
LINE
  8
0
 10
143.207489
 20
-199.514832
 11
138.207489
 21
-199.514832
  0
LINE
  8
0
 10
143.207489
 20
-196.514832
 11
138.207489
 21
-196.514832
  0
LINE
  8
0
 10
143.207520
 20
-196.514832
 11
143.207520
 21
-199.514832
  0
LINE
  8
0
 10
138.207520
 20
-196.514832
 11
138.207520
 21
-199.514832
  0
LINE
  8
0
 10
143.207489
 20
-198.514832
 11
138.207489
 21
-198.514832
  0
LINE
  8
0
  6
CENTER
 62
     2
 10
140.707520
 20
-125.256989
 11
140.707520
 21
-237.014832
  0
LINE
  8
0
 10
136.707489
 20
-178.014832
 11
144.707489
 21
-178.014832
  0
LINE
  8
0
 10
136.707489
 20
-186.014832
 11
138.707489
 21
-186.014832
  0
LINE
  8
0
 10
144.707520
 20
-178.014832
 11
144.707520
 21
-186.014832
  0
LINE
  8
0
 10
136.707520
 20
-178.014832
 11
136.707520
 21
-186.014832
  0
LINE
  8
0
 10
142.707520
 20
-182.014832
 11
142.707520
 21
-191.014832
  0
LINE
  8
0
 10
138.707520
 20
-182.014832
 11
138.707520
 21
-191.014832
  0
LINE
  8
0
 10
142.707489
 20
-186.014832
 11
144.707489
 21
-186.014832
  0
LINE
  8
0
 10
136.207520
 20
-167.514832
 11
136.207520
 21
-168.514832
  0
LINE
  8
0
 10
140.207520
 20
-167.514832
 11
140.207520
 21
-168.514832
  0
LINE
  8
0
 10
140.707520
 20
-168.514832
 11
140.707520
 21
-169.014832
  0
LINE
  8
0
 10
135.707520
 20
-168.514832
 11
135.707520
 21
-169.014832
  0
LINE
  8
0
 10
135.707520
 20
-168.514832
 11
140.707520
 21
-168.514832
  0
LINE
  8
0
 10
136.207520
 20
-167.514832
 11
140.207520
 21
-167.514832
  0
LINE
  8
0
 10
129.207520
 20
-167.514832
 11
129.207520
 21
-168.514832
  0
LINE
  8
0
 10
133.207520
 20
-167.514832
 11
133.207520
 21
-168.514832
  0
LINE
  8
0
 10
133.707520
 20
-168.514832
 11
133.707520
 21
-169.014832
  0
LINE
  8
0
 10
128.707520
 20
-168.514847
 11
128.707520
 21
-169.014847
  0
LINE
  8
0
 10
128.707520
 20
-168.514832
 11
133.707520
 21
-168.514832
  0
LINE
  8
0
 10
129.207520
 20
-167.514832
 11
133.207520
 21
-167.514832
  0
LINE
  8
0
 10
156.207489
 20
-206.014832
 11
125.207458
 21
-206.014832
  0
LINE
  8
0
 10
148.007523
 20
-166.014832
 11
148.007523
 21
-167.514832
  0
LINE
  8
0
 10
133.407516
 20
-166.014832
 11
133.407516
 21
-167.514832
  0
LINE
  8
0
 10
133.907516
 20
-165.514832
 11
147.507523
 21
-165.514832
  0
LINE
  8
0
 10
133.407516
 20
-166.014832
 11
148.007523
 21
-166.014832
  0
LINE
  8
0
 10
133.907501
 20
-165.514816
 11
133.407486
 21
-166.014832
  0
LINE
  8
0
 10
147.507477
 20
-165.514862
 11
148.007477
 21
-166.014862
  0
LINE
  8
0
 10
133.907516
 20
-165.014832
 11
147.507523
 21
-165.014832
  0
LINE
  8
0
 10
134.407516
 20
-164.514832
 11
147.007523
 21
-164.514832
  0
LINE
  8
0
 10
133.907516
 20
-165.014832
 11
133.907516
 21
-165.514832
  0
LINE
  8
0
 10
147.507523
 20
-165.014832
 11
147.507523
 21
-165.514832
  0
LINE
  8
0
 10
133.907501
 20
-165.014832
 11
134.407486
 21
-164.514832
  0
LINE
  8
0
 10
147.507523
 20
-165.014832
 11
147.007507
 21
-164.514832
  0
LINE
  8
0
 10
133.707520
 20
-163.514832
 11
147.707520
 21
-163.514832
  0
LINE
  8
0
 10
145.207520
 20
-163.514832
 11
145.207520
 21
-164.514832
  0
LINE
  8
0
 10
136.207520
 20
-163.514832
 11
136.207520
 21
-164.514832
  0
LINE
  8
0
 10
133.707520
 20
-145.314819
 11
133.707520
 21
-163.514832
  0
LINE
  8
0
 10
134.707520
 20
-132.814835
 11
146.707520
 21
-132.814835
  0
LINE
  8
0
 10
133.707520
 20
-133.814835
 11
147.707520
 21
-133.814835
  0
LINE
  8
0
 10
134.707474
 20
-132.814804
 11
133.707474
 21
-133.814804
  0
LINE
  8
0
 10
146.707413
 20
-132.814896
 11
147.707413
 21
-133.814896
  0
LINE
  8
0
 10
147.707520
 20
-145.314819
 11
147.707520
 21
-163.514832
  0
LINE
  8
0
 10
133.707520
 20
-144.314835
 11
147.707520
 21
-144.314835
  0
LINE
  8
0
 10
134.207520
 20
-144.814835
 11
147.207520
 21
-144.814835
  0
LINE
  8
0
 10
133.707520
 20
-145.314835
 11
147.707520
 21
-145.314835
  0
LINE
  8
0
 10
133.707520
 20
-144.314819
 11
133.707520
 21
-133.814819
  0
LINE
  8
0
 10
147.707520
 20
-144.314819
 11
147.707520
 21
-133.814819
  0
LINE
  8
0
 10
133.707520
 20
-145.314835
 11
134.207535
 21
-144.814835
  0
LINE
  8
0
 10
147.207535
 20
-144.814865
 11
147.707535
 21
-144.314865
  0
LINE
  8
0
 10
147.707596
 20
-145.314804
 11
147.207596
 21
-144.814804
  0
LINE
  8
0
 10
134.207611
 20
-144.814789
 11
133.707596
 21
-144.314789
  0
LINE
  8
0
 10
139.207520
 20
-132.814819
 11
139.207520
 21
-127.814819
  0
LINE
  8
0
 10
142.207520
 20
-132.814819
 11
142.207520
 21
-127.814819
  0
LINE
  8
0
 10
320.544983
 20
-24.514832
 11
329.044983
 21
-24.514832
  0
LINE
  8
0
 10
320.544983
 20
-109.514832
 11
351.544983
 21
-109.514832
  0
LINE
  8
0
 10
329.044983
 20
-46.514832
 11
343.044983
 21
-46.514832
  0
LINE
  8
0
 10
346.044983
 20
-43.514832
 11
346.044983
 21
-29.514832
  0
LINE
  8
0
 10
341.190643
 20
-92.341583
 11
338.516205
 21
-83.014664
  0
LINE
  8
0
 10
346.958221
 20
-90.687691
 11
343.467651
 21
-78.514626
  0
LINE
  8
0
 10
334.044983
 20
-90.514832
 11
334.044983
 21
-83.014832
  0
LINE
  8
0
 10
338.044983
 20
-90.514832
 11
338.044983
 21
-83.014832
  0
LINE
  8
0
 10
332.044983
 20
-83.014832
 11
332.044983
 21
-78.514832
  0
LINE
  8
0
 10
340.044983
 20
-83.014832
 11
340.044983
 21
-78.514832
  0
LINE
  8
0
 10
322.044983
 20
-48.514832
 11
350.045044
 21
-48.514832
  0
LINE
  8
0
 10
322.044983
 20
-78.514832
 11
350.044983
 21
-78.514832
  0
LINE
  8
0
 10
321.044983
 20
-77.514832
 11
321.044983
 21
-49.514832
  0
LINE
  8
0
 10
351.045044
 20
-77.514832
 11
351.045044
 21
-49.514832
  0
LINE
  8
0
 10
332.044983
 20
-83.014832
 11
340.044983
 21
-83.014832
  0
LINE
  8
0
 10
321.044983
 20
-68.514832
 11
351.044983
 21
-68.514832
  0
LINE
  8
0
 10
322.794983
 20
-66.264832
 11
322.794983
 21
-50.764832
  0
LINE
  8
0
 10
349.295044
 20
-66.264832
 11
349.295044
 21
-50.764832
  0
LINE
  8
0
 10
325.544983
 20
-54.764832
 11
346.544983
 21
-54.764832
  0
LINE
  8
0
 10
325.544983
 20
-62.264832
 11
346.544983
 21
-62.264832
  0
LINE
  8
0
 10
346.544983
 20
-62.264832
 11
346.544983
 21
-54.764832
  0
LINE
  8
0
 10
325.544983
 20
-62.264832
 11
325.544983
 21
-54.764832
  0
LINE
  8
0
 10
325.044983
 20
-68.014832
 11
325.044983
 21
-65.014832
  0
LINE
  8
0
 10
328.044983
 20
-68.014832
 11
328.044983
 21
-65.014832
  0
LINE
  8
0
 10
325.044983
 20
-65.014832
 11
328.044983
 21
-65.014832
  0
LINE
  8
0
 10
338.544983
 20
-65.764832
 11
346.544983
 21
-65.764832
  0
LINE
  8
0
 10
338.544983
 20
-62.764832
 11
346.544983
 21
-62.764832
  0
LINE
  8
0
 10
346.544983
 20
-65.764832
 11
346.544983
 21
-62.764832
  0
LINE
  8
0
 10
338.544983
 20
-65.764832
 11
338.544983
 21
-62.764832
  0
LINE
  8
0
 10
322.044983
 20
-69.014832
 11
322.044983
 21
-78.014847
  0
LINE
  8
0
 10
350.045044
 20
-69.014832
 11
350.045044
 21
-78.014832
  0
LINE
  8
0
 10
322.044983
 20
-78.014832
 11
350.045044
 21
-78.014832
  0
LINE
  8
0
 10
324.044983
 20
-71.514832
 11
324.044983
 21
-75.514832
  0
LINE
  8
0
 10
329.044983
 20
-71.514832
 11
329.044983
 21
-75.514832
  0
LINE
  8
0
 10
331.044983
 20
-71.514832
 11
331.044983
 21
-75.514832
  0
LINE
  8
0
 10
336.044983
 20
-71.514832
 11
336.044983
 21
-75.514832
  0
LINE
  8
0
 10
324.544983
 20
-72.014832
 11
328.544983
 21
-72.014832
  0
LINE
  8
0
 10
324.544983
 20
-75.014832
 11
328.544983
 21
-75.014832
  0
LINE
  8
0
 10
324.044983
 20
-71.514832
 11
329.044983
 21
-71.514832
  0
LINE
  8
0
 10
324.044983
 20
-75.514832
 11
329.044983
 21
-75.514832
  0
LINE
  8
0
 10
335.544983
 20
-72.014832
 11
335.544983
 21
-75.014832
  0
LINE
  8
0
 10
331.544983
 20
-72.014832
 11
331.544983
 21
-75.014832
  0
LINE
  8
0
 10
328.544983
 20
-72.014832
 11
328.544983
 21
-75.014832
  0
LINE
  8
0
 10
324.544983
 20
-72.014832
 11
324.544983
 21
-75.014832
  0
LINE
  8
0
 10
331.044983
 20
-71.514832
 11
336.044983
 21
-71.514832
  0
LINE
  8
0
 10
331.544983
 20
-72.014832
 11
335.544983
 21
-72.014832
  0
LINE
  8
0
 10
331.544983
 20
-75.014832
 11
335.544983
 21
-75.014832
  0
LINE
  8
0
 10
331.044983
 20
-75.514832
 11
336.044983
 21
-75.514832
  0
LINE
  8
0
 10
324.044983
 20
-71.514832
 11
329.044983
 21
-71.514832
  0
LINE
  8
0
 10
322.044983
 20
-69.014832
 11
350.044983
 21
-69.014832
  0
LINE
  8
0
 10
331.044983
 20
-71.514832
 11
336.044983
 21
-71.514832
  0
LINE
  8
0
 10
320.544983
 20
-109.514832
 11
320.544983
 21
-24.514832
  0
LINE
  8
0
 10
320.044983
 20
-121.514832
 11
352.044983
 21
-121.514832
  0
LINE
  8
0
 10
320.044983
 20
-23.514832
 11
329.044983
 21
-23.514832
  0
LINE
  8
0
 10
320.044983
 20
-121.514832
 11
320.044983
 21
-23.514832
  0
LINE
  8
0
 10
352.045044
 20
-121.514832
 11
352.045044
 21
-23.514832
  0
LINE
  8
0
  6
CENTER
 62
     2
 10
336.044983
 20
-124.514832
 11
336.044983
 21
-7.514832
  0
LINE
  8
0
 10
321.178955
 20
-49.014832
 11
350.911011
 21
-49.014832
  0
LINE
  8
0
 10
321.044983
 20
-68.014832
 11
351.044983
 21
-68.014832
  0
LINE
  8
0
 10
322.794983
 20
-50.764832
 11
349.295044
 21
-50.764832
  0
LINE
  8
0
 10
322.794983
 20
-66.264832
 11
349.294983
 21
-66.264832
  0
LINE
  8
0
 10
322.795776
 20
-50.764217
 11
321.179718
 21
-49.014179
  0
LINE
  8
0
 10
349.294647
 20
-50.764568
 11
350.910675
 21
-49.014568
  0
LINE
  8
0
 10
349.294891
 20
-66.265007
 11
351.044891
 21
-68.014992
  0
LINE
  8
0
 10
322.794678
 20
-66.264694
 11
321.044678
 21
-68.014679
  0
LINE
  8
0
 10
332.044983
 20
-82.014832
 11
340.044983
 21
-82.014832
  0
LINE
  8
0
 10
351.545044
 20
-109.514832
 11
351.545044
 21
-24.514832
  0
LINE
  8
0
 10
326.044983
 20
-43.514832
 11
326.044983
 21
-29.514832
  0
LINE
  8
0
 10
341.771942
 20
-44.787426
 11
344.317535
 21
-42.241859
  0
LINE
  8
0
 10
344.318054
 20
-44.787346
 11
341.772461
 21
-42.241734
  0
LINE
  8
0
 10
330.317139
 20
-44.788315
 11
327.771576
 21
-42.242744
  0
LINE
  8
0
 10
327.772491
 20
-44.787975
 11
330.318085
 21
-42.242367
  0
LINE
  8
0
 10
329.045013
 20
-29.515320
 11
327.772491
 21
-30.787834
  0
LINE
  8
0
 10
327.771973
 20
-28.242264
 11
329.044983
 21
-29.515285
  0
LINE
  8
0
  6
CENTER
 62
     2
 10
323.070618
 20
-36.514832
 11
349.226196
 21
-36.514832
  0
LINE
  8
0
 10
330.045044
 20
-13.514832
 11
342.045044
 21
-13.514832
  0
LINE
  8
0
 10
329.045044
 20
-14.514832
 11
343.045044
 21
-14.514832
  0
LINE
  8
0
 10
330.044403
 20
-13.514404
 11
329.044434
 21
-14.514383
  0
LINE
  8
0
 10
342.044312
 20
-13.515658
 11
343.044342
 21
-14.515680
  0
LINE
  8
0
 10
329.044983
 20
-25.014832
 11
329.044983
 21
-14.514832
  0
LINE
  8
0
 10
343.044983
 20
-25.014832
 11
343.044983
 21
-14.514832
  0
LINE
  8
0
 10
329.044983
 20
-36.514832
 11
329.044983
 21
-26.014832
  0
LINE
  8
0
 10
329.545044
 20
-25.514832
 11
342.545044
 21
-25.514832
  0
LINE
  8
0
 10
329.045044
 20
-26.014832
 11
343.045044
 21
-26.014832
  0
LINE
  8
0
 10
329.045166
 20
-26.015095
 11
329.545166
 21
-25.515104
  0
LINE
  8
0
 10
342.545258
 20
-25.515137
 11
343.045258
 21
-25.015148
  0
LINE
  8
0
 10
343.045380
 20
-26.014486
 11
342.545380
 21
-25.514498
  0
LINE
  8
0
 10
329.545288
 20
-25.514517
 11
329.045288
 21
-25.014526
  0
LINE
  8
0
 10
329.045044
 20
-25.014832
 11
343.045044
 21
-25.014832
  0
LINE
  8
0
 10
337.544983
 20
-13.514832
 11
337.544983
 21
-8.514832
  0
LINE
  8
0
 10
334.544983
 20
-13.514832
 11
334.544983
 21
-8.514832
  0
LINE
  8
0
 10
343.044983
 20
-23.514832
 11
352.044983
 21
-23.514832
  0
LINE
  8
0
 10
343.044983
 20
-24.514832
 11
351.544983
 21
-24.514832
  0
LINE
  8
0
 10
343.044983
 20
-36.514832
 11
343.044983
 21
-26.014832
  0
LINE
  8
0
 10
344.317993
 20
-28.242239
 11
343.044952
 21
-29.515261
  0
LINE
  8
0
 10
343.045044
 20
-29.515284
 11
344.317535
 21
-30.787798
  0
LINE
  8
0
 10
274.903992
 20
-46.514832
 11
274.903992
 21
-26.514832
  0
LINE
  8
0
 10
275.751160
 20
-40.838921
 11
274.903870
 21
-40.764793
  0
LINE
  8
0
 10
275.751282
 20
-46.190758
 11
274.904053
 21
-46.264881
  0
LINE
  8
0
 10
275.751190
 20
-26.838894
 11
274.903961
 21
-26.764772
  0
LINE
  8
0
 10
275.751129
 20
-32.190712
 11
274.903870
 21
-32.264835
  0
LINE
  8
0
 10
284.903931
 20
-50.764832
 11
284.903931
 21
-66.264832
  0
LINE
  8
0
 10
283.403992
 20
-48.514832
 11
261.403961
 21
-48.514832
  0
LINE
  8
0
 10
283.403961
 20
-78.514832
 11
261.403961
 21
-78.514832
  0
LINE
  8
0
 10
283.403931
 20
-48.514832
 11
283.403931
 21
-78.514832
  0
LINE
  8
0
 10
270.403931
 20
-48.514832
 11
270.403931
 21
-78.514832
  0
LINE
  8
0
 10
266.403931
 20
-78.514832
 11
266.403931
 21
-83.014847
  0
LINE
  8
0
 10
274.403931
 20
-82.014832
 11
274.403931
 21
-83.014832
  0
LINE
  8
0
 10
270.403931
 20
-48.514832
 11
270.403931
 21
-78.514832
  0
LINE
  8
0
 10
265.403931
 20
-55.758850
 11
265.403931
 21
-71.270813
  0
LINE
  8
0
 10
269.403931
 20
-57.514832
 11
269.403931
 21
-61.514832
  0
LINE
  8
0
 10
266.116730
 20
-54.801048
 11
269.691437
 21
-53.728634
  0
LINE
  8
0
 10
266.116760
 20
-72.228546
 11
269.691498
 21
-73.300964
  0
LINE
  8
0
 10
269.403961
 20
-61.514832
 11
266.903961
 21
-61.514832
  0
LINE
  8
0
 10
269.403961
 20
-65.514832
 11
266.903961
 21
-65.514832
  0
LINE
  8
0
 10
269.403961
 20
-57.514832
 11
266.903961
 21
-57.514832
  0
LINE
  8
0
 10
269.403961
 20
-69.514832
 11
266.903961
 21
-69.514832
  0
LINE
  8
0
 10
266.903931
 20
-57.514832
 11
266.903931
 21
-61.514832
  0
LINE
  8
0
 10
269.403931
 20
-65.514832
 11
269.403931
 21
-69.514847
  0
LINE
  8
0
 10
266.903931
 20
-65.514832
 11
266.903931
 21
-69.514847
  0
LINE
  8
0
 10
283.903961
 20
-71.514832
 11
283.403961
 21
-71.514832
  0
LINE
  8
0
 10
284.903931
 20
-72.014832
 11
284.903931
 21
-75.014832
  0
LINE
  8
0
 10
283.903961
 20
-75.514832
 11
283.403961
 21
-75.514832
  0
LINE
  8
0
 10
283.404510
 20
-68.015343
 11
284.904510
 21
-66.265366
  0
LINE
  8
0
 10
284.903595
 20
-50.765083
 11
283.403595
 21
-49.015102
  0
LINE
  8
0
 10
274.403961
 20
-83.014832
 11
266.403961
 21
-83.014832
  0
LINE
  8
0
 10
274.403961
 20
-82.014832
 11
267.403961
 21
-82.014832
  0
LINE
  8
0
 10
267.403931
 20
-78.514832
 11
267.403931
 21
-82.014847
  0
LINE
  8
0
 10
273.903931
 20
-78.514832
 11
273.903931
 21
-82.014832
  0
LINE
  8
0
 10
284.903961
 20
-72.014832
 11
283.903961
 21
-72.014832
  0
LINE
  8
0
 10
284.903961
 20
-75.014832
 11
283.903961
 21
-75.014832
  0
LINE
  8
0
 10
283.903931
 20
-71.514832
 11
283.903931
 21
-75.514832
  0
LINE
  8
0
 10
268.403931
 20
-83.014847
 11
268.403931
 21
-85.514847
  0
LINE
  8
0
 10
272.403931
 20
-83.014832
 11
272.403931
 21
-85.514832
  0
LINE
  8
0
 10
267.903931
 20
-65.514832
 11
267.903931
 21
-69.514847
  0
LINE
  8
0
 10
267.903931
 20
-57.514832
 11
267.903931
 21
-61.514832
  0
LINE
  8
0
 10
265.403992
 20
-92.514832
 11
261.403992
 21
-92.514832
  0
LINE
  8
0
 10
265.403961
 20
-88.514832
 11
261.403961
 21
-88.514832
  0
LINE
  8
0
 10
261.403992
 20
-109.514832
 11
246.403992
 21
-109.514832
  0
LINE
  8
0
 10
261.403961
 20
-24.514832
 11
251.403961
 21
-24.514832
  0
LINE
  8
0
 10
274.903992
 20
-26.514832
 11
261.403961
 21
-26.514832
  0
LINE
  8
0
 10
274.903992
 20
-46.514832
 11
261.403961
 21
-46.514832
  0
LINE
  8
0
 10
261.403931
 20
-24.514832
 11
261.403931
 21
-109.514832
  0
LINE
  8
0
 10
251.403961
 20
-28.514832
 11
245.903961
 21
-28.514832
  0
LINE
  8
0
 10
251.403961
 20
-60.514832
 11
245.903961
 21
-60.514832
  0
LINE
  8
0
 10
245.903931
 20
-28.514832
 11
245.903931
 21
-60.514847
  0
LINE
  8
0
 10
251.403961
 20
-61.514832
 11
246.403961
 21
-61.514832
  0
LINE
  8
0
 10
251.403931
 20
-24.514832
 11
251.403931
 21
-109.514847
  0
LINE
  8
0
 10
246.403992
 20
-105.514832
 11
245.403992
 21
-105.514832
  0
LINE
  8
0
 10
246.403992
 20
-101.814850
 11
245.403992
 21
-101.814850
  0
LINE
  8
0
 10
246.403992
 20
-99.214844
 11
245.403992
 21
-99.214844
  0
LINE
  8
0
 10
246.403992
 20
-83.814850
 11
245.403992
 21
-83.814850
  0
LINE
  8
0
 10
246.403992
 20
-81.214844
 11
245.403992
 21
-81.214844
  0
LINE
  8
0
 10
246.403992
 20
-77.514832
 11
245.403992
 21
-77.514832
  0
LINE
  8
0
 10
246.403931
 20
-61.514847
 11
246.403931
 21
-109.514847
  0
LINE
  8
0
 10
272.903931
 20
-46.514832
 11
272.903931
 21
-26.514832
  0
LINE
  8
0
 10
271.903931
 20
-46.514832
 11
271.903931
 21
-26.514832
  0
LINE
  8
0
  6
CENTER
 62
     2
 10
311.424683
 20
-36.514832
 11
258.747192
 21
-36.514832
  0
LINE
  8
0
 10
286.403992
 20
-29.214828
 11
277.403992
 21
-29.214828
  0
LINE
  8
0
 10
286.403992
 20
-43.814835
 11
277.403992
 21
-43.814835
  0
LINE
  8
0
 10
277.403992
 20
-43.814835
 11
277.403992
 21
-29.214828
  0
LINE
  8
0
 10
276.903931
 20
-43.314842
 11
277.403931
 21
-43.814842
  0
LINE
  8
0
 10
276.903992
 20
-29.714842
 11
277.403961
 21
-29.214851
  0
LINE
  8
0
 10
286.903992
 20
-43.314835
 11
286.903992
 21
-29.714828
  0
LINE
  8
0
 10
286.403992
 20
-43.814835
 11
286.403992
 21
-29.214828
  0
LINE
  8
0
 10
286.903900
 20
-43.314762
 11
286.403931
 21
-43.814751
  0
LINE
  8
0
 10
286.903900
 20
-29.714907
 11
286.403900
 21
-29.214920
  0
LINE
  8
0
 10
287.403992
 20
-43.314835
 11
287.403992
 21
-29.714828
  0
LINE
  8
0
 10
287.903992
 20
-42.814835
 11
287.903992
 21
-30.214828
  0
LINE
  8
0
 10
287.403992
 20
-43.314835
 11
286.903992
 21
-43.314835
  0
LINE
  8
0
 10
287.403992
 20
-29.714828
 11
286.903992
 21
-29.714828
  0
LINE
  8
0
 10
287.403992
 20
-43.314838
 11
287.904022
 21
-42.814823
  0
LINE
  8
0
 10
287.403931
 20
-29.714863
 11
287.903931
 21
-30.214863
  0
LINE
  8
0
 10
288.903992
 20
-43.514832
 11
288.903992
 21
-29.514832
  0
LINE
  8
0
 10
288.903992
 20
-32.014832
 11
287.903992
 21
-32.014832
  0
LINE
  8
0
 10
288.903992
 20
-41.014832
 11
287.903992
 21
-41.014832
  0
LINE
  8
0
 10
301.604004
 20
-43.514832
 11
288.903992
 21
-43.514832
  0
LINE
  8
0
 10
294.604004
 20
-29.514832
 11
288.903992
 21
-29.514832
  0
LINE
  8
0
 10
299.270660
 20
-33.514896
 11
294.603973
 21
-29.514893
  0
LINE
  8
0
  6
CENTER
 62
     2
 10
301.604004
 20
-46.551224
 11
301.604004
 21
-6.004517
  0
LINE
  8
0
 10
308.604004
 20
-36.514832
 11
308.604004
 21
-26.014832
  0
LINE
  8
0
 10
294.604004
 20
-29.514832
 11
294.604004
 21
-26.014832
  0
LINE
  8
0
 10
307.604004
 20
-13.514832
 11
295.604004
 21
-13.514832
  0
LINE
  8
0
 10
308.604004
 20
-14.514832
 11
294.604004
 21
-14.514832
  0
LINE
  8
0
 10
307.603851
 20
-13.515055
 11
308.603851
 21
-14.515056
  0
LINE
  8
0
 10
295.604065
 20
-13.514850
 11
294.604065
 21
-14.514851
  0
LINE
  8
0
 10
308.604004
 20
-25.014832
 11
294.604004
 21
-25.014832
  0
LINE
  8
0
 10
308.104004
 20
-25.514832
 11
295.104004
 21
-25.514832
  0
LINE
  8
0
 10
308.604004
 20
-26.014832
 11
294.604004
 21
-26.014832
  0
LINE
  8
0
 10
308.604004
 20
-25.014832
 11
308.604004
 21
-14.514832
  0
LINE
  8
0
 10
294.604004
 20
-25.014832
 11
294.604004
 21
-14.514832
  0
LINE
  8
0
 10
308.603973
 20
-26.014832
 11
308.103973
 21
-25.514830
  0
LINE
  8
0
 10
295.103973
 20
-25.514809
 11
294.603973
 21
-25.014818
  0
LINE
  8
0
 10
294.603973
 20
-26.014830
 11
295.103973
 21
-25.514847
  0
LINE
  8
0
 10
308.103973
 20
-25.514809
 11
308.603943
 21
-25.014818
  0
LINE
  8
0
 10
276.903992
 20
-43.314835
 11
276.903992
 21
-29.714828
  0
LINE
  8
0
 10
276.903992
 20
-41.514832
 11
276.511414
 21
-41.514832
  0
LINE
  8
0
 10
276.903992
 20
-31.514832
 11
276.511414
 21
-31.514832
  0
LINE
  8
0
 10
303.104004
 20
-13.514832
 11
303.104004
 21
-8.514832
  0
LINE
  8
0
 10
300.104004
 20
-13.514832
 11
300.104004
 21
-8.514832
  0
LINE
  8
0
 10
352.044983
 20
-229.014832
 11
320.044983
 21
-229.014832
  0
LINE
  8
0
 10
352.044983
 20
-202.014832
 11
320.044983
 21
-202.014832
  0
LINE
  8
0
 10
320.044983
 20
-202.014832
 11
320.044983
 21
-229.014832
  0
LINE
  8
0
 10
352.044983
 20
-202.014832
 11
352.044983
 21
-229.014832
  0
LINE
  8
0
 10
351.544983
 20
-196.014832
 11
320.544983
 21
-196.014832
  0
LINE
  8
0
 10
320.544983
 20
-186.014832
 11
320.544983
 21
-202.014832
  0
LINE
  8
0
 10
351.544983
 20
-186.014832
 11
351.544983
 21
-202.014832
  0
LINE
  8
0
 10
351.544983
 20
-201.014832
 11
350.544983
 21
-201.014832
  0
LINE
  8
0
 10
321.544983
 20
-201.014832
 11
320.544983
 21
-201.014832
  0
LINE
  8
0
 10
351.544983
 20
-186.014832
 11
320.544983
 21
-186.014832
  0
LINE
  8
0
 10
321.044983
 20
-164.014847
 11
321.044983
 21
-186.014832
  0
LINE
  8
0
 10
351.044983
 20
-164.014847
 11
351.044983
 21
-186.014832
  0
LINE
  8
0
 10
351.044983
 20
-177.014832
 11
340.044983
 21
-177.014832
  0
LINE
  8
0
 10
351.044983
 20
-164.014832
 11
321.044983
 21
-164.014832
  0
LINE
  8
0
 10
349.544983
 20
-162.514832
 11
322.544983
 21
-162.514832
  0
LINE
  8
0
 10
332.044983
 20
-177.014832
 11
321.044983
 21
-177.014832
  0
LINE
  8
0
 10
351.044861
 20
-164.014999
 11
349.544861
 21
-162.514984
  0
LINE
  8
0
 10
322.544586
 20
-162.514465
 11
321.044586
 21
-164.014481
  0
LINE
  8
0
 10
338.544983
 20
-194.514832
 11
333.544983
 21
-194.514832
  0
LINE
  8
0
 10
338.544983
 20
-191.514832
 11
333.544983
 21
-191.514832
  0
LINE
  8
0
 10
338.544983
 20
-191.514832
 11
338.544983
 21
-194.514832
  0
LINE
  8
0
 10
333.544983
 20
-191.514832
 11
333.544983
 21
-194.514832
  0
LINE
  8
0
 10
338.544983
 20
-193.514832
 11
333.544983
 21
-193.514832
  0
LINE
  8
0
 10
332.044983
 20
-173.014832
 11
340.044983
 21
-173.014832
  0
LINE
  8
0
 10
332.044983
 20
-181.014832
 11
334.044983
 21
-181.014832
  0
LINE
  8
0
 10
340.044983
 20
-173.014832
 11
340.044983
 21
-181.014832
  0
LINE
  8
0
 10
332.044983
 20
-173.014832
 11
332.044983
 21
-181.014832
  0
LINE
  8
0
 10
338.044983
 20
-177.014832
 11
338.044983
 21
-186.014832
  0
LINE
  8
0
 10
334.044983
 20
-177.014832
 11
334.044983
 21
-186.014832
  0
LINE
  8
0
 10
338.044983
 20
-181.014832
 11
340.044983
 21
-181.014832
  0
LINE
  8
0
 10
331.545044
 20
-162.514832
 11
331.545044
 21
-163.514832
  0
LINE
  8
0
 10
335.545044
 20
-162.514832
 11
335.545044
 21
-163.514832
  0
LINE
  8
0
 10
336.045044
 20
-163.514832
 11
336.045044
 21
-164.014832
  0
LINE
  8
0
 10
331.045044
 20
-163.514832
 11
331.045044
 21
-164.014832
  0
LINE
  8
0
 10
331.044983
 20
-163.514832
 11
336.044983
 21
-163.514832
  0
LINE
  8
0
 10
331.544983
 20
-162.514832
 11
335.544983
 21
-162.514832
  0
LINE
  8
0
 10
324.545044
 20
-162.514832
 11
324.545044
 21
-163.514832
  0
LINE
  8
0
 10
328.545044
 20
-162.514832
 11
328.545044
 21
-163.514832
  0
LINE
  8
0
 10
329.045044
 20
-163.514832
 11
329.045044
 21
-164.014832
  0
LINE
  8
0
 10
324.045044
 20
-163.514847
 11
324.045044
 21
-164.014847
  0
LINE
  8
0
 10
324.044983
 20
-163.514832
 11
329.044983
 21
-163.514832
  0
LINE
  8
0
 10
324.544983
 20
-162.514832
 11
328.544983
 21
-162.514832
  0
LINE
  8
0
 10
351.544983
 20
-201.014832
 11
320.544983
 21
-201.014832
  0
LINE
  8
0
  6
CENTER
 62
     2
 10
336.044983
 20
-136.326508
 11
336.044983
 21
-232.209503
  0
LINE
  8
0
 10
343.345001
 20
-161.014832
 11
343.345001
 21
-162.514832
  0
LINE
  8
0
 10
328.744995
 20
-161.014832
 11
328.744995
 21
-162.514832
  0
LINE
  8
0
 10
329.244995
 20
-160.514832
 11
342.845001
 21
-160.514832
  0
LINE
  8
0
 10
328.744995
 20
-161.014832
 11
343.345001
 21
-161.014832
  0
LINE
  8
0
 10
329.244965
 20
-160.514786
 11
328.744965
 21
-161.014771
  0
LINE
  8
0
 10
342.844940
 20
-160.514923
 11
343.344910
 21
-161.014908
  0
LINE
  8
0
 10
329.244995
 20
-160.014832
 11
342.845001
 21
-160.014832
  0
LINE
  8
0
 10
329.744995
 20
-159.514832
 11
342.345001
 21
-159.514832
  0
LINE
  8
0
 10
329.244995
 20
-160.014832
 11
329.244995
 21
-160.514832
  0
LINE
  8
0
 10
342.845001
 20
-160.014832
 11
342.845001
 21
-160.514832
  0
LINE
  8
0
 10
329.244965
 20
-160.014832
 11
329.744965
 21
-159.514816
  0
LINE
  8
0
 10
342.844910
 20
-160.014893
 11
342.344940
 21
-159.514908
  0
LINE
  8
0
 10
329.044983
 20
-158.514832
 11
343.044983
 21
-158.514832
  0
LINE
  8
0
 10
340.544983
 20
-158.514832
 11
340.544983
 21
-159.514832
  0
LINE
  8
0
 10
331.544983
 20
-158.514832
 11
331.544983
 21
-159.514832
  0
LINE
  8
0
 10
329.044983
 20
-145.814819
 11
329.044983
 21
-158.514832
  0
LINE
  8
0
 10
343.044983
 20
-145.814819
 11
343.044983
 21
-158.514832
  0
LINE
  8
0
  6
CENTER
 62
     2
 10
326.743805
 20
-145.814819
 11
344.794983
 21
-145.814819
  0
CIRCLE
  8
0
 62
     2
 10
-148.737381
 20
164.659103
 40
6.578500
  0
CIRCLE
  8
0
 10
-148.737381
 20
164.659103
 40
5.722500
  0
ARC
  8
0
 10
-146.237381
 20
198.659134
 40
1.500000
 50
270.000000
 51
0.000000
  0
ARC
  8
0
 10
-151.237396
 20
198.659134
 40
1.500000
 50
180.000000
 51
270.000000
  0
ARC
  8
0
 10
-151.237396
 20
230.659119
 40
1.500000
 50
90.000000
 51
180.000000
  0
ARC
  8
0
 10
-160.237396
 20
245.135803
 40
3.099993
 50
278.548737
 51
0.000000
  0
ARC
  8
0
 10
-146.237381
 20
230.659119
 40
1.500000
 50
0.000000
 51
90.000000
  0
ARC
  8
0
 10
-137.237381
 20
245.135803
 40
3.100006
 50
180.000000
 51
261.451324
  0
ARC
  8
0
 10
-138.887390
 20
234.159119
 40
8.000000
 50
0.000000
 51
81.451340
  0
ARC
  8
0
 10
-158.587402
 20
234.159119
 40
7.999995
 50
98.548546
 51
180.000000
  0
ARC
  8
0
 10
-251.318863
 20
153.159119
 40
1.865601
 50
270.000000
 51
272.000031
  0
ARC
  8
0
 10
-239.603271
 20
234.159119
 40
8.000000
 50
0.000000
 51
81.451340
  0
ARC
  8
0
 10
-259.303284
 20
234.159119
 40
7.999995
 50
98.548546
 51
180.000000
  0
ARC
  8
0
 10
-237.953278
 20
245.135803
 40
3.100006
 50
180.000000
 51
261.451324
  0
ARC
  8
0
 10
-260.953278
 20
245.135803
 40
3.099993
 50
278.548737
 51
0.000000
  0
CIRCLE
  8
0
 62
     4
 10
-158.737396
 20
53.234142
 40
2.886753
  0
CIRCLE
  8
0
 62
     4
 10
-158.737396
 20
53.234142
 40
2.500000
  0
CIRCLE
  8
0
 62
     1
 10
-158.737396
 20
53.234138
 40
5.767960
  0
CIRCLE
  8
0
 62
     4
 10
-158.737396
 20
53.234138
 40
6.608810
  0
CIRCLE
  8
0
 62
     1
 10
175.953247
 20
154.659119
 40
4.283000
  0
CIRCLE
  8
0
 62
     4
 10
175.953247
 20
154.659119
 40
4.864000
  0
CIRCLE
  8
0
 62
     4
 10
175.953247
 20
154.659119
 40
2.500000
  0
CIRCLE
  8
0
 62
     4
 10
175.953247
 20
154.659119
 40
2.886751
  0
ARC
  8
0
 10
175.953262
 20
183.659134
 40
5.250000
 50
180.000000
 51
0.000000
  0
ARC
  8
0
 10
180.203262
 20
183.659134
 40
1.000000
 50
0.000000
 51
90.000000
  0
ARC
  8
0
 10
171.703262
 20
183.659134
 40
1.000000
 50
90.000000
 51
180.000000
  0
ARC
  8
0
 10
190.953262
 20
205.659134
 40
1.000000
 50
180.000000
 51
270.000000
  0
ARC
  8
0
 10
160.953262
 20
205.659119
 40
1.000000
 50
270.000000
 51
0.000000
  0
CIRCLE
  8
0
 62
     2
 10
175.953262
 20
183.659134
 40
6.578500
  0
CIRCLE
  8
0
 10
175.953262
 20
183.659134
 40
5.722500
  0
ARC
  8
0
 10
167.253250
 20
252.659134
 40
1.000000
 50
90.000000
 51
180.000000
  0
ARC
  8
0
 10
164.953262
 20
215.759125
 40
4.999996
 50
60.507481
 51
119.492279
  0
ARC
  8
0
 10
184.653259
 20
252.659149
 40
1.000000
 50
0.000000
 51
90.000000
  0
ARC
  8
0
 10
167.086594
 20
219.530945
 40
0.666672
 50
0.000000
 51
60.507732
  0
ARC
  8
0
 10
162.819931
 20
219.530945
 40
0.666661
 50
119.492271
 51
180.000000
  0
ARC
  8
0
 10
186.953247
 20
215.759125
 40
5.000002
 50
60.507717
 51
119.492279
  0
ARC
  8
0
 10
189.086578
 20
219.530960
 40
0.666672
 50
0.000000
 51
60.507732
  0
ARC
  8
0
 10
184.819916
 20
219.530960
 40
0.666661
 50
119.492271
 51
180.000000
  0
ARC
  8
0
 10
188.953262
 20
219.659134
 40
1.000000
 50
0.000000
 51
90.000000
  0
ARC
  8
0
 10
162.953262
 20
219.659119
 40
1.000000
 50
90.000000
 51
180.000000
  0
ARC
  8
0
 10
182.953262
 20
219.659134
 40
1.000000
 50
0.000000
 51
90.000000
  0
ARC
  8
0
 10
168.953262
 20
219.659119
 40
1.000000
 50
90.000000
 51
180.000000
  0
ARC
  8
0
 10
188.953262
 20
216.659134
 40
1.000000
 50
0.000000
 51
90.000000
  0
ARC
  8
0
 10
162.953262
 20
216.659119
 40
1.000000
 50
90.000000
 51
180.000000
  0
ARC
  8
0
 10
99.953247
 20
215.759125
 40
5.000002
 50
60.507717
 51
119.492355
  0
ARC
  8
0
 10
102.086578
 20
219.530945
 40
0.666664
 50
0.000000
 51
60.507732
  0
ARC
  8
0
 10
97.819916
 20
219.530945
 40
0.666661
 50
119.492271
 51
180.000000
  0
ARC
  8
0
 10
101.953255
 20
219.659119
 40
1.000000
 50
0.000000
 51
90.000000
  0
ARC
  8
0
 10
75.953262
 20
219.659119
 40
1.000000
 50
90.000000
 51
180.000000
  0
ARC
  8
0
 10
95.953255
 20
219.659119
 40
1.000000
 50
0.000000
 51
90.000000
  0
ARC
  8
0
 10
81.953262
 20
219.659119
 40
1.000000
 50
90.000000
 51
180.000000
  0
ARC
  8
0
 10
101.953255
 20
216.659119
 40
1.000000
 50
0.000000
 51
90.000000
  0
ARC
  8
0
 10
75.953262
 20
216.659119
 40
1.000000
 50
90.000000
 51
180.000000
  0
ARC
  8
0
 10
75.819931
 20
219.530945
 40
0.666661
 50
119.492271
 51
180.000000
  0
ARC
  8
0
 10
80.086609
 20
219.530945
 40
0.666664
 50
0.000000
 51
60.507160
  0
ARC
  8
0
 10
77.953270
 20
215.759125
 40
4.999996
 50
60.507481
 51
119.492279
  0
ARC
  8
0
 10
103.953255
 20
205.659119
 40
1.000000
 50
180.000000
 51
270.000000
  0
ARC
  8
0
 10
73.953262
 20
205.659119
 40
1.000000
 50
270.000000
 51
0.000000
  0
ARC
  8
0
 10
97.653252
 20
252.659134
 40
1.000000
 50
0.000000
 51
90.000000
  0
ARC
  8
0
 10
80.253250
 20
252.659134
 40
1.000000
 50
90.000000
 51
180.000000
  0
CIRCLE
  8
0
 62
     1
 10
163.953278
 20
53.234146
 40
5.767960
  0
CIRCLE
  8
0
 62
     4
 10
163.953278
 20
53.234146
 40
6.608810
  0
CIRCLE
  8
0
 62
     4
 10
163.953278
 20
53.234150
 40
2.886753
  0
CIRCLE
  8
0
 62
     4
 10
163.953278
 20
53.234150
 40
2.500000
  0
CIRCLE
  8
0
 62
     4
 10
272.758270
 20
189.823761
 40
10.500000
  0
CIRCLE
  8
0
 62
     4
 10
272.758270
 20
189.823761
 40
10.900002
  0
CIRCLE
  8
0
 62
     4
 10
278.758270
 20
77.714020
 40
10.500000
  0
CIRCLE
  8
0
 62
     4
 10
278.758270
 20
77.714020
 40
10.899994
  0
ARC
  8
0
 10
-253.100037
 20
-49.014832
 40
0.500000
 50
0.000000
 51
90.000000
  0
ARC
  8
0
 10
-255.400024
 20
-49.014832
 40
0.500000
 50
90.000000
 51
180.000000
  0
ARC
  8
0
 10
-255.400024
 20
-78.014832
 40
0.500000
 50
180.000000
 51
270.000000
  0
ARC
  8
0
 10
-253.100037
 20
-78.014832
 40
0.500000
 50
270.000000
 51
0.000000
  0
ARC
  8
0
 10
-255.599976
 20
-50.814850
 40
0.199997
 50
180.000000
 51
270.000000
  0
ARC
  8
0
 10
-252.900024
 20
-50.814850
 40
0.200001
 50
270.000000
 51
0.000000
  0
ARC
  8
0
 10
-255.599976
 20
-49.214844
 40
0.200001
 50
90.000000
 51
180.000000
  0
ARC
  8
0
 10
-252.900024
 20
-49.214844
 40
0.199997
 50
0.000000
 51
90.000000
  0
ARC
  8
0
 10
-259.750000
 20
-100.514832
 40
3.500000
 50
0.000000
 51
83.620682
  0
ARC
  8
0
 10
-259.250000
 20
-96.042694
 40
1.000000
 50
180.000000
 51
263.620422
  0
CIRCLE
  8
0
 10
-254.250000
 20
-116.014862
 40
2.750000
  0
CIRCLE
  8
0
 10
-254.250000
 20
-116.014862
 40
2.000000
  0
CIRCLE
  8
0
 10
-254.250000
 20
-116.014862
 40
1.750000
  0
CIRCLE
  8
0
 10
-254.250000
 20
-116.014862
 40
1.500000
  0
CIRCLE
  8
0
 10
-254.250000
 20
-116.014862
 40
0.750000
  0
ARC
  8
0
 62
     4
 10
-250.700012
 20
-34.299133
 40
1.500006
 50
240.000137
 51
299.999847
  0
ARC
  8
0
 62
     4
 10
-250.700012
 20
-36.897217
 40
1.500006
 50
60.000141
 51
119.999855
  0
ARC
  8
0
 62
     4
 10
-249.200012
 20
-36.897217
 40
1.500006
 50
60.000141
 51
119.999855
  0
CIRCLE
  8
0
 62
     4
 10
-254.250000
 20
-130.014862
 40
2.500000
  0
CIRCLE
  8
0
 62
     4
 10
-254.250000
 20
-130.014862
 40
2.886751
  0
CIRCLE
  8
0
 62
     1
 10
-254.250000
 20
-130.014862
 40
4.283000
  0
CIRCLE
  8
0
 62
     4
 10
-254.250000
 20
-130.014862
 40
4.864000
  0
ARC
  8
0
 10
-324.250000
 20
-116.014862
 40
5.000004
 50
23.578156
 51
33.367085
  0
ARC
  8
0
 10
-324.250000
 20
-116.014862
 40
4.999990
 50
326.632904
 51
336.421844
  0
ARC
  8
0
 10
-324.250000
 20
-116.014862
 40
4.999989
 50
342.542358
 51
351.373047
  0
ARC
  8
0
 10
-324.250000
 20
-116.014862
 40
4.999990
 50
8.626943
 51
17.457561
  0
ARC
  8
0
 10
-55.729980
 20
-38.514832
 40
3.000000
 50
270.000000
 51
0.000000
  0
ARC
  8
0
 10
-55.729980
 20
-24.514832
 40
3.000000
 50
0.000036
 51
90.000000
  0
ARC
  8
0
 10
-54.701080
 20
-86.514832
 40
3.000000
 50
196.000000
 51
15.999996
  0
ARC
  8
0
 10
-62.729980
 20
-85.514832
 40
2.000000
 50
180.000000
 51
0.000000
  0
ARC
  8
0
 10
-76.729980
 20
-44.514832
 40
1.000000
 50
90.000000
 51
180.000000
  0
ARC
  8
0
 10
-76.729980
 20
-72.514832
 40
1.000000
 50
180.000000
 51
270.000000
  0
ARC
  8
0
 10
-48.729980
 20
-72.514832
 40
1.000000
 50
270.000000
 51
0.000000
  0
ARC
  8
0
 10
-48.729950
 20
-44.514832
 40
1.000000
 50
0.000000
 51
90.000000
  0
CIRCLE
  8
0
 10
-58.729980
 20
-68.514832
 40
0.750000
  0
CIRCLE
  8
0
 10
-53.729980
 20
-68.514832
 40
0.750000
  0
CIRCLE
  8
0
 10
-55.729980
 20
-38.514832
 40
2.750000
  0
CIRCLE
  8
0
 10
-55.729980
 20
-24.514832
 40
2.750000
  0
ARC
  8
0
 10
-69.729980
 20
-38.514832
 40
3.000000
 50
179.999924
 51
270.000000
  0
ARC
  8
0
 10
-69.729980
 20
-24.514832
 40
3.000000
 50
90.000000
 51
179.999924
  0
CIRCLE
  8
0
 10
-69.729980
 20
-38.514832
 40
2.750000
  0
CIRCLE
  8
0
 10
-69.729980
 20
-24.514832
 40
2.750000
  0
ARC
  8
0
 10
-123.371002
 20
-80.514847
 40
7.000000
 50
270.000061
 51
0.000000
  0
ARC
  8
0
 10
-118.871002
 20
-38.514832
 40
6.999998
 50
343.743011
 51
16.257013
  0
ARC
  8
0
 10
-113.110901
 20
-40.194519
 40
0.999998
 50
275.000153
 51
343.743042
  0
ARC
  8
0
 10
-113.110901
 20
-36.835159
 40
0.999998
 50
16.256969
 51
84.999847
  0
ARC
  8
0
 10
-118.871002
 20
-24.514832
 40
6.999998
 50
343.743011
 51
16.257027
  0
ARC
  8
0
 10
-113.110901
 20
-26.194519
 40
1.000000
 50
275.000153
 51
343.743042
  0
ARC
  8
0
 10
-113.110901
 20
-22.835159
 40
0.999999
 50
16.257074
 51
84.999863
  0
ARC
  8
0
 10
-122.371002
 20
-50.758865
 40
0.999998
 50
106.699158
 51
180.000000
  0
ARC
  8
0
 10
-122.371002
 20
-66.270813
 40
1.000000
 50
180.000000
 51
253.300842
  0
ARC
  8
0
 10
-119.370972
 20
-47.770813
 40
0.999998
 50
286.699158
 51
0.000000
  0
ARC
  8
0
 10
-119.371002
 20
-69.258881
 40
1.000000
 50
0.000000
 51
73.300842
  0
ARC
  8
0
 10
-123.371002
 20
-80.514847
 40
3.000000
 50
270.000000
 51
0.000000
  0
ARC
  8
0
 10
-62.729980
 20
-182.014832
 40
2.000000
 50
0.000000
 51
180.000000
  0
ARC
  8
0
 10
147.707520
 20
-38.514832
 40
3.000000
 50
270.000000
 51
0.000000
  0
ARC
  8
0
 10
147.707520
 20
-24.514832
 40
3.000000
 50
0.000036
 51
90.000000
  0
ARC
  8
0
 10
148.736389
 20
-86.514832
 40
3.000004
 50
195.999969
 51
15.999976
  0
ARC
  8
0
 10
140.707520
 20
-85.514832
 40
2.000000
 50
180.000000
 51
0.000000
  0
ARC
  8
0
 10
126.707520
 20
-44.514832
 40
1.000000
 50
90.000000
 51
180.000000
  0
ARC
  8
0
 10
126.707520
 20
-72.514832
 40
1.000000
 50
180.000000
 51
270.000000
  0
ARC
  8
0
 10
154.707520
 20
-72.514832
 40
1.000000
 50
270.000000
 51
0.000000
  0
ARC
  8
0
 10
154.707520
 20
-44.514832
 40
1.000000
 50
0.000000
 51
90.000000
  0
CIRCLE
  8
0
 10
144.707520
 20
-68.514832
 40
0.750000
  0
CIRCLE
  8
0
 10
149.707520
 20
-68.514832
 40
0.750000
  0
CIRCLE
  8
0
 10
147.707520
 20
-38.514832
 40
2.750000
  0
CIRCLE
  8
0
 10
147.707520
 20
-24.514832
 40
2.750000
  0
ARC
  8
0
 10
133.707520
 20
-38.514832
 40
3.000000
 50
179.999924
 51
270.000000
  0
ARC
  8
0
 10
133.707520
 20
-24.514832
 40
3.000000
 50
90.000000
 51
179.999924
  0
CIRCLE
  8
0
 10
133.707520
 20
-38.514832
 40
2.750000
  0
CIRCLE
  8
0
 10
133.707520
 20
-24.514832
 40
2.750000
  0
CIRCLE
  8
0
 10
140.707520
 20
-31.514832
 40
7.300003
  0
CIRCLE
  8
0
 10
140.707520
 20
-31.514832
 40
7.000000
  0
CIRCLE
  8
0
 10
140.707520
 20
-31.514832
 40
6.000000
  0
CIRCLE
  8
0
 10
140.707520
 20
-31.514832
 40
1.500000
  0
ARC
  8
0
 10
63.766468
 20
-80.514847
 40
7.000000
 50
270.000031
 51
0.000000
  0
ARC
  8
0
 10
68.266464
 20
-38.514832
 40
6.999998
 50
343.743011
 51
16.257013
  0
ARC
  8
0
 10
74.026566
 20
-40.194519
 40
0.999998
 50
275.000153
 51
343.743042
  0
ARC
  8
0
 10
74.026566
 20
-36.835159
 40
0.999998
 50
16.256969
 51
84.999847
  0
ARC
  8
0
 10
68.266464
 20
-24.514832
 40
6.999998
 50
343.743011
 51
16.257027
  0
ARC
  8
0
 10
74.026566
 20
-26.194519
 40
1.000000
 50
275.000153
 51
343.743042
  0
ARC
  8
0
 10
74.026566
 20
-22.835159
 40
0.999999
 50
16.257074
 51
84.999863
  0
ARC
  8
0
 10
64.766464
 20
-50.758865
 40
0.999998
 50
106.699158
 51
180.000000
  0
ARC
  8
0
 10
64.766464
 20
-66.270813
 40
1.000000
 50
180.000000
 51
253.300842
  0
ARC
  8
0
 10
67.766464
 20
-47.770813
 40
0.999998
 50
286.699158
 51
0.000000
  0
ARC
  8
0
 10
67.766464
 20
-69.258881
 40
1.000000
 50
0.000000
 51
73.300842
  0
ARC
  8
0
 10
63.766468
 20
-80.514847
 40
3.000000
 50
270.000061
 51
0.000000
  0
ARC
  8
0
 10
121.667419
 20
-32.264832
 40
1.500003
 50
330.000061
 51
29.999866
  0
ARC
  8
0
 10
121.667419
 20
-30.764832
 40
1.500002
 50
330.000122
 51
29.999931
  0
ARC
  8
0
 10
124.265503
 20
-30.764832
 40
1.499997
 50
149.999863
 51
209.999863
  0
ARC
  8
0
 10
140.707520
 20
-182.014832
 40
2.000000
 50
0.000000
 51
180.000000
  0
ARC
  8
0
 10
141.457520
 20
-129.113861
 40
1.500003
 50
60.000069
 51
119.999931
  0
ARC
  8
0
 10
139.957520
 20
-129.113861
 40
1.500003
 50
60.000069
 51
119.999931
  0
ARC
  8
0
 10
139.957520
 20
-126.515778
 40
1.499997
 50
239.999924
 51
299.999939
  0
ARC
  8
0
 10
343.044983
 20
-43.514832
 40
3.000000
 50
270.000000
 51
0.000000
  0
ARC
  8
0
 10
343.044983
 20
-29.514832
 40
3.000000
 50
0.000036
 51
90.000000
  0
ARC
  8
0
 10
344.073853
 20
-91.514832
 40
3.000004
 50
195.999969
 51
15.999976
  0
ARC
  8
0
 10
336.044983
 20
-90.514832
 40
2.000000
 50
180.000000
 51
0.000000
  0
ARC
  8
0
 10
322.044983
 20
-49.514832
 40
1.000000
 50
90.000000
 51
180.000000
  0
ARC
  8
0
 10
322.044983
 20
-77.514832
 40
1.000000
 50
180.000000
 51
270.000000
  0
ARC
  8
0
 10
350.044983
 20
-77.514832
 40
1.000000
 50
270.000000
 51
0.000000
  0
ARC
  8
0
 10
350.045044
 20
-49.514832
 40
1.000000
 50
0.000000
 51
90.000000
  0
CIRCLE
  8
0
 10
340.044983
 20
-73.514832
 40
0.750000
  0
CIRCLE
  8
0
 10
345.044983
 20
-73.514832
 40
0.750000
  0
ARC
  8
0
 10
343.044983
 20
-43.514832
 40
2.749990
 50
151.248245
 51
118.751572
  0
ARC
  8
0
 10
329.044983
 20
-43.514832
 40
3.000000
 50
179.999924
 51
270.000000
  0
ARC
  8
0
 10
329.044983
 20
-29.514832
 40
3.000000
 50
90.000000
 51
179.999924
  0
ARC
  8
0
 10
329.044983
 20
-43.514832
 40
2.749999
 50
61.248432
 51
28.751753
  0
ARC
  8
0
 10
329.044983
 20
-29.514832
 40
2.750000
 50
90.000000
 51
270.000000
  0
ARC
  8
0
 10
336.044983
 20
-36.514832
 40
7.300004
 50
163.516937
 51
16.483030
  0
ARC
  8
0
 10
336.044983
 20
-36.514832
 40
7.000000
 50
179.999969
 51
359.999969
  0
ARC
  8
0
 10
336.794983
 20
-9.813873
 40
1.500000
 50
59.999996
 51
119.999985
  0
ARC
  8
0
 10
335.294983
 20
-9.813873
 40
1.500001
 50
60.000015
 51
120.000000
  0
ARC
  8
0
 10
336.794983
 20
-7.215790
 40
1.500001
 50
240.000015
 51
300.000000
  0
ARC
  8
0
 10
343.044983
 20
-29.514832
 40
2.750000
 50
270.000000
 51
90.000000
  0
ARC
  8
0
 10
269.903992
 20
-43.514832
 40
7.000012
 50
343.743042
 51
16.256977
  0
ARC
  8
0
 10
275.664062
 20
-45.194519
 40
0.999998
 50
275.000153
 51
343.743164
  0
ARC
  8
0
 10
275.664062
 20
-41.835159
 40
1.000006
 50
16.256847
 51
84.999847
  0
ARC
  8
0
 10
269.903992
 20
-29.514832
 40
7.000012
 50
343.743042
 51
16.256992
  0
ARC
  8
0
 10
275.664062
 20
-31.194519
 40
0.999998
 50
275.000153
 51
343.743164
  0
ARC
  8
0
 10
275.664062
 20
-27.835159
 40
1.000006
 50
16.256952
 51
84.999863
  0
ARC
  8
0
 10
266.403931
 20
-55.758865
 40
1.000000
 50
106.699577
 51
180.000000
  0
ARC
  8
0
 10
266.403931
 20
-71.270813
 40
1.000000
 50
180.000000
 51
253.300415
  0
ARC
  8
0
 10
269.403992
 20
-52.770813
 40
1.000000
 50
286.699585
 51
0.000000
  0
ARC
  8
0
 10
269.403931
 20
-74.258881
 40
1.000000
 50
0.000000
 51
73.300423
  0
ARC
  8
0
 10
265.403931
 20
-85.514847
 40
3.000000
 50
270.000000
 51
0.000000
  0
ARC
  8
0
 10
265.403931
 20
-85.514847
 40
7.000000
 50
270.000000
 51
0.000000
  0
ARC
  8
0
 10
301.604004
 20
-36.514832
 40
7.000000
 50
270.000000
 51
0.000000
  0
ARC
  8
0
 10
302.354004
 20
-7.215790
 40
1.500001
 50
240.000015
 51
300.000000
  0
ARC
  8
0
 10
302.354004
 20
-9.813873
 40
1.500000
 50
59.999996
 51
119.999985
  0
ARC
  8
0
 10
300.854004
 20
-9.813873
 40
1.500001
 50
60.000015
 51
120.000000
  0
ARC
  8
0
 10
336.044983
 20
-177.014832
 40
2.000000
 50
0.000000
 51
180.000000
  0
ARC
  8
0
 10
336.044983
 20
-145.814819
 40
7.000000
 50
0.000000
 51
180.000000
  0
TEXT
  8
0
 10
-338.285309
 20
256.649994
 40
9.000000
  1
X88M
 50
0.000000
 41
1.052632
 51
0.000000
  7
STANDARD
  0
TEXT
  8
0
 10
242.014816
 20
-274.500000
 40
12.500000
  1
KOGANEI CORP.
 50
0.000000
 41
1.052632
 51
0.000000
  7
STANDARD
  0
TEXT
  8
0
 10
251.264664
 20
256.649994
 40
9.000000
  1
DATE: OCT ,1993
 50
0.000000
 41
1.052632
 51
0.000000
  7
STANDARD
  0
TEXT
  8
0
 10
231.383423
 20
-251.350006
 40
9.000000
  1
MODEL:FMS220-PL
 50
0.000000
 41
1.052632
 51
0.000000
  7
STANDARD
  0
TEXT
  8
0
 10
145.002182
 20
0.150000
 40
9.000000
  1
MODEL:FMR200
 50
0.000000
 41
1.052632
 51
0.000000
  7
STANDARD
  0
TEXT
  8
0
 10
-254.522812
 20
0.150000
 40
9.000000
  1
MODEL:FMF200
 50
0.000000
 41
1.052632
 51
0.000000
  7
STANDARD
  0
TEXT
  8
0
 10
-358.904053
 20
-276.350006
 40
9.000000
  1
MODEL:FMS110A
 50
0.000000
 41
1.052632
 51
0.000000
  7
STANDARD
  0
TEXT
  8
0
 10
-154.641571
 20
-276.350006
 40
9.000000
  1
MODEL:FMS220
 50
0.000000
 41
1.052632
 51
0.000000
  7
STANDARD
  0
TEXT
  8
0
 10
31.620930
 20
-276.350006
 40
9.000000
  1
MODEL:FMS220-PS
 50
0.000000
 41
1.052632
 51
0.000000
  7
STANDARD
  0
TEXT
  8
0
 10
261.513062
 20
211.607712
 40
6.300000
  1
PRESSURE GAUGE
 50
0.000000
 41
1.052632
 51
0.000000
  7
STANDARD
  0
TEXT
  8
0
 10
284.476318
 20
130.565811
 40
6.300000
  1
-GA20(Q)
 50
0.000000
 41
1.052632
 51
0.000000
  7
STANDARD
  0
TEXT
  8
0
 10
284.046051
 20
36.236050
 40
6.300000
  1
-GD20(Q)
 50
0.000000
 41
1.052632
 51
0.000000
  7
STANDARD
  0
ENDSEC
  0
EOF
