  0
SECTION
  2
HEADER
  0
ENDSEC
  0
SECTION
  2
TABLES
  0
TABLE
  2
LTYPE
 70
     4
  0
LTYPE
  2
CONTINUOUS
 70
    64
  3
Solid line
 72
    65
 73
     0
 40
0.000000
  0
LTYPE
  2
DASHED
 70
    64
  3
__ __ __ __ __ __ __ __ __ __ __ __ __ __ __
 72
    65
 73
     2
 40
3.500000
 49
2.000000
 49
-1.500000
  0
LTYPE
  2
CENTER
 70
    64
  3
____ _ ____ _ ____ _ ____ _ ____ _ ____ _ ____
 72
    65
 73
     4
 40
17.500000
 49
13.000000
 49
-1.500000
 49
1.500000
 49
-1.500000
  0
LTYPE
  2
PHANTOM
 70
    64
  3
_____ _ _ _____ _ _ _____ _ _ _____ _ _ ____  
 72
    65
 73
     6
 40
15.500000
 49
8.000000
 49
-1.500000
 49
1.500000
 49
-1.500000
 49
1.500000
 49
-1.500000
  0
LTYPE
  2
DASHED1
 70
    64
  3
__ __ __ __ __ __ __ __ __ __ __ __ __ __ __
 72
    65
 73
     2
 40
1.500000
 49
1.000000
 49
-0.500000
  0
LTYPE
  2
DASHED2
 70
    64
  3
__ __ __ __ __ __ __ __ __ __ __ __ __ __ __
 72
    65
 73
     2
 40
3.500000
 49
2.500000
 49
-1.000000
  0
LTYPE
  2
DASHED3
 70
    64
  3
__ __ __ __ __ __ __ __ __ __ __ __ __ __ __
 72
    65
 73
     2
 40
6.000000
 49
4.000000
 49
-2.000000
  0
LTYPE
  2
DASHED4
 70
    64
  3
__ __ __ __ __ __ __ __ __ __ __ __ __ __ __
 72
    65
 73
     2
 40
12.000000
 49
10.000000
 49
-2.000000
  0
LTYPE
  2
DASHED5
 70
    64
  3
__ __ __ __ __ __ __ __ __ __ __ __ __ __ __
 72
    65
 73
     2
 40
17.000000
 49
15.000000
 49
-2.000000
  0
LTYPE
  2
DASHED6
 70
    64
  3
__ __ __ __ __ __ __ __ __ __ __ __ __ __ __
 72
    65
 73
     2
 40
29.000000
 49
27.000000
 49
-2.000000
  0
LTYPE
  2
PHANTOM1
 70
    64
  3
_____ _ _ _____ _ _ _____ _ _ _____ _ _ ____  
 72
    65
 73
     6
 40
31.000000
 49
25.000000
 49
-1.500000
 49
1.000000
 49
-1.000000
 49
1.000000
 49
-1.500000
  0
LTYPE
  2
PHANTOM2
 70
    64
  3
_____ _ _ _____ _ _ _____ _ _ _____ _ _ ____  
 72
    65
 73
     6
 40
36.000000
 49
27.000000
 49
-1.500000
 49
2.500000
 49
-1.000000
 49
2.500000
 49
-1.500000
  0
LTYPE
  2
PHANTOM3
 70
    64
  3
_____ _ _ _____ _ _ _____ _ _ _____ _ _ ____  
 72
    65
 73
     6
 40
78.000000
 49
64.000000
 49
-2.000000
 49
4.000000
 49
-2.000000
 49
4.000000
 49
-2.000000
  0
LTYPE
  2
CENTER1
 70
    64
  3
____ _ ____ _ ____ _ ____ _ ____ _ ____ _ ____
 72
    65
 73
     4
 40
19.000000
 49
14.000000
 49
-1.000000
 49
3.000000
 49
-1.000000
  0
LTYPE
  2
CENTER2
 70
    64
  3
____ _ ____ _ ____ _ ____ _ ____ _ ____ _ ____
 72
    65
 73
     4
 40
28.500000
 49
25.000000
 49
-1.000000
 49
1.500000
 49
-1.000000
  0
LTYPE
  2
CENTER3
 70
    64
  3
____ _ ____ _ ____ _ ____ _ ____ _ ____ _ ____
 72
    65
 73
     4
 40
31.500000
 49
27.000000
 49
-1.000000
 49
2.500000
 49
-1.000000
  0
LTYPE
  2
CENTER4
 70
    64
  3
____ _ ____ _ ____ _ ____ _ ____ _ ____ _ ____
 72
    65
 73
     4
 40
50.000000
 49
45.000000
 49
-1.000000
 49
3.000000
 49
-1.000000
  0
LTYPE
  2
CENTER5
 70
    64
  3
____ _ ____ _ ____ _ ____ _ ____ _ ____ _ ____
 72
    65
 73
     4
 40
100.000000
 49
92.000000
 49
-2.000000
 49
4.000000
 49
-2.000000
  0
LTYPE
  2
SBK1
 70
    64
  3
______ _ _ _ ______ _ _ _ ______ _ _ _ _____  
 72
    65
 73
     8
 40
60.500000
 49
45.000000
 49
-2.000000
 49
2.500000
 49
-2.000000
 49
2.500000
 49
-2.000000
 49
2.500000
 49
-2.000000
  0
LTYPE
  2
SBK2
 70
    64
  3
______ _ _ _ ______ _ _ _ ______ _ _ _ _____  
 72
    65
 73
     8
 40
84.000000
 49
64.000000
 49
-2.000000
 49
4.000000
 49
-2.000000
 49
4.000000
 49
-2.000000
 49
4.000000
 49
-2.000000
  0
LTYPE
  2
STCH
 70
    64
  3
__ __ __ __ __ __ __ __ __ __ __ __ __ __ __
 72
    65
 73
     2
 40
3.000000
 49
1.000000
 49
-2.000000
  0
LTYPE
  2
MTCH
 70
    64
  3
_____ _ _ _____ _ _ _____ _ _ _____ _ _ ____  
 72
    65
 73
     6
 40
80.000000
 49
66.000000
 49
-2.000000
 49
4.000000
 49
-2.000000
 49
4.000000
 49
-2.000000
  0
ENDTAB
  0
TABLE
  2
LAYER
 70
     1
  0
LAYER
  2
0
 70
     0
 62
     7
  6
CONTINUOUS
  0
ENDTAB
  0
TABLE
  2
STYLE
 70
     1
  0
STYLE
  2
STANDARD
 70
     0
 40
0.000000
 41
1.000000
 50
0.000000
 71
     0
 42
0.200000
  3
txt
  4
BIGFONT
  0
ENDTAB
  0
TABLE
  2
VIEW
 70
     0
  0
ENDTAB
  0
ENDSEC
  0
SECTION
  2
BLOCKS
  0
ENDSEC
  0
SECTION
  2
ENTITIES
  0
LINE
  8
0
 10
-297.000000
 20
210.000000
 11
297.000000
 21
210.000000
  0
LINE
  8
0
 10
-297.000000
 20
-210.000000
 11
297.000000
 21
-210.000000
  0
LINE
  8
0
 10
297.000000
 20
210.000000
 11
297.000000
 21
-210.000000
  0
LINE
  8
0
 10
-297.000000
 20
210.000000
 11
-297.000000
 21
-210.000000
  0
LINE
  8
0
 10
-281.250000
 20
195.500000
 11
282.099976
 21
195.500000
  0
LINE
  8
0
 10
-281.250000
 20
195.500000
 11
-281.250000
 21
-195.000000
  0
LINE
  8
0
 10
282.099976
 20
195.500000
 11
282.099976
 21
-195.000000
  0
LINE
  8
0
 10
-281.250000
 20
-195.000000
 11
282.099976
 21
-195.000000
  0
LINE
  8
0
 10
162.099976
 20
-175.000000
 11
162.099976
 21
-195.000000
  0
LINE
  8
0
 10
162.099976
 20
-175.000000
 11
282.099976
 21
-175.000000
  0
LINE
  8
0
 10
162.099976
 20
175.500000
 11
282.099976
 21
175.500000
  0
LINE
  8
0
 10
-281.250000
 20
175.500000
 11
-161.250000
 21
175.500000
  0
LINE
  8
0
 10
162.099976
 20
195.500000
 11
162.099976
 21
175.500000
  0
LINE
  8
0
 10
-161.250000
 20
195.500000
 11
-161.250000
 21
175.500000
  0
LINE
  8
0
 10
-281.250000
 20
-185.000000
 11
-131.250000
 21
-185.000000
  0
LINE
  8
0
 10
-281.250000
 20
-175.000000
 11
-131.250000
 21
-175.000000
  0
LINE
  8
0
 10
-281.250000
 20
-165.000000
 11
-131.250000
 21
-165.000000
  0
LINE
  8
0
 10
-281.250000
 20
-155.000000
 11
-131.250000
 21
-155.000000
  0
LINE
  8
0
 10
-281.250000
 20
-145.000000
 11
-131.250000
 21
-145.000000
  0
LINE
  8
0
 10
-281.250000
 20
-135.000000
 11
-131.250000
 21
-135.000000
  0
LINE
  8
0
 10
-281.250000
 20
-125.000000
 11
-131.250000
 21
-125.000000
  0
LINE
  8
0
 10
-281.250000
 20
-115.000000
 11
-131.250000
 21
-115.000000
  0
LINE
  8
0
 10
-281.250000
 20
-105.000000
 11
-131.250000
 21
-105.000000
  0
LINE
  8
0
 10
-281.250000
 20
-95.000000
 11
-131.250000
 21
-95.000000
  0
LINE
  8
0
 10
-281.250000
 20
-85.000000
 11
-131.250000
 21
-85.000000
  0
LINE
  8
0
 10
-211.250000
 20
-85.000000
 11
-211.250000
 21
-195.000000
  0
LINE
  8
0
 10
-131.250000
 20
-85.000000
 11
-131.250000
 21
-195.000000
  0
TEXT
  8
0
 10
174.200241
 20
180.830002
 40
6.300000
  1
DATE: SEP ,1992
 50
0.000000
 41
1.052632
 51
0.000000
  7
STANDARD
  0
TEXT
  8
0
 10
167.564667
 20
-192.100006
 40
9.000000
  1
KOGANEI CORP.
 50
0.000000
 41
1.052632
 51
0.000000
  7
STANDARD
  0
TEXT
  8
0
 10
-256.549713
 20
180.830002
 40
6.300000
  1
X80M SAMPLE
 50
0.000000
 41
1.052632
 51
0.000000
  7
STANDARD
  0
TEXT
  8
0
 10
-31.398396
 20
-49.330830
 40
4.500000
  1
FMCR-F200
 50
60.000000
 41
1.052632
 51
0.000000
  7
STANDARD
  0
TEXT
  8
0
 10
4.952435
 20
-49.330845
 40
4.500000
  1
FMCR-D250
 50
60.000000
 41
1.052632
 51
0.000000
  7
STANDARD
  0
TEXT
  8
0
 10
17.643063
 20
-49.330830
 40
4.500000
  1
FMCR-T070
 50
60.000000
 41
1.052632
 51
0.000000
  7
STANDARD
  0
TEXT
  8
0
 10
46.793896
 20
-49.330830
 40
4.500000
  1
FMWR090-4E1-J4S
 50
60.000000
 41
1.052632
 51
0.000000
  7
STANDARD
  0
TEXT
  8
0
 10
128.393906
 20
-49.330830
 40
4.500000
  1
FMWR090-4KE2-J4S
 50
60.000000
 41
1.052632
 51
0.000000
  7
STANDARD
  0
TEXT
  8
0
 10
188.285172
 20
-49.330845
 40
4.500000
  1
FMWR090-BP-J4S
 50
60.000000
 41
1.052632
 51
0.000000
  7
STANDARD
  0
TEXT
  8
0
 10
202.193924
 20
-49.330830
 40
4.500000
  1
FMPR-FR01
 50
60.000000
 41
1.052632
 51
0.000000
  7
STANDARD
  0
TEXT
  8
0
 10
217.194000
 20
-49.330845
 40
4.500000
  1
FMPR-PR01S
 50
60.000000
 41
1.052632
 51
0.000000
  7
STANDARD
  0
TEXT
  8
0
 10
-42.866669
 20
-132.537704
 40
4.500000
  1
1
 50
0.000000
 41
1.052632
 51
0.000000
  7
STANDARD
  0
TEXT
  8
0
 10
-27.866671
 20
-132.537704
 40
4.500000
  1
2
 50
0.000000
 41
1.052632
 51
0.000000
  7
STANDARD
  0
TEXT
  8
0
 10
-12.866671
 20
-132.537704
 40
4.500000
  1
3
 50
0.000000
 41
1.052632
 51
0.000000
  7
STANDARD
  0
TEXT
  8
0
 10
2.133330
 20
-132.537704
 40
4.500000
  1
4
 50
0.000000
 41
1.052632
 51
0.000000
  7
STANDARD
  0
TEXT
  8
0
 10
14.733335
 20
-132.537704
 40
4.500000
  1
5
 50
0.000000
 41
1.052632
 51
0.000000
  7
STANDARD
  0
TEXT
  8
0
 10
24.933332
 20
-132.537704
 40
4.500000
  1
6
 50
0.000000
 41
1.052632
 51
0.000000
  7
STANDARD
  0
TEXT
  8
0
 10
35.133331
 20
-132.537704
 40
4.500000
  1
7
 50
0.000000
 41
1.052632
 51
0.000000
  7
STANDARD
  0
TEXT
  8
0
 10
45.333328
 20
-132.537704
 40
4.500000
  1
8
 50
0.000000
 41
1.052632
 51
0.000000
  7
STANDARD
  0
TEXT
  8
0
 10
55.533325
 20
-132.537704
 40
4.500000
  1
9
 50
0.000000
 41
1.052632
 51
0.000000
  7
STANDARD
  0
TEXT
  8
0
 10
63.483318
 20
-132.537704
 40
4.500000
  1
10
 50
0.000000
 41
1.052632
 51
0.000000
  7
STANDARD
  0
TEXT
  8
0
 10
73.683319
 20
-132.537704
 40
4.500000
  1
11
 50
0.000000
 41
1.052632
 51
0.000000
  7
STANDARD
  0
TEXT
  8
0
 10
83.883331
 20
-132.537704
 40
4.500000
  1
12
 50
0.000000
 41
1.052632
 51
0.000000
  7
STANDARD
  0
TEXT
  8
0
 10
99.183334
 20
-132.537704
 40
4.500000
  1
13
 50
0.000000
 41
1.052632
 51
0.000000
  7
STANDARD
  0
TEXT
  8
0
 10
119.583344
 20
-132.537704
 40
4.500000
  1
14
 50
0.000000
 41
1.052632
 51
0.000000
  7
STANDARD
  0
TEXT
  8
0
 10
139.983337
 20
-132.537704
 40
4.500000
  1
15
 50
0.000000
 41
1.052632
 51
0.000000
  7
STANDARD
  0
TEXT
  8
0
 10
155.283371
 20
-132.537704
 40
4.500000
  1
16
 50
0.000000
 41
1.052632
 51
0.000000
  7
STANDARD
  0
TEXT
  8
0
 10
165.483368
 20
-132.537704
 40
4.500000
  1
17
 50
0.000000
 41
1.052632
 51
0.000000
  7
STANDARD
  0
TEXT
  8
0
 10
178.083374
 20
-132.537704
 40
4.500000
  1
18
 50
0.000000
 41
1.052632
 51
0.000000
  7
STANDARD
  0
TEXT
  8
0
 10
193.083374
 20
-132.537704
 40
4.500000
  1
19
 50
0.000000
 41
1.052632
 51
0.000000
  7
STANDARD
  0
TEXT
  8
0
 10
-275.892670
 20
-93.050003
 40
4.500000
  1
MODULE NUMBER
 50
0.000000
 41
1.052632
 51
0.000000
  7
STANDARD
  0
TEXT
  8
0
 10
-248.892654
 20
-103.050003
 40
4.500000
  1
1
 50
0.000000
 41
1.052632
 51
0.000000
  7
STANDARD
  0
TEXT
  8
0
 10
-248.892654
 20
-113.050003
 40
4.500000
  1
2
 50
0.000000
 41
1.052632
 51
0.000000
  7
STANDARD
  0
TEXT
  8
0
 10
-248.892654
 20
-123.050003
 40
4.500000
  1
6ü`12
 50
0.000000
 41
1.052632
 51
0.000000
  7
STANDARD
  0
TEXT
  8
0
 10
-248.892654
 20
-133.050003
 40
4.500000
  1
4
 50
0.000000
 41
1.052632
 51
0.000000
  7
STANDARD
  0
TEXT
  8
0
 10
-248.892654
 20
-143.050003
 40
4.500000
  1
5
 50
0.000000
 41
1.052632
 51
0.000000
  7
STANDARD
  0
TEXT
  8
0
 10
-248.892654
 20
-153.050003
 40
4.500000
  1
6ü`12
 50
0.000000
 41
1.052632
 51
0.000000
  7
STANDARD
  0
TEXT
  8
0
 10
-255.192657
 20
-163.050003
 40
4.500000
  1
13ü`15
 50
0.000000
 41
1.052632
 51
0.000000
  7
STANDARD
  0
TEXT
  8
0
 10
-255.192657
 20
-173.050003
 40
4.500000
  1
16ü`17
 50
0.000000
 41
1.052632
 51
0.000000
  7
STANDARD
  0
TEXT
  8
0
 10
-255.192657
 20
-183.050003
 40
4.500000
  1
18
 50
0.000000
 41
1.052632
 51
0.000000
  7
STANDARD
  0
TEXT
  8
0
 10
-255.192657
 20
-193.050003
 40
4.500000
  1
19
 50
0.000000
 41
1.052632
 51
0.000000
  7
STANDARD
  0
TEXT
  8
0
 10
36.593899
 20
-49.330830
 40
4.500000
  1
FMWR090E1-J4S
 50
60.000000
 41
1.052632
 51
0.000000
  7
STANDARD
  0
TEXT
  8
0
 10
-180.642654
 20
-93.050003
 40
4.500000
  1
TYPE
 50
0.000000
 41
1.052632
 51
0.000000
  7
STANDARD
  0
TEXT
  8
0
 10
-16.398396
 20
-49.330830
 40
4.500000
  1
FMCR-F100
 50
60.000000
 41
1.052632
 51
0.000000
  7
STANDARD
  0
TEXT
  8
0
 10
-207.000000
 20
-101.699997
 40
4.500000
  1
FMCR-F200
 50
0.000000
 41
1.052631
 51
0.000000
  7
STANDARD
  0
TEXT
  8
0
 10
-207.000000
 20
-111.699997
 40
4.500000
  1
FMCR-F100
 50
0.000000
 41
1.052632
 51
0.000000
  7
STANDARD
  0
TEXT
  8
0
 10
-207.000000
 20
-121.699997
 40
4.500000
  1
FMCR-D250
 50
0.000000
 41
1.052632
 51
0.000000
  7
STANDARD
  0
TEXT
  8
0
 10
-207.000000
 20
-131.699997
 40
4.500000
  1
FMCR-T070
 50
0.000000
 41
1.052632
 51
0.000000
  7
STANDARD
  0
TEXT
  8
0
 10
-207.000000
 20
-141.699997
 40
4.500000
  1
FMWR090E1-J4S
 50
0.000000
 41
1.052632
 51
0.000000
  7
STANDARD
  0
TEXT
  8
0
 10
-207.000000
 20
-151.699997
 40
4.500000
  1
FMWR090-4E1-J4S
 50
0.000000
 41
1.052632
 51
0.000000
  7
STANDARD
  0
TEXT
  8
0
 10
-207.000000
 20
-161.699997
 40
4.500000
  1
FMWR090-4KE2-J4S
 50
0.000000
 41
1.052632
 51
0.000000
  7
STANDARD
  0
TEXT
  8
0
 10
-207.000000
 20
-171.699997
 40
4.500000
  1
FMWR090-BP-J4S
 50
0.000000
 41
1.052632
 51
0.000000
  7
STANDARD
  0
TEXT
  8
0
 10
-207.000000
 20
-181.699997
 40
4.500000
  1
FMPR-FR01
 50
0.000000
 41
1.052632
 51
0.000000
  7
STANDARD
  0
TEXT
  8
0
 10
-207.000000
 20
-191.699997
 40
4.500000
  1
FMPR-PR01S
 50
0.000000
 41
1.052632
 51
0.000000
  7
STANDARD
  0
POINT
  8
0
 10
-53.723969
 20
52.708344
  0
POINT
  8
0
 10
211.476044
 20
52.708344
  0
LINE
  8
0
 10
-48.023956
 20
119.208344
 11
-53.423950
 21
119.208344
  0
LINE
  8
0
 10
-47.723969
 20
122.708344
 11
-47.723969
 21
52.708328
  0
LINE
  8
0
 10
-47.723969
 20
122.708344
 11
-53.723969
 21
122.708344
  0
LINE
  8
0
 10
-47.723969
 20
52.708344
 11
-53.723969
 21
52.708344
  0
LINE
  8
0
 10
-53.723969
 20
112.708344
 11
-47.723969
 21
112.708344
  0
LINE
  8
0
 10
-53.723969
 20
111.842316
 11
-47.723969
 21
111.842316
  0
LINE
  8
0
 10
-53.723969
 20
63.574371
 11
-47.723969
 21
63.574371
  0
LINE
  8
0
 10
-53.723969
 20
62.708344
 11
-47.723969
 21
62.708344
  0
LINE
  8
0
 10
-48.023956
 20
56.208328
 11
-53.423950
 21
56.208328
  0
LINE
  8
0
 10
-50.723969
 20
121.908325
 11
-50.723969
 21
116.508331
  0
LINE
  8
0
 10
-50.723969
 20
58.908325
 11
-50.723969
 21
53.508316
  0
LINE
  8
0
 10
-53.723969
 20
122.708344
 11
-53.723969
 21
52.708328
  0
LINE
  8
0
 10
-38.524002
 20
68.530190
 11
-38.524002
 21
116.462036
  0
LINE
  8
0
 10
-34.224014
 20
69.708351
 11
-34.224014
 21
115.708344
  0
LINE
  8
0
 10
-42.823990
 20
69.708328
 11
-42.823990
 21
115.708328
  0
LINE
  8
0
 10
-35.223999
 20
77.358368
 11
-35.223999
 21
108.058350
  0
LINE
  8
0
 10
-41.823990
 20
77.358360
 11
-41.823990
 21
108.058350
  0
LINE
  8
0
 10
-40.024002
 20
71.258324
 11
-40.024002
 21
73.958351
  0
LINE
  8
0
 10
-37.024002
 20
71.258347
 11
-37.024002
 21
73.958359
  0
LINE
  8
0
 10
-37.024055
 20
71.258324
 11
-40.024055
 21
71.258324
  0
LINE
  8
0
 10
-40.524067
 20
77.358330
 11
-41.824070
 21
77.358330
  0
LINE
  8
0
 10
-40.524002
 20
73.958351
 11
-40.524002
 21
79.358337
  0
LINE
  8
0
 10
-36.524002
 20
73.958359
 11
-36.524002
 21
79.358353
  0
LINE
  8
0
 10
-36.524059
 20
73.958336
 11
-40.524059
 21
73.958336
  0
LINE
  8
0
 10
-36.524071
 20
79.358337
 11
-40.524071
 21
79.358337
  0
LINE
  8
0
 10
-36.524063
 20
74.958321
 11
-40.524063
 21
74.958321
  0
LINE
  8
0
 10
-36.524063
 20
75.958336
 11
-40.524063
 21
75.958336
  0
LINE
  8
0
 10
-36.524067
 20
76.958336
 11
-40.524067
 21
76.958336
  0
LINE
  8
0
 10
-36.524067
 20
77.958336
 11
-40.524067
 21
77.958336
  0
LINE
  8
0
 10
-36.524067
 20
77.958336
 11
-40.524067
 21
77.958336
  0
LINE
  8
0
 10
-35.224064
 20
77.358330
 11
-36.524067
 21
77.358330
  0
LINE
  8
0
 10
-34.224072
 20
73.858330
 11
-36.849056
 21
73.858330
  0
LINE
  8
0
 10
-40.199062
 20
73.858330
 11
-42.824062
 21
73.858330
  0
LINE
  8
0
 10
-34.224079
 20
76.358345
 11
-36.524067
 21
76.358345
  0
LINE
  8
0
 10
-40.524067
 20
76.358345
 11
-42.824070
 21
76.358345
  0
LINE
  8
0
 10
-37.024033
 20
114.158340
 11
-37.024033
 21
111.458344
  0
LINE
  8
0
 10
-40.024033
 20
114.158325
 11
-40.024033
 21
111.458344
  0
LINE
  8
0
 10
-40.024158
 20
114.158325
 11
-37.024158
 21
114.158325
  0
LINE
  8
0
 10
-36.524147
 20
108.058319
 11
-35.224144
 21
108.058319
  0
LINE
  8
0
 10
-36.524017
 20
111.458344
 11
-36.524017
 21
106.058334
  0
LINE
  8
0
 10
-40.524017
 20
111.458344
 11
-40.524017
 21
106.058319
  0
LINE
  8
0
 10
-40.524151
 20
111.458313
 11
-36.524151
 21
111.458313
  0
LINE
  8
0
 10
-40.524139
 20
106.058319
 11
-36.524139
 21
106.058319
  0
LINE
  8
0
 10
-40.524151
 20
110.458344
 11
-36.524151
 21
110.458344
  0
LINE
  8
0
 10
-40.524147
 20
109.458313
 11
-36.524147
 21
109.458313
  0
LINE
  8
0
 10
-40.524147
 20
108.458344
 11
-36.524147
 21
108.458344
  0
LINE
  8
0
 10
-40.524143
 20
107.458313
 11
-36.524143
 21
107.458313
  0
LINE
  8
0
 10
-40.524143
 20
107.458313
 11
-36.524143
 21
107.458313
  0
LINE
  8
0
 10
-41.824150
 20
108.058319
 11
-40.524147
 21
108.058319
  0
LINE
  8
0
 10
-42.824154
 20
111.558319
 11
-40.024151
 21
111.558319
  0
LINE
  8
0
 10
-37.024151
 20
111.558319
 11
-34.224163
 21
111.558319
  0
LINE
  8
0
 10
-42.824150
 20
109.058319
 11
-40.524147
 21
109.058319
  0
LINE
  8
0
 10
-36.524147
 20
109.058319
 11
-34.224159
 21
109.058319
  0
LINE
  8
0
 10
-32.724014
 20
122.708344
 11
-32.724014
 21
52.708351
  0
LINE
  8
0
 10
-47.724155
 20
122.708313
 11
-32.724155
 21
122.708313
  0
LINE
  8
0
 10
-47.724014
 20
52.708321
 11
-32.724014
 21
52.708321
  0
LINE
  8
0
 10
-40.224014
 20
123.440552
 11
-40.224014
 21
50.787514
  0
LINE
  8
0
 10
-47.724045
 20
67.708321
 11
-32.724045
 21
67.708321
  0
LINE
  8
0
 10
-46.924038
 20
66.708321
 11
-33.524029
 21
66.708321
  0
LINE
  8
0
 10
-46.924023
 20
57.708305
 11
-33.724026
 21
57.708305
  0
LINE
  8
0
 10
-27.624008
 20
56.208290
 11
-22.824005
 21
56.208290
  0
LINE
  8
0
 10
-42.824024
 20
69.708321
 11
-34.224049
 21
69.708321
  0
LINE
  8
0
 10
-42.824120
 20
115.708313
 11
-34.224144
 21
115.708313
  0
LINE
  8
0
 10
-37.734673
 20
61.147675
 11
-35.613350
 21
63.268993
  0
LINE
  8
0
 10
-37.734657
 20
63.269012
 11
-35.613346
 21
61.147701
  0
LINE
  8
0
 10
-39.524002
 20
65.058327
 11
-39.524002
 21
59.358330
  0
LINE
  8
0
 10
-33.824005
 20
65.058342
 11
-33.824005
 21
59.358345
  0
LINE
  8
0
 10
-39.524017
 20
59.358315
 11
-33.824020
 21
59.358315
  0
LINE
  8
0
 10
-39.524029
 20
65.058311
 11
-33.824032
 21
65.058311
  0
LINE
  8
0
 10
-46.624023
 20
59.358315
 11
-40.924026
 21
59.358315
  0
LINE
  8
0
 10
-46.624008
 20
65.058311
 11
-46.624008
 21
59.358315
  0
LINE
  8
0
 10
-46.624035
 20
65.058311
 11
-40.924038
 21
65.058311
  0
LINE
  8
0
 10
-40.924011
 20
65.058327
 11
-40.924011
 21
59.358330
  0
LINE
  8
0
 10
-33.524002
 20
67.708351
 11
-33.524002
 21
52.708351
  0
LINE
  8
0
 10
-46.924011
 20
67.708321
 11
-46.924011
 21
52.708321
  0
LINE
  8
0
 10
-44.324070
 20
92.708344
 11
-31.224094
 21
92.708344
  0
LINE
  8
0
 10
-41.284756
 20
118.147621
 11
-39.163425
 21
120.268951
  0
LINE
  8
0
 10
-41.284737
 20
120.269081
 11
-39.163414
 21
118.147758
  0
LINE
  8
0
 10
-36.224014
 20
56.708328
 11
-36.224014
 21
53.708344
  0
LINE
  8
0
 10
-37.724018
 20
55.208321
 11
-34.724018
 21
55.208321
  0
LINE
  8
0
 10
-44.224014
 20
56.708313
 11
-44.224014
 21
53.708328
  0
LINE
  8
0
 10
-45.724018
 20
55.208321
 11
-42.724018
 21
55.208321
  0
LINE
  8
0
 10
-44.834656
 20
63.268986
 11
-42.713345
 21
61.147678
  0
LINE
  8
0
 10
-44.834671
 20
61.147678
 11
-42.713352
 21
63.268997
  0
LINE
  8
0
 10
-9.524010
 20
65.058334
 11
-9.524010
 21
59.358337
  0
LINE
  8
0
 10
-3.824013
 20
65.058342
 11
-3.824013
 21
59.358345
  0
LINE
  8
0
 10
-9.524021
 20
59.358322
 11
-3.824024
 21
59.358322
  0
LINE
  8
0
 10
-9.524029
 20
65.058319
 11
-3.824032
 21
65.058319
  0
LINE
  8
0
 10
-16.624027
 20
59.358322
 11
-10.924030
 21
59.358322
  0
LINE
  8
0
 10
-16.624016
 20
65.058319
 11
-16.624016
 21
59.358322
  0
LINE
  8
0
 10
-16.624035
 20
65.058319
 11
-10.924038
 21
65.058319
  0
LINE
  8
0
 10
-10.924019
 20
65.058327
 11
-10.924019
 21
59.358330
  0
LINE
  8
0
 10
-17.724022
 20
52.708328
 11
-2.724022
 21
52.708328
  0
LINE
  8
0
 10
-2.724022
 20
122.708344
 11
-2.724022
 21
52.708351
  0
LINE
  8
0
 10
-17.724129
 20
122.708328
 11
-2.724129
 21
122.708328
  0
LINE
  8
0
 10
-17.724045
 20
67.708328
 11
-2.724045
 21
67.708328
  0
LINE
  8
0
 10
-3.524010
 20
67.708351
 11
-3.524010
 21
52.708351
  0
LINE
  8
0
 10
-16.924019
 20
67.708328
 11
-16.924019
 21
52.708328
  0
LINE
  8
0
 10
-16.924042
 20
66.708328
 11
-3.524033
 21
66.708328
  0
LINE
  8
0
 10
-16.924026
 20
57.708313
 11
-3.524017
 21
57.708313
  0
LINE
  8
0
 10
-7.734692
 20
61.147678
 11
-5.613373
 21
63.268997
  0
LINE
  8
0
 10
-7.734680
 20
63.269001
 11
-5.613369
 21
61.147690
  0
LINE
  8
0
 10
-10.224022
 20
126.042633
 11
-10.224022
 21
49.278633
  0
LINE
  8
0
 10
-16.524010
 20
119.708344
 11
-16.524010
 21
71.708344
  0
LINE
  8
0
 10
-6.424141
 20
122.208344
 11
-9.885704
 21
122.208344
  0
LINE
  8
0
 10
-3.924004
 20
119.708374
 11
-3.924004
 21
71.708382
  0
LINE
  8
0
 10
-6.314003
 20
112.832382
 11
-6.314003
 21
78.584351
  0
LINE
  8
0
 10
-8.309261
 20
76.910164
 11
-12.729282
 21
77.689529
  0
LINE
  8
0
 10
-8.309322
 20
114.506546
 11
-12.729328
 21
113.727188
  0
LINE
  8
0
 10
-7.474007
 20
70.600662
 11
-7.474007
 21
73.776093
  0
LINE
  8
0
 10
-12.974007
 20
70.600655
 11
-12.974007
 21
73.776085
  0
LINE
  8
0
 10
-7.474041
 20
70.600616
 11
-10.224045
 21
69.012901
  0
LINE
  8
0
 10
-10.224056
 20
75.363754
 11
-12.974060
 21
73.776047
  0
LINE
  8
0
 10
-10.224083
 20
69.012962
 11
-12.974072
 21
70.600670
  0
LINE
  8
0
 10
-7.474056
 20
73.776077
 11
-10.224052
 21
75.363792
  0
LINE
  8
0
 10
-7.474007
 20
117.640610
 11
-7.474007
 21
120.816040
  0
LINE
  8
0
 10
-12.974007
 20
117.640594
 11
-12.974007
 21
120.816040
  0
LINE
  8
0
 10
-7.474056
 20
117.640526
 11
-10.224045
 21
116.052818
  0
LINE
  8
0
 10
-10.224075
 20
122.403671
 11
-12.974079
 21
120.815956
  0
LINE
  8
0
 10
-10.224079
 20
116.052887
 11
-12.974083
 21
117.640610
  0
LINE
  8
0
 10
-7.474117
 20
120.816055
 11
-10.224121
 21
122.403770
  0
LINE
  8
0
 10
-10.562538
 20
122.208344
 11
-14.024147
 21
122.208344
  0
LINE
  8
0
 10
-10.562534
 20
69.208359
 11
-14.024052
 21
69.208359
  0
LINE
  8
0
 10
-6.424046
 20
69.208359
 11
-9.885578
 21
69.208359
  0
LINE
  8
0
 10
-6.224022
 20
56.708328
 11
-6.224022
 21
53.708344
  0
LINE
  8
0
 10
-7.724026
 20
55.208328
 11
-4.724026
 21
55.208328
  0
LINE
  8
0
 10
-14.224022
 20
56.708321
 11
-14.224022
 21
53.708336
  0
LINE
  8
0
 10
-15.724026
 20
55.208328
 11
-12.724026
 21
55.208328
  0
LINE
  8
0
 10
-14.834667
 20
63.268982
 11
-12.713360
 21
61.147675
  0
LINE
  8
0
 10
-14.834698
 20
61.147667
 11
-12.713375
 21
63.268986
  0
LINE
  8
0
 10
-14.134045
 20
112.052979
 11
-14.134045
 21
79.363708
  0
LINE
  8
0
 10
12.275978
 20
122.708344
 11
12.275978
 21
52.708344
  0
LINE
  8
0
 10
-2.724060
 20
122.708344
 11
12.275940
 21
122.708344
  0
LINE
  8
0
 10
-2.724022
 20
52.708336
 11
12.275978
 21
52.708336
  0
LINE
  8
0
 10
4.775978
 20
126.042633
 11
4.775978
 21
49.278633
  0
LINE
  8
0
 10
-0.974022
 20
57.378334
 11
10.425987
 21
57.378334
  0
LINE
  8
0
 10
-0.974026
 20
58.698326
 11
10.425980
 21
58.698326
  0
LINE
  8
0
 10
-0.974030
 20
64.998329
 11
10.425980
 21
64.998329
  0
LINE
  8
0
 10
10.425987
 20
57.378342
 11
10.425987
 21
112.038345
  0
LINE
  8
0
 10
-0.974007
 20
57.378334
 11
-0.974007
 21
112.038330
  0
LINE
  8
0
 10
8.475990
 20
59.698349
 11
8.475990
 21
63.998337
  0
LINE
  8
0
 10
1.575981
 20
59.698341
 11
1.575981
 21
63.998329
  0
LINE
  8
0
 10
7.625984
 20
58.698334
 11
7.625984
 21
59.698349
  0
LINE
  8
0
 10
2.425987
 20
58.698326
 11
2.425987
 21
59.698341
  0
LINE
  8
0
 10
1.575977
 20
59.698341
 11
2.425983
 21
59.698341
  0
LINE
  8
0
 10
1.575974
 20
63.998329
 11
2.425980
 21
63.998329
  0
LINE
  8
0
 10
7.625984
 20
63.998337
 11
7.625984
 21
64.998337
  0
LINE
  8
0
 10
2.425987
 20
63.998329
 11
2.425987
 21
64.998329
  0
LINE
  8
0
 10
7.625980
 20
59.698341
 11
8.475986
 21
59.698341
  0
LINE
  8
0
 10
7.625977
 20
63.998329
 11
8.475983
 21
63.998329
  0
LINE
  8
0
 10
-0.974030
 20
66.318336
 11
10.425980
 21
66.318336
  0
LINE
  8
0
 10
-0.974030
 20
72.618340
 11
10.425980
 21
72.618340
  0
LINE
  8
0
 10
8.475990
 20
67.318344
 11
8.475990
 21
71.618332
  0
LINE
  8
0
 10
1.575981
 20
67.318336
 11
1.575981
 21
71.618324
  0
LINE
  8
0
 10
7.625984
 20
66.318344
 11
7.625984
 21
67.318344
  0
LINE
  8
0
 10
2.425987
 20
66.318336
 11
2.425987
 21
67.318336
  0
LINE
  8
0
 10
1.575974
 20
67.318336
 11
2.425980
 21
67.318336
  0
LINE
  8
0
 10
1.575974
 20
71.618324
 11
2.425980
 21
71.618324
  0
LINE
  8
0
 10
7.625984
 20
71.618332
 11
7.625984
 21
72.618347
  0
LINE
  8
0
 10
2.425987
 20
71.618324
 11
2.425987
 21
72.618340
  0
LINE
  8
0
 10
7.625977
 20
67.318336
 11
8.475983
 21
67.318336
  0
LINE
  8
0
 10
7.625977
 20
71.618324
 11
8.475983
 21
71.618324
  0
LINE
  8
0
 10
-0.974033
 20
73.938332
 11
10.425980
 21
73.938332
  0
LINE
  8
0
 10
-0.974037
 20
80.238342
 11
10.425972
 21
80.238342
  0
LINE
  8
0
 10
8.475990
 20
74.938339
 11
8.475990
 21
79.238327
  0
LINE
  8
0
 10
1.575981
 20
74.938332
 11
1.575981
 21
79.238312
  0
LINE
  8
0
 10
7.625984
 20
73.938339
 11
7.625984
 21
74.938339
  0
LINE
  8
0
 10
2.425987
 20
73.938332
 11
2.425987
 21
74.938332
  0
LINE
  8
0
 10
1.575970
 20
74.938332
 11
2.425976
 21
74.938332
  0
LINE
  8
0
 10
1.575966
 20
79.238312
 11
2.425972
 21
79.238312
  0
LINE
  8
0
 10
7.625984
 20
79.238327
 11
7.625984
 21
80.238342
  0
LINE
  8
0
 10
2.425987
 20
79.238312
 11
2.425987
 21
80.238342
  0
LINE
  8
0
 10
7.625973
 20
74.938332
 11
8.475979
 21
74.938332
  0
LINE
  8
0
 10
7.625969
 20
79.238312
 11
8.475975
 21
79.238312
  0
LINE
  8
0
 10
-0.974022
 20
81.558319
 11
10.425972
 21
81.558319
  0
LINE
  8
0
 10
-0.974022
 20
87.858337
 11
10.425972
 21
87.858337
  0
LINE
  8
0
 10
8.475990
 20
82.558350
 11
8.475990
 21
86.858337
  0
LINE
  8
0
 10
1.575981
 20
82.558350
 11
1.575981
 21
86.858337
  0
LINE
  8
0
 10
7.625984
 20
81.558334
 11
7.625984
 21
82.558350
  0
LINE
  8
0
 10
2.425987
 20
81.558319
 11
2.425987
 21
82.558350
  0
LINE
  8
0
 10
1.575966
 20
82.558350
 11
2.425972
 21
82.558350
  0
LINE
  8
0
 10
1.575966
 20
86.858337
 11
2.425972
 21
86.858337
  0
LINE
  8
0
 10
7.625984
 20
86.858337
 11
7.625984
 21
87.858337
  0
LINE
  8
0
 10
2.425987
 20
86.858337
 11
2.425987
 21
87.858337
  0
LINE
  8
0
 10
7.625969
 20
82.558350
 11
8.475975
 21
82.558350
  0
LINE
  8
0
 10
7.625969
 20
86.858337
 11
8.475975
 21
86.858337
  0
LINE
  8
0
 10
-0.974026
 20
89.178314
 11
10.425964
 21
89.178314
  0
LINE
  8
0
 10
-0.974030
 20
95.478333
 11
10.425964
 21
95.478333
  0
LINE
  8
0
 10
8.475990
 20
90.178345
 11
8.475990
 21
94.478333
  0
LINE
  8
0
 10
1.575981
 20
90.178345
 11
1.575981
 21
94.478333
  0
LINE
  8
0
 10
7.625984
 20
89.178329
 11
7.625984
 21
90.178345
  0
LINE
  8
0
 10
2.425987
 20
89.178314
 11
2.425987
 21
90.178345
  0
LINE
  8
0
 10
1.575962
 20
90.178345
 11
2.425968
 21
90.178345
  0
LINE
  8
0
 10
1.575958
 20
94.478333
 11
2.425964
 21
94.478333
  0
LINE
  8
0
 10
7.625984
 20
94.478333
 11
7.625984
 21
95.478348
  0
LINE
  8
0
 10
2.425987
 20
94.478333
 11
2.425987
 21
95.478333
  0
LINE
  8
0
 10
7.625965
 20
90.178345
 11
8.475971
 21
90.178345
  0
LINE
  8
0
 10
7.625961
 20
94.478333
 11
8.475967
 21
94.478333
  0
LINE
  8
0
 10
-0.974030
 20
96.798340
 11
10.425964
 21
96.798340
  0
LINE
  8
0
 10
8.475990
 20
97.798340
 11
8.475990
 21
102.098328
  0
LINE
  8
0
 10
1.575981
 20
97.798340
 11
1.575981
 21
102.098328
  0
LINE
  8
0
 10
7.625984
 20
96.798340
 11
7.625984
 21
97.798340
  0
LINE
  8
0
 10
2.425987
 20
96.798340
 11
2.425987
 21
97.798340
  0
LINE
  8
0
 10
1.575958
 20
97.798340
 11
2.425964
 21
97.798340
  0
LINE
  8
0
 10
1.575958
 20
102.098328
 11
2.425964
 21
102.098328
  0
LINE
  8
0
 10
7.625984
 20
102.098328
 11
7.625984
 21
103.098343
  0
LINE
  8
0
 10
2.425987
 20
102.098328
 11
2.425987
 21
103.098328
  0
LINE
  8
0
 10
7.625961
 20
97.798340
 11
8.475967
 21
97.798340
  0
LINE
  8
0
 10
7.625961
 20
102.098328
 11
8.475967
 21
102.098328
  0
LINE
  8
0
 10
-0.974030
 20
103.098328
 11
10.425964
 21
103.098328
  0
LINE
  8
0
 10
-0.974033
 20
104.418335
 11
10.425964
 21
104.418335
  0
LINE
  8
0
 10
-0.974037
 20
110.718323
 11
10.425957
 21
110.718323
  0
LINE
  8
0
 10
8.475990
 20
105.418350
 11
8.475990
 21
109.718338
  0
LINE
  8
0
 10
1.575981
 20
105.418335
 11
1.575981
 21
109.718323
  0
LINE
  8
0
 10
7.625984
 20
104.418335
 11
7.625984
 21
105.418350
  0
LINE
  8
0
 10
2.425987
 20
104.418335
 11
2.425987
 21
105.418335
  0
LINE
  8
0
 10
1.575954
 20
105.418335
 11
2.425961
 21
105.418335
  0
LINE
  8
0
 10
1.575951
 20
109.718323
 11
2.425957
 21
109.718323
  0
LINE
  8
0
 10
7.625984
 20
109.718338
 11
7.625984
 21
110.718338
  0
LINE
  8
0
 10
2.425987
 20
109.718323
 11
2.425987
 21
110.718323
  0
LINE
  8
0
 10
7.625957
 20
105.418335
 11
8.475964
 21
105.418335
  0
LINE
  8
0
 10
7.625954
 20
109.718323
 11
8.475960
 21
109.718323
  0
LINE
  8
0
 10
-0.974037
 20
112.038330
 11
10.425957
 21
112.038330
  0
LINE
  8
0
 10
3.611763
 20
60.434105
 11
6.440193
 21
63.262531
  0
LINE
  8
0
 10
3.611797
 20
63.262581
 11
6.440224
 21
60.434155
  0
LINE
  8
0
 10
3.361794
 20
120.622620
 11
6.190228
 21
117.794189
  0
LINE
  8
0
 10
3.361736
 20
117.794113
 11
6.190163
 21
120.622543
  0
LINE
  8
0
 10
3.611809
 20
101.362595
 11
6.440239
 21
98.534164
  0
LINE
  8
0
 10
3.611767
 20
98.534103
 11
6.440189
 21
101.362518
  0
LINE
  8
0
 10
3.611790
 20
93.742599
 11
6.440216
 21
90.914169
  0
LINE
  8
0
 10
3.611763
 20
90.914108
 11
6.440189
 21
93.742538
  0
LINE
  8
0
 10
3.611790
 20
86.122597
 11
6.440216
 21
83.294167
  0
LINE
  8
0
 10
3.611725
 20
83.294113
 11
6.440151
 21
86.122543
  0
LINE
  8
0
 10
3.611809
 20
78.502594
 11
6.440235
 21
75.674164
  0
LINE
  8
0
 10
3.611740
 20
75.674118
 11
6.440166
 21
78.502541
  0
LINE
  8
0
 10
3.611790
 20
70.882599
 11
6.440228
 21
68.054161
  0
LINE
  8
0
 10
3.611752
 20
68.054115
 11
6.440178
 21
70.882538
  0
LINE
  8
0
 10
3.611782
 20
108.982574
 11
6.440212
 21
106.154144
  0
LINE
  8
0
 10
3.611752
 20
106.154129
 11
6.440178
 21
108.982559
  0
LINE
  8
0
 10
17.375984
 20
124.495911
 11
17.375984
 21
43.526436
  0
LINE
  8
0
 10
21.275978
 20
44.708344
 11
13.475975
 21
44.708344
  0
LINE
  8
0
 10
21.275978
 20
45.908340
 11
13.475975
 21
45.908340
  0
LINE
  8
0
 10
14.875984
 20
47.354904
 11
14.875984
 21
45.908340
  0
LINE
  8
0
 10
19.875984
 20
47.354904
 11
19.875984
 21
45.908340
  0
LINE
  8
0
 10
22.375999
 20
52.708344
 11
22.375999
 21
47.354904
  0
LINE
  8
0
 10
22.375999
 20
47.354904
 11
12.375984
 21
47.354904
  0
LINE
  8
0
 10
21.275978
 20
45.908348
 11
21.275978
 21
44.708351
  0
LINE
  8
0
 10
22.475990
 20
122.708344
 11
22.475990
 21
52.708344
  0
LINE
  8
0
 10
22.475990
 20
122.708344
 11
12.275978
 21
122.708344
  0
LINE
  8
0
 10
22.475975
 20
52.708344
 11
12.275978
 21
52.708344
  0
LINE
  8
0
 10
12.275978
 20
97.308350
 11
22.475990
 21
97.308350
  0
LINE
  8
0
 10
12.275978
 20
119.808350
 11
22.475990
 21
119.808350
  0
LINE
  8
0
 10
12.953331
 20
98.308350
 11
21.798637
 21
98.308350
  0
LINE
  8
0
 10
12.953331
 20
118.808350
 11
21.798637
 21
118.808350
  0
LINE
  8
0
 10
21.798637
 20
118.808350
 11
21.798637
 21
98.308350
  0
LINE
  8
0
 10
15.875984
 20
112.808350
 11
18.875984
 21
112.808350
  0
LINE
  8
0
 10
15.875984
 20
114.808350
 11
18.875984
 21
114.808350
  0
LINE
  8
0
 10
15.875984
 20
114.808350
 11
15.875984
 21
112.808350
  0
LINE
  8
0
 10
18.875984
 20
114.808350
 11
18.875984
 21
112.808350
  0
LINE
  8
0
 10
14.075981
 20
116.108353
 11
20.675987
 21
116.108353
  0
LINE
  8
0
 10
14.075981
 20
106.508347
 11
20.675987
 21
106.508347
  0
LINE
  8
0
 10
20.675987
 20
116.108353
 11
20.675987
 21
106.508347
  0
LINE
  8
0
 10
14.875984
 20
107.308350
 11
19.875984
 21
107.308350
  0
LINE
  8
0
 10
14.875984
 20
111.308350
 11
19.875984
 21
111.308350
  0
LINE
  8
0
 10
14.875984
 20
111.308350
 11
14.875984
 21
107.308350
  0
LINE
  8
0
 10
19.875984
 20
111.308350
 11
19.875984
 21
107.308350
  0
LINE
  8
0
 10
12.375984
 20
85.808334
 11
22.375984
 21
85.808334
  0
LINE
  8
0
 10
14.775993
 20
95.008347
 11
19.975990
 21
95.008347
  0
LINE
  8
0
 10
22.475990
 20
85.808334
 11
12.275978
 21
85.808334
  0
LINE
  8
0
 10
12.275978
 20
62.608337
 11
22.475990
 21
62.608337
  0
LINE
  8
0
 10
12.275978
 20
57.108337
 11
22.475990
 21
57.108337
  0
LINE
  8
0
 10
13.475975
 20
45.908340
 11
13.475975
 21
44.708344
  0
LINE
  8
0
 10
14.075981
 20
116.108353
 11
14.075981
 21
106.508347
  0
LINE
  8
0
 10
12.953331
 20
118.808350
 11
12.953331
 21
98.308350
  0
LINE
  8
0
 10
12.375984
 20
52.708344
 11
12.375984
 21
47.354919
  0
LINE
  8
0
 10
27.575989
 20
124.495911
 11
27.575989
 21
43.526436
  0
LINE
  8
0
 10
31.475983
 20
44.708344
 11
23.675972
 21
44.708344
  0
LINE
  8
0
 10
31.475983
 20
45.908340
 11
23.675972
 21
45.908340
  0
LINE
  8
0
 10
25.075989
 20
47.354904
 11
25.075989
 21
45.908340
  0
LINE
  8
0
 10
30.075989
 20
47.354904
 11
30.075989
 21
45.908340
  0
LINE
  8
0
 10
32.576004
 20
52.708344
 11
32.576004
 21
47.354904
  0
LINE
  8
0
 10
32.576004
 20
47.354904
 11
22.575981
 21
47.354904
  0
LINE
  8
0
 10
31.475983
 20
45.908348
 11
31.475983
 21
44.708351
  0
LINE
  8
0
 10
32.675995
 20
122.708344
 11
32.675995
 21
52.708344
  0
LINE
  8
0
 10
32.675995
 20
122.708344
 11
22.475975
 21
122.708344
  0
LINE
  8
0
 10
32.675980
 20
52.708344
 11
22.475975
 21
52.708344
  0
LINE
  8
0
 10
22.475975
 20
97.308350
 11
32.675995
 21
97.308350
  0
LINE
  8
0
 10
22.475975
 20
119.808350
 11
32.675995
 21
119.808350
  0
LINE
  8
0
 10
23.153328
 20
98.308350
 11
31.998642
 21
98.308350
  0
LINE
  8
0
 10
23.153328
 20
118.808350
 11
31.998642
 21
118.808350
  0
LINE
  8
0
 10
31.998642
 20
118.808350
 11
31.998642
 21
98.308350
  0
LINE
  8
0
 10
26.075981
 20
112.808350
 11
29.075981
 21
112.808350
  0
LINE
  8
0
 10
26.075981
 20
114.808350
 11
29.075981
 21
114.808350
  0
LINE
  8
0
 10
26.075989
 20
114.808350
 11
26.075989
 21
112.808350
  0
LINE
  8
0
 10
29.075989
 20
114.808350
 11
29.075989
 21
112.808350
  0
LINE
  8
0
 10
24.275978
 20
116.108353
 11
30.875992
 21
116.108353
  0
LINE
  8
0
 10
24.275978
 20
106.508347
 11
30.875992
 21
106.508347
  0
LINE
  8
0
 10
30.875992
 20
116.108353
 11
30.875992
 21
106.508347
  0
LINE
  8
0
 10
25.075981
 20
107.308350
 11
30.075989
 21
107.308350
  0
LINE
  8
0
 10
25.075981
 20
111.308350
 11
30.075989
 21
111.308350
  0
LINE
  8
0
 10
25.075989
 20
111.308350
 11
25.075989
 21
107.308350
  0
LINE
  8
0
 10
30.075989
 20
111.308350
 11
30.075989
 21
107.308350
  0
LINE
  8
0
 10
22.575981
 20
85.808334
 11
32.575989
 21
85.808334
  0
LINE
  8
0
 10
24.975990
 20
95.008347
 11
30.175995
 21
95.008347
  0
LINE
  8
0
 10
32.675995
 20
85.808334
 11
22.475975
 21
85.808334
  0
LINE
  8
0
 10
22.475975
 20
62.608337
 11
32.675995
 21
62.608337
  0
LINE
  8
0
 10
22.475975
 20
57.108337
 11
32.675995
 21
57.108337
  0
LINE
  8
0
 10
23.675980
 20
45.908340
 11
23.675980
 21
44.708344
  0
LINE
  8
0
 10
24.275986
 20
116.108353
 11
24.275986
 21
106.508347
  0
LINE
  8
0
 10
23.153336
 20
118.808350
 11
23.153336
 21
98.308350
  0
LINE
  8
0
 10
22.575989
 20
52.708344
 11
22.575989
 21
47.354919
  0
LINE
  8
0
 10
37.775986
 20
124.495911
 11
37.775986
 21
43.526436
  0
LINE
  8
0
 10
41.675980
 20
44.708344
 11
33.875977
 21
44.708344
  0
LINE
  8
0
 10
41.675980
 20
45.908340
 11
33.875977
 21
45.908340
  0
LINE
  8
0
 10
35.275986
 20
47.354904
 11
35.275986
 21
45.908340
  0
LINE
  8
0
 10
40.275986
 20
47.354904
 11
40.275986
 21
45.908340
  0
LINE
  8
0
 10
42.776001
 20
52.708344
 11
42.776001
 21
47.354904
  0
LINE
  8
0
 10
42.776001
 20
47.354904
 11
32.775986
 21
47.354904
  0
LINE
  8
0
 10
41.675980
 20
45.908348
 11
41.675980
 21
44.708351
  0
LINE
  8
0
 10
42.875992
 20
122.708344
 11
42.875992
 21
52.708344
  0
LINE
  8
0
 10
42.875992
 20
122.708344
 11
32.675980
 21
122.708344
  0
LINE
  8
0
 10
42.875977
 20
52.708344
 11
32.675980
 21
52.708344
  0
LINE
  8
0
 10
32.675980
 20
97.308350
 11
42.875992
 21
97.308350
  0
LINE
  8
0
 10
32.675980
 20
119.808350
 11
42.875992
 21
119.808350
  0
LINE
  8
0
 10
33.353333
 20
98.308350
 11
42.198639
 21
98.308350
  0
LINE
  8
0
 10
33.353333
 20
118.808350
 11
42.198639
 21
118.808350
  0
LINE
  8
0
 10
42.198639
 20
118.808350
 11
42.198639
 21
98.308350
  0
LINE
  8
0
 10
36.275986
 20
112.808350
 11
39.275986
 21
112.808350
  0
LINE
  8
0
 10
36.275986
 20
114.808350
 11
39.275986
 21
114.808350
  0
LINE
  8
0
 10
36.275986
 20
114.808350
 11
36.275986
 21
112.808350
  0
LINE
  8
0
 10
39.275986
 20
114.808350
 11
39.275986
 21
112.808350
  0
LINE
  8
0
 10
34.475983
 20
116.108353
 11
41.075989
 21
116.108353
  0
LINE
  8
0
 10
34.475983
 20
106.508347
 11
41.075989
 21
106.508347
  0
LINE
  8
0
 10
41.075989
 20
116.108353
 11
41.075989
 21
106.508347
  0
LINE
  8
0
 10
35.275986
 20
107.308350
 11
40.275986
 21
107.308350
  0
LINE
  8
0
 10
35.275986
 20
111.308350
 11
40.275986
 21
111.308350
  0
LINE
  8
0
 10
35.275986
 20
111.308350
 11
35.275986
 21
107.308350
  0
LINE
  8
0
 10
40.275986
 20
111.308350
 11
40.275986
 21
107.308350
  0
LINE
  8
0
 10
32.775986
 20
85.808334
 11
42.775986
 21
85.808334
  0
LINE
  8
0
 10
35.175995
 20
95.008347
 11
40.375992
 21
95.008347
  0
LINE
  8
0
 10
42.875992
 20
85.808334
 11
32.675980
 21
85.808334
  0
LINE
  8
0
 10
32.675980
 20
62.608337
 11
42.875992
 21
62.608337
  0
LINE
  8
0
 10
32.675980
 20
57.108337
 11
42.875992
 21
57.108337
  0
LINE
  8
0
 10
33.875977
 20
45.908340
 11
33.875977
 21
44.708344
  0
LINE
  8
0
 10
34.475983
 20
116.108353
 11
34.475983
 21
106.508347
  0
LINE
  8
0
 10
33.353333
 20
118.808350
 11
33.353333
 21
98.308350
  0
LINE
  8
0
 10
32.775986
 20
52.708344
 11
32.775986
 21
47.354919
  0
LINE
  8
0
 10
47.975983
 20
124.495911
 11
47.975983
 21
43.526436
  0
LINE
  8
0
 10
51.875977
 20
44.708344
 11
44.075974
 21
44.708344
  0
LINE
  8
0
 10
51.875977
 20
45.908340
 11
44.075974
 21
45.908340
  0
LINE
  8
0
 10
45.475983
 20
47.354904
 11
45.475983
 21
45.908340
  0
LINE
  8
0
 10
50.475983
 20
47.354904
 11
50.475983
 21
45.908340
  0
LINE
  8
0
 10
52.975998
 20
52.708344
 11
52.975998
 21
47.354904
  0
LINE
  8
0
 10
52.975998
 20
47.354904
 11
42.975983
 21
47.354904
  0
LINE
  8
0
 10
51.875977
 20
45.908348
 11
51.875977
 21
44.708351
  0
LINE
  8
0
 10
53.075989
 20
122.708344
 11
53.075989
 21
52.708344
  0
LINE
  8
0
 10
53.075989
 20
122.708344
 11
42.875977
 21
122.708344
  0
LINE
  8
0
 10
53.075974
 20
52.708344
 11
42.875977
 21
52.708344
  0
LINE
  8
0
 10
42.875977
 20
97.308350
 11
53.075989
 21
97.308350
  0
LINE
  8
0
 10
42.875977
 20
119.808350
 11
53.075989
 21
119.808350
  0
LINE
  8
0
 10
43.553329
 20
98.308350
 11
52.398636
 21
98.308350
  0
LINE
  8
0
 10
43.553329
 20
118.808350
 11
52.398636
 21
118.808350
  0
LINE
  8
0
 10
52.398636
 20
118.808350
 11
52.398636
 21
98.308350
  0
LINE
  8
0
 10
46.475983
 20
112.808350
 11
49.475983
 21
112.808350
  0
LINE
  8
0
 10
46.475983
 20
114.808350
 11
49.475983
 21
114.808350
  0
LINE
  8
0
 10
46.475983
 20
114.808350
 11
46.475983
 21
112.808350
  0
LINE
  8
0
 10
49.475983
 20
114.808350
 11
49.475983
 21
112.808350
  0
LINE
  8
0
 10
44.675980
 20
116.108353
 11
51.275986
 21
116.108353
  0
LINE
  8
0
 10
44.675980
 20
106.508347
 11
51.275986
 21
106.508347
  0
LINE
  8
0
 10
51.275986
 20
116.108353
 11
51.275986
 21
106.508347
  0
LINE
  8
0
 10
45.475983
 20
107.308350
 11
50.475983
 21
107.308350
  0
LINE
  8
0
 10
45.475983
 20
111.308350
 11
50.475983
 21
111.308350
  0
LINE
  8
0
 10
45.475983
 20
111.308350
 11
45.475983
 21
107.308350
  0
LINE
  8
0
 10
50.475983
 20
111.308350
 11
50.475983
 21
107.308350
  0
LINE
  8
0
 10
42.975983
 20
85.808334
 11
52.975983
 21
85.808334
  0
LINE
  8
0
 10
45.375992
 20
95.008347
 11
50.575989
 21
95.008347
  0
LINE
  8
0
 10
53.075989
 20
85.808334
 11
42.875977
 21
85.808334
  0
LINE
  8
0
 10
42.875977
 20
62.608337
 11
53.075989
 21
62.608337
  0
LINE
  8
0
 10
42.875977
 20
57.108337
 11
53.075989
 21
57.108337
  0
LINE
  8
0
 10
44.075974
 20
45.908340
 11
44.075974
 21
44.708344
  0
LINE
  8
0
 10
44.675980
 20
116.108353
 11
44.675980
 21
106.508347
  0
LINE
  8
0
 10
43.553329
 20
118.808350
 11
43.553329
 21
98.308350
  0
LINE
  8
0
 10
42.975983
 20
52.708344
 11
42.975983
 21
47.354919
  0
LINE
  8
0
 10
58.175980
 20
124.495911
 11
58.175980
 21
43.526436
  0
LINE
  8
0
 10
62.075974
 20
44.708344
 11
54.275970
 21
44.708344
  0
LINE
  8
0
 10
62.075974
 20
45.908340
 11
54.275970
 21
45.908340
  0
LINE
  8
0
 10
55.675980
 20
47.354904
 11
55.675980
 21
45.908340
  0
LINE
  8
0
 10
60.675980
 20
47.354904
 11
60.675980
 21
45.908340
  0
LINE
  8
0
 10
63.175995
 20
52.708344
 11
63.175995
 21
47.354904
  0
LINE
  8
0
 10
63.175995
 20
47.354904
 11
53.175980
 21
47.354904
  0
LINE
  8
0
 10
62.075974
 20
45.908348
 11
62.075974
 21
44.708351
  0
LINE
  8
0
 10
63.275986
 20
122.708344
 11
63.275986
 21
52.708344
  0
LINE
  8
0
 10
63.275986
 20
122.708344
 11
53.075974
 21
122.708344
  0
LINE
  8
0
 10
63.275970
 20
52.708344
 11
53.075974
 21
52.708344
  0
LINE
  8
0
 10
53.075974
 20
97.308350
 11
63.275986
 21
97.308350
  0
LINE
  8
0
 10
53.075974
 20
119.808350
 11
63.275986
 21
119.808350
  0
LINE
  8
0
 10
53.753326
 20
98.308350
 11
62.598633
 21
98.308350
  0
LINE
  8
0
 10
53.753326
 20
118.808350
 11
62.598633
 21
118.808350
  0
LINE
  8
0
 10
62.598633
 20
118.808350
 11
62.598633
 21
98.308350
  0
LINE
  8
0
 10
56.675980
 20
112.808350
 11
59.675980
 21
112.808350
  0
LINE
  8
0
 10
56.675980
 20
114.808350
 11
59.675980
 21
114.808350
  0
LINE
  8
0
 10
56.675980
 20
114.808350
 11
56.675980
 21
112.808350
  0
LINE
  8
0
 10
59.675980
 20
114.808350
 11
59.675980
 21
112.808350
  0
LINE
  8
0
 10
54.875977
 20
116.108353
 11
61.475983
 21
116.108353
  0
LINE
  8
0
 10
54.875977
 20
106.508347
 11
61.475983
 21
106.508347
  0
LINE
  8
0
 10
61.475983
 20
116.108353
 11
61.475983
 21
106.508347
  0
LINE
  8
0
 10
55.675980
 20
107.308350
 11
60.675980
 21
107.308350
  0
LINE
  8
0
 10
55.675980
 20
111.308350
 11
60.675980
 21
111.308350
  0
LINE
  8
0
 10
55.675980
 20
111.308350
 11
55.675980
 21
107.308350
  0
LINE
  8
0
 10
60.675980
 20
111.308350
 11
60.675980
 21
107.308350
  0
LINE
  8
0
 10
53.175980
 20
85.808334
 11
63.175980
 21
85.808334
  0
LINE
  8
0
 10
55.575989
 20
95.008347
 11
60.775986
 21
95.008347
  0
LINE
  8
0
 10
63.275986
 20
85.808334
 11
53.075974
 21
85.808334
  0
LINE
  8
0
 10
53.075974
 20
62.608337
 11
63.275986
 21
62.608337
  0
LINE
  8
0
 10
53.075974
 20
57.108337
 11
63.275986
 21
57.108337
  0
LINE
  8
0
 10
54.275970
 20
45.908340
 11
54.275970
 21
44.708344
  0
LINE
  8
0
 10
54.875977
 20
116.108353
 11
54.875977
 21
106.508347
  0
LINE
  8
0
 10
53.753326
 20
118.808350
 11
53.753326
 21
98.308350
  0
LINE
  8
0
 10
53.175980
 20
52.708344
 11
53.175980
 21
47.354919
  0
LINE
  8
0
 10
68.375984
 20
124.495911
 11
68.375984
 21
43.526436
  0
LINE
  8
0
 10
72.275978
 20
44.708344
 11
64.475975
 21
44.708344
  0
LINE
  8
0
 10
72.275978
 20
45.908340
 11
64.475975
 21
45.908340
  0
LINE
  8
0
 10
65.875984
 20
47.354904
 11
65.875984
 21
45.908340
  0
LINE
  8
0
 10
70.875984
 20
47.354904
 11
70.875984
 21
45.908340
  0
LINE
  8
0
 10
73.375999
 20
52.708344
 11
73.375999
 21
47.354904
  0
LINE
  8
0
 10
73.375999
 20
47.354904
 11
63.375984
 21
47.354904
  0
LINE
  8
0
 10
72.275978
 20
45.908348
 11
72.275978
 21
44.708351
  0
LINE
  8
0
 10
73.475990
 20
122.708344
 11
73.475990
 21
52.708344
  0
LINE
  8
0
 10
73.475990
 20
122.708344
 11
63.275978
 21
122.708344
  0
LINE
  8
0
 10
73.475975
 20
52.708344
 11
63.275978
 21
52.708344
  0
LINE
  8
0
 10
63.275978
 20
97.308350
 11
73.475990
 21
97.308350
  0
LINE
  8
0
 10
63.275978
 20
119.808350
 11
73.475990
 21
119.808350
  0
LINE
  8
0
 10
63.953331
 20
98.308350
 11
72.798637
 21
98.308350
  0
LINE
  8
0
 10
63.953331
 20
118.808350
 11
72.798637
 21
118.808350
  0
LINE
  8
0
 10
72.798637
 20
118.808350
 11
72.798637
 21
98.308350
  0
LINE
  8
0
 10
66.875984
 20
112.808350
 11
69.875984
 21
112.808350
  0
LINE
  8
0
 10
66.875984
 20
114.808350
 11
69.875984
 21
114.808350
  0
LINE
  8
0
 10
66.875984
 20
114.808350
 11
66.875984
 21
112.808350
  0
LINE
  8
0
 10
69.875984
 20
114.808350
 11
69.875984
 21
112.808350
  0
LINE
  8
0
 10
65.075981
 20
116.108353
 11
71.675987
 21
116.108353
  0
LINE
  8
0
 10
65.075981
 20
106.508347
 11
71.675987
 21
106.508347
  0
LINE
  8
0
 10
71.675987
 20
116.108353
 11
71.675987
 21
106.508347
  0
LINE
  8
0
 10
65.875984
 20
107.308350
 11
70.875984
 21
107.308350
  0
LINE
  8
0
 10
65.875984
 20
111.308350
 11
70.875984
 21
111.308350
  0
LINE
  8
0
 10
65.875984
 20
111.308350
 11
65.875984
 21
107.308350
  0
LINE
  8
0
 10
70.875984
 20
111.308350
 11
70.875984
 21
107.308350
  0
LINE
  8
0
 10
63.375984
 20
85.808334
 11
73.375984
 21
85.808334
  0
LINE
  8
0
 10
65.775993
 20
95.008347
 11
70.975990
 21
95.008347
  0
LINE
  8
0
 10
73.475990
 20
85.808334
 11
63.275978
 21
85.808334
  0
LINE
  8
0
 10
63.275978
 20
62.608337
 11
73.475990
 21
62.608337
  0
LINE
  8
0
 10
63.275978
 20
57.108337
 11
73.475990
 21
57.108337
  0
LINE
  8
0
 10
64.475975
 20
45.908340
 11
64.475975
 21
44.708344
  0
LINE
  8
0
 10
65.075981
 20
116.108353
 11
65.075981
 21
106.508347
  0
LINE
  8
0
 10
63.953331
 20
118.808350
 11
63.953331
 21
98.308350
  0
LINE
  8
0
 10
63.375984
 20
52.708344
 11
63.375984
 21
47.354919
  0
LINE
  8
0
 10
78.575989
 20
124.495911
 11
78.575989
 21
43.526436
  0
LINE
  8
0
 10
82.475983
 20
44.708344
 11
74.675980
 21
44.708344
  0
LINE
  8
0
 10
82.475983
 20
45.908340
 11
74.675980
 21
45.908340
  0
LINE
  8
0
 10
76.075989
 20
47.354904
 11
76.075989
 21
45.908340
  0
LINE
  8
0
 10
81.075989
 20
47.354904
 11
81.075989
 21
45.908340
  0
LINE
  8
0
 10
83.576004
 20
52.708344
 11
83.576004
 21
47.354904
  0
LINE
  8
0
 10
83.576004
 20
47.354904
 11
73.575989
 21
47.354904
  0
LINE
  8
0
 10
82.475983
 20
45.908348
 11
82.475983
 21
44.708351
  0
LINE
  8
0
 10
83.675995
 20
122.708344
 11
83.675995
 21
52.708344
  0
LINE
  8
0
 10
83.675995
 20
122.708344
 11
73.475983
 21
122.708344
  0
LINE
  8
0
 10
83.675980
 20
52.708344
 11
73.475983
 21
52.708344
  0
LINE
  8
0
 10
73.475983
 20
97.308350
 11
83.675995
 21
97.308350
  0
LINE
  8
0
 10
73.475983
 20
119.808350
 11
83.675995
 21
119.808350
  0
LINE
  8
0
 10
74.153336
 20
98.308350
 11
82.998642
 21
98.308350
  0
LINE
  8
0
 10
74.153336
 20
118.808350
 11
82.998642
 21
118.808350
  0
LINE
  8
0
 10
82.998642
 20
118.808350
 11
82.998642
 21
98.308350
  0
LINE
  8
0
 10
77.075989
 20
112.808350
 11
80.075989
 21
112.808350
  0
LINE
  8
0
 10
77.075989
 20
114.808350
 11
80.075989
 21
114.808350
  0
LINE
  8
0
 10
77.075989
 20
114.808350
 11
77.075989
 21
112.808350
  0
LINE
  8
0
 10
80.075989
 20
114.808350
 11
80.075989
 21
112.808350
  0
LINE
  8
0
 10
75.275986
 20
116.108353
 11
81.875992
 21
116.108353
  0
LINE
  8
0
 10
75.275986
 20
106.508347
 11
81.875992
 21
106.508347
  0
LINE
  8
0
 10
81.875992
 20
116.108353
 11
81.875992
 21
106.508347
  0
LINE
  8
0
 10
76.075989
 20
107.308350
 11
81.075989
 21
107.308350
  0
LINE
  8
0
 10
76.075989
 20
111.308350
 11
81.075989
 21
111.308350
  0
LINE
  8
0
 10
76.075989
 20
111.308350
 11
76.075989
 21
107.308350
  0
LINE
  8
0
 10
81.075989
 20
111.308350
 11
81.075989
 21
107.308350
  0
LINE
  8
0
 10
73.575989
 20
85.808334
 11
83.575989
 21
85.808334
  0
LINE
  8
0
 10
75.975998
 20
95.008347
 11
81.175995
 21
95.008347
  0
LINE
  8
0
 10
83.675995
 20
85.808334
 11
73.475983
 21
85.808334
  0
LINE
  8
0
 10
73.475983
 20
62.608337
 11
83.675995
 21
62.608337
  0
LINE
  8
0
 10
73.475983
 20
57.108337
 11
83.675995
 21
57.108337
  0
LINE
  8
0
 10
74.675980
 20
45.908340
 11
74.675980
 21
44.708344
  0
LINE
  8
0
 10
75.275986
 20
116.108353
 11
75.275986
 21
106.508347
  0
LINE
  8
0
 10
74.153336
 20
118.808350
 11
74.153336
 21
98.308350
  0
LINE
  8
0
 10
73.575989
 20
52.708344
 11
73.575989
 21
47.354919
  0
LINE
  8
0
 10
88.775986
 20
124.495911
 11
88.775986
 21
43.526436
  0
LINE
  8
0
 10
92.675980
 20
44.708344
 11
84.875977
 21
44.708344
  0
LINE
  8
0
 10
92.675980
 20
45.908340
 11
84.875977
 21
45.908340
  0
LINE
  8
0
 10
86.275986
 20
47.354904
 11
86.275986
 21
45.908340
  0
LINE
  8
0
 10
91.275986
 20
47.354904
 11
91.275986
 21
45.908340
  0
LINE
  8
0
 10
93.776001
 20
52.708344
 11
93.776001
 21
47.354904
  0
LINE
  8
0
 10
93.776001
 20
47.354904
 11
83.775986
 21
47.354904
  0
LINE
  8
0
 10
92.675980
 20
45.908348
 11
92.675980
 21
44.708351
  0
LINE
  8
0
 10
93.875992
 20
122.708344
 11
93.875992
 21
52.708344
  0
LINE
  8
0
 10
93.875992
 20
122.708344
 11
83.675980
 21
122.708344
  0
LINE
  8
0
 10
93.875977
 20
52.708344
 11
83.675980
 21
52.708344
  0
LINE
  8
0
 10
83.675980
 20
97.308350
 11
93.875992
 21
97.308350
  0
LINE
  8
0
 10
83.675980
 20
119.808350
 11
93.875992
 21
119.808350
  0
LINE
  8
0
 10
84.353333
 20
98.308350
 11
93.198639
 21
98.308350
  0
LINE
  8
0
 10
84.353333
 20
118.808350
 11
93.198639
 21
118.808350
  0
LINE
  8
0
 10
93.198639
 20
118.808350
 11
93.198639
 21
98.308350
  0
LINE
  8
0
 10
87.275986
 20
112.808350
 11
90.275986
 21
112.808350
  0
LINE
  8
0
 10
87.275986
 20
114.808350
 11
90.275986
 21
114.808350
  0
LINE
  8
0
 10
87.275986
 20
114.808350
 11
87.275986
 21
112.808350
  0
LINE
  8
0
 10
90.275986
 20
114.808350
 11
90.275986
 21
112.808350
  0
LINE
  8
0
 10
85.475983
 20
116.108353
 11
92.075989
 21
116.108353
  0
LINE
  8
0
 10
85.475983
 20
106.508347
 11
92.075989
 21
106.508347
  0
LINE
  8
0
 10
92.075989
 20
116.108353
 11
92.075989
 21
106.508347
  0
LINE
  8
0
 10
86.275986
 20
107.308350
 11
91.275986
 21
107.308350
  0
LINE
  8
0
 10
86.275986
 20
111.308350
 11
91.275986
 21
111.308350
  0
LINE
  8
0
 10
86.275986
 20
111.308350
 11
86.275986
 21
107.308350
  0
LINE
  8
0
 10
91.275986
 20
111.308350
 11
91.275986
 21
107.308350
  0
LINE
  8
0
 10
83.775986
 20
85.808334
 11
93.775986
 21
85.808334
  0
LINE
  8
0
 10
86.175995
 20
95.008347
 11
91.375992
 21
95.008347
  0
LINE
  8
0
 10
93.875992
 20
85.808334
 11
83.675980
 21
85.808334
  0
LINE
  8
0
 10
83.675980
 20
62.608337
 11
93.875992
 21
62.608337
  0
LINE
  8
0
 10
83.675980
 20
57.108337
 11
93.875992
 21
57.108337
  0
LINE
  8
0
 10
84.875977
 20
45.908340
 11
84.875977
 21
44.708344
  0
LINE
  8
0
 10
85.475983
 20
116.108353
 11
85.475983
 21
106.508347
  0
LINE
  8
0
 10
84.353333
 20
118.808350
 11
84.353333
 21
98.308350
  0
LINE
  8
0
 10
83.775986
 20
52.708344
 11
83.775986
 21
47.354919
  0
LINE
  8
0
 10
109.175980
 20
124.208344
 11
109.175980
 21
43.208344
  0
LINE
  8
0
 10
113.075974
 20
44.708344
 11
105.275970
 21
44.708344
  0
LINE
  8
0
 10
113.075974
 20
45.908340
 11
105.275970
 21
45.908340
  0
LINE
  8
0
 10
104.175980
 20
52.708344
 11
104.175980
 21
47.354919
  0
LINE
  8
0
 10
114.175995
 20
52.708344
 11
114.175995
 21
47.354904
  0
LINE
  8
0
 10
114.175995
 20
47.354904
 11
104.175980
 21
47.354904
  0
LINE
  8
0
 10
105.275970
 20
45.908340
 11
105.275970
 21
44.708344
  0
LINE
  8
0
 10
113.075974
 20
45.908348
 11
113.075974
 21
44.708351
  0
LINE
  8
0
 10
98.975983
 20
124.208344
 11
98.975983
 21
43.208344
  0
LINE
  8
0
 10
102.875977
 20
44.708344
 11
95.075974
 21
44.708344
  0
LINE
  8
0
 10
102.875977
 20
45.908340
 11
95.075974
 21
45.908340
  0
LINE
  8
0
 10
106.675980
 20
47.354904
 11
106.675980
 21
45.908340
  0
LINE
  8
0
 10
111.675980
 20
47.354904
 11
111.675980
 21
45.908340
  0
LINE
  8
0
 10
93.975967
 20
52.708344
 11
93.975967
 21
47.354919
  0
LINE
  8
0
 10
103.975983
 20
52.708344
 11
103.975983
 21
47.354904
  0
LINE
  8
0
 10
103.975983
 20
47.354904
 11
93.975983
 21
47.354904
  0
LINE
  8
0
 10
95.075974
 20
45.908340
 11
95.075974
 21
44.708344
  0
LINE
  8
0
 10
102.875977
 20
45.908348
 11
102.875977
 21
44.708351
  0
LINE
  8
0
 10
114.275986
 20
122.708344
 11
114.275986
 21
52.708344
  0
LINE
  8
0
 10
114.275986
 20
122.708344
 11
93.875977
 21
122.708344
  0
LINE
  8
0
 10
114.275986
 20
52.708344
 11
104.075989
 21
52.708344
  0
LINE
  8
0
 10
104.075974
 20
52.708344
 11
93.875977
 21
52.708344
  0
LINE
  8
0
 10
104.075989
 20
57.108337
 11
104.075989
 21
52.708344
  0
LINE
  8
0
 10
94.553329
 20
98.308350
 11
103.398636
 21
98.308350
  0
LINE
  8
0
 10
94.553329
 20
118.808350
 11
103.398636
 21
118.808350
  0
LINE
  8
0
 10
94.553329
 20
118.808350
 11
94.553329
 21
98.308350
  0
LINE
  8
0
 10
103.398636
 20
118.808350
 11
103.398636
 21
98.308350
  0
LINE
  8
0
 10
97.475983
 20
112.808350
 11
100.475983
 21
112.808350
  0
LINE
  8
0
 10
97.475983
 20
114.808350
 11
100.475983
 21
114.808350
  0
LINE
  8
0
 10
97.475983
 20
114.808350
 11
97.475983
 21
112.808350
  0
LINE
  8
0
 10
100.475983
 20
114.808350
 11
100.475983
 21
112.808350
  0
LINE
  8
0
 10
95.675980
 20
116.108353
 11
102.275986
 21
116.108353
  0
LINE
  8
0
 10
95.675980
 20
106.508347
 11
102.275986
 21
106.508347
  0
LINE
  8
0
 10
95.675980
 20
116.108353
 11
95.675980
 21
106.508347
  0
LINE
  8
0
 10
102.275986
 20
116.108353
 11
102.275986
 21
106.508347
  0
LINE
  8
0
 10
96.475983
 20
107.308350
 11
101.475983
 21
107.308350
  0
LINE
  8
0
 10
96.475983
 20
111.308350
 11
101.475983
 21
111.308350
  0
LINE
  8
0
 10
96.475983
 20
111.308350
 11
96.475983
 21
107.308350
  0
LINE
  8
0
 10
101.475983
 20
111.308350
 11
101.475983
 21
107.308350
  0
LINE
  8
0
 10
96.375992
 20
95.008347
 11
101.575989
 21
95.008347
  0
LINE
  8
0
 10
114.275986
 20
85.808334
 11
93.875977
 21
85.808334
  0
LINE
  8
0
 10
93.875977
 20
62.608337
 11
114.275986
 21
62.608337
  0
LINE
  8
0
 10
94.275986
 20
57.108337
 11
113.875977
 21
57.108337
  0
LINE
  8
0
 10
104.753342
 20
98.308350
 11
113.598633
 21
98.308350
  0
LINE
  8
0
 10
104.753342
 20
118.808350
 11
113.598633
 21
118.808350
  0
LINE
  8
0
 10
104.753342
 20
118.808350
 11
104.753342
 21
98.308350
  0
LINE
  8
0
 10
113.598633
 20
118.808350
 11
113.598633
 21
98.308350
  0
LINE
  8
0
 10
107.675995
 20
112.808350
 11
110.675995
 21
112.808350
  0
LINE
  8
0
 10
107.675995
 20
114.808350
 11
110.675995
 21
114.808350
  0
LINE
  8
0
 10
107.675995
 20
114.808350
 11
107.675995
 21
112.808350
  0
LINE
  8
0
 10
110.675995
 20
114.808350
 11
110.675995
 21
112.808350
  0
LINE
  8
0
 10
105.875992
 20
116.108353
 11
112.475983
 21
116.108353
  0
LINE
  8
0
 10
105.875992
 20
106.508347
 11
112.475983
 21
106.508347
  0
LINE
  8
0
 10
105.875992
 20
116.108353
 11
105.875992
 21
106.508347
  0
LINE
  8
0
 10
112.475983
 20
116.108353
 11
112.475983
 21
106.508347
  0
LINE
  8
0
 10
106.675995
 20
107.308350
 11
111.675995
 21
107.308350
  0
LINE
  8
0
 10
106.675995
 20
111.308350
 11
111.675995
 21
111.308350
  0
LINE
  8
0
 10
106.675995
 20
111.308350
 11
106.675995
 21
107.308350
  0
LINE
  8
0
 10
111.675995
 20
111.308350
 11
111.675995
 21
107.308350
  0
LINE
  8
0
 10
106.575989
 20
95.008347
 11
111.775986
 21
95.008347
  0
LINE
  8
0
 10
104.075989
 20
122.708344
 11
104.075989
 21
85.808334
  0
LINE
  8
0
 10
96.475983
 20
47.354904
 11
96.475983
 21
45.908340
  0
LINE
  8
0
 10
101.475983
 20
47.354904
 11
101.475983
 21
45.908340
  0
LINE
  8
0
 10
129.575989
 20
124.208344
 11
129.575989
 21
43.208344
  0
LINE
  8
0
 10
133.475983
 20
44.708344
 11
125.675980
 21
44.708344
  0
LINE
  8
0
 10
133.475983
 20
45.908340
 11
125.675980
 21
45.908340
  0
LINE
  8
0
 10
124.575989
 20
52.708344
 11
124.575989
 21
47.354919
  0
LINE
  8
0
 10
134.576004
 20
52.708344
 11
134.576004
 21
47.354904
  0
LINE
  8
0
 10
134.576004
 20
47.354904
 11
124.575989
 21
47.354904
  0
LINE
  8
0
 10
125.675980
 20
45.908340
 11
125.675980
 21
44.708344
  0
LINE
  8
0
 10
133.475983
 20
45.908348
 11
133.475983
 21
44.708351
  0
LINE
  8
0
 10
119.375992
 20
124.208344
 11
119.375992
 21
43.208344
  0
LINE
  8
0
 10
123.275986
 20
44.708344
 11
115.475983
 21
44.708344
  0
LINE
  8
0
 10
123.275986
 20
45.908340
 11
115.475983
 21
45.908340
  0
LINE
  8
0
 10
127.075989
 20
47.354904
 11
127.075989
 21
45.908340
  0
LINE
  8
0
 10
132.075989
 20
47.354904
 11
132.075989
 21
45.908340
  0
LINE
  8
0
 10
114.375977
 20
52.708344
 11
114.375977
 21
47.354919
  0
LINE
  8
0
 10
124.375992
 20
52.708344
 11
124.375992
 21
47.354904
  0
LINE
  8
0
 10
124.375992
 20
47.354904
 11
114.375992
 21
47.354904
  0
LINE
  8
0
 10
115.475983
 20
45.908340
 11
115.475983
 21
44.708344
  0
LINE
  8
0
 10
123.275986
 20
45.908348
 11
123.275986
 21
44.708351
  0
LINE
  8
0
 10
134.675995
 20
122.708344
 11
134.675995
 21
52.708344
  0
LINE
  8
0
 10
134.675995
 20
122.708344
 11
114.275986
 21
122.708344
  0
LINE
  8
0
 10
134.675995
 20
52.708344
 11
124.475998
 21
52.708344
  0
LINE
  8
0
 10
124.475983
 20
52.708344
 11
114.275986
 21
52.708344
  0
LINE
  8
0
 10
124.475998
 20
57.108337
 11
124.475998
 21
52.708344
  0
LINE
  8
0
 10
114.953339
 20
98.308350
 11
123.798645
 21
98.308350
  0
LINE
  8
0
 10
114.953339
 20
118.808350
 11
123.798645
 21
118.808350
  0
LINE
  8
0
 10
114.953339
 20
118.808350
 11
114.953339
 21
98.308350
  0
LINE
  8
0
 10
123.798645
 20
118.808350
 11
123.798645
 21
98.308350
  0
LINE
  8
0
 10
117.875992
 20
112.808350
 11
120.875992
 21
112.808350
  0
LINE
  8
0
 10
117.875992
 20
114.808350
 11
120.875992
 21
114.808350
  0
LINE
  8
0
 10
117.875992
 20
114.808350
 11
117.875992
 21
112.808350
  0
LINE
  8
0
 10
120.875992
 20
114.808350
 11
120.875992
 21
112.808350
  0
LINE
  8
0
 10
116.075989
 20
116.108353
 11
122.675995
 21
116.108353
  0
LINE
  8
0
 10
116.075989
 20
106.508347
 11
122.675995
 21
106.508347
  0
LINE
  8
0
 10
116.075989
 20
116.108353
 11
116.075989
 21
106.508347
  0
LINE
  8
0
 10
122.675995
 20
116.108353
 11
122.675995
 21
106.508347
  0
LINE
  8
0
 10
116.875992
 20
107.308350
 11
121.875992
 21
107.308350
  0
LINE
  8
0
 10
116.875992
 20
111.308350
 11
121.875992
 21
111.308350
  0
LINE
  8
0
 10
116.875992
 20
111.308350
 11
116.875992
 21
107.308350
  0
LINE
  8
0
 10
121.875992
 20
111.308350
 11
121.875992
 21
107.308350
  0
LINE
  8
0
 10
116.776001
 20
95.008347
 11
121.975998
 21
95.008347
  0
LINE
  8
0
 10
134.675995
 20
85.808334
 11
114.276001
 21
85.808334
  0
LINE
  8
0
 10
114.276001
 20
62.608337
 11
134.675995
 21
62.608337
  0
LINE
  8
0
 10
114.675995
 20
57.108337
 11
134.276001
 21
57.108337
  0
LINE
  8
0
 10
125.153351
 20
98.308350
 11
133.998642
 21
98.308350
  0
LINE
  8
0
 10
125.153351
 20
118.808350
 11
133.998642
 21
118.808350
  0
LINE
  8
0
 10
125.153351
 20
118.808350
 11
125.153351
 21
98.308350
  0
LINE
  8
0
 10
133.998642
 20
118.808350
 11
133.998642
 21
98.308350
  0
LINE
  8
0
 10
128.076004
 20
112.808350
 11
131.076004
 21
112.808350
  0
LINE
  8
0
 10
128.076004
 20
114.808350
 11
131.076004
 21
114.808350
  0
LINE
  8
0
 10
128.076004
 20
114.808350
 11
128.076004
 21
112.808350
  0
LINE
  8
0
 10
131.076004
 20
114.808350
 11
131.076004
 21
112.808350
  0
LINE
  8
0
 10
126.276001
 20
116.108353
 11
132.875992
 21
116.108353
  0
LINE
  8
0
 10
126.276001
 20
106.508347
 11
132.875992
 21
106.508347
  0
LINE
  8
0
 10
126.276001
 20
116.108353
 11
126.276001
 21
106.508347
  0
LINE
  8
0
 10
132.875992
 20
116.108353
 11
132.875992
 21
106.508347
  0
LINE
  8
0
 10
127.076004
 20
107.308350
 11
132.076004
 21
107.308350
  0
LINE
  8
0
 10
127.076004
 20
111.308350
 11
132.076004
 21
111.308350
  0
LINE
  8
0
 10
127.076004
 20
111.308350
 11
127.076004
 21
107.308350
  0
LINE
  8
0
 10
132.076004
 20
111.308350
 11
132.076004
 21
107.308350
  0
LINE
  8
0
 10
126.975998
 20
95.008347
 11
132.175995
 21
95.008347
  0
LINE
  8
0
 10
124.475998
 20
122.708344
 11
124.475998
 21
85.808334
  0
LINE
  8
0
 10
116.875992
 20
47.354904
 11
116.875992
 21
45.908340
  0
LINE
  8
0
 10
121.875992
 20
47.354904
 11
121.875992
 21
45.908340
  0
LINE
  8
0
 10
149.975998
 20
124.208344
 11
149.975998
 21
43.208344
  0
LINE
  8
0
 10
153.875992
 20
44.708344
 11
146.075989
 21
44.708344
  0
LINE
  8
0
 10
153.875992
 20
45.908340
 11
146.075989
 21
45.908340
  0
LINE
  8
0
 10
144.975998
 20
52.708344
 11
144.975998
 21
47.354919
  0
LINE
  8
0
 10
154.976013
 20
52.708344
 11
154.976013
 21
47.354904
  0
LINE
  8
0
 10
154.976013
 20
47.354904
 11
144.975998
 21
47.354904
  0
LINE
  8
0
 10
146.075989
 20
45.908340
 11
146.075989
 21
44.708344
  0
LINE
  8
0
 10
153.875992
 20
45.908348
 11
153.875992
 21
44.708351
  0
LINE
  8
0
 10
139.776001
 20
124.208344
 11
139.776001
 21
43.208344
  0
LINE
  8
0
 10
143.675995
 20
44.708344
 11
135.875992
 21
44.708344
  0
LINE
  8
0
 10
143.675995
 20
45.908340
 11
135.875992
 21
45.908340
  0
LINE
  8
0
 10
147.475998
 20
47.354904
 11
147.475998
 21
45.908340
  0
LINE
  8
0
 10
152.475998
 20
47.354904
 11
152.475998
 21
45.908340
  0
LINE
  8
0
 10
134.775986
 20
52.708344
 11
134.775986
 21
47.354919
  0
LINE
  8
0
 10
144.776001
 20
52.708344
 11
144.776001
 21
47.354904
  0
LINE
  8
0
 10
144.776001
 20
47.354904
 11
134.776001
 21
47.354904
  0
LINE
  8
0
 10
135.875992
 20
45.908340
 11
135.875992
 21
44.708344
  0
LINE
  8
0
 10
143.675995
 20
45.908348
 11
143.675995
 21
44.708351
  0
LINE
  8
0
 10
155.076004
 20
122.708344
 11
155.076004
 21
52.708344
  0
LINE
  8
0
 10
155.076004
 20
122.708344
 11
134.675995
 21
122.708344
  0
LINE
  8
0
 10
155.076004
 20
52.708344
 11
144.876007
 21
52.708344
  0
LINE
  8
0
 10
144.875992
 20
52.708344
 11
134.675995
 21
52.708344
  0
LINE
  8
0
 10
144.876007
 20
57.108337
 11
144.876007
 21
52.708344
  0
LINE
  8
0
 10
135.353348
 20
98.308350
 11
144.198654
 21
98.308350
  0
LINE
  8
0
 10
135.353348
 20
118.808350
 11
144.198654
 21
118.808350
  0
LINE
  8
0
 10
135.353348
 20
118.808350
 11
135.353348
 21
98.308350
  0
LINE
  8
0
 10
144.198654
 20
118.808350
 11
144.198654
 21
98.308350
  0
LINE
  8
0
 10
138.276001
 20
112.808350
 11
141.276001
 21
112.808350
  0
LINE
  8
0
 10
138.276001
 20
114.808350
 11
141.276001
 21
114.808350
  0
LINE
  8
0
 10
138.276001
 20
114.808350
 11
138.276001
 21
112.808350
  0
LINE
  8
0
 10
141.276001
 20
114.808350
 11
141.276001
 21
112.808350
  0
LINE
  8
0
 10
136.475998
 20
116.108353
 11
143.076004
 21
116.108353
  0
LINE
  8
0
 10
136.475998
 20
106.508347
 11
143.076004
 21
106.508347
  0
LINE
  8
0
 10
136.475998
 20
116.108353
 11
136.475998
 21
106.508347
  0
LINE
  8
0
 10
143.076004
 20
116.108353
 11
143.076004
 21
106.508347
  0
LINE
  8
0
 10
137.276001
 20
107.308350
 11
142.276001
 21
107.308350
  0
LINE
  8
0
 10
137.276001
 20
111.308350
 11
142.276001
 21
111.308350
  0
LINE
  8
0
 10
137.276001
 20
111.308350
 11
137.276001
 21
107.308350
  0
LINE
  8
0
 10
142.276001
 20
111.308350
 11
142.276001
 21
107.308350
  0
LINE
  8
0
 10
137.176010
 20
95.008347
 11
142.376007
 21
95.008347
  0
LINE
  8
0
 10
155.076004
 20
85.808334
 11
134.675995
 21
85.808334
  0
LINE
  8
0
 10
134.675995
 20
62.608337
 11
155.076004
 21
62.608337
  0
LINE
  8
0
 10
135.076004
 20
57.108337
 11
154.676010
 21
57.108337
  0
LINE
  8
0
 10
145.553360
 20
98.308350
 11
154.398651
 21
98.308350
  0
LINE
  8
0
 10
145.553360
 20
118.808350
 11
154.398651
 21
118.808350
  0
LINE
  8
0
 10
145.553360
 20
118.808350
 11
145.553360
 21
98.308350
  0
LINE
  8
0
 10
154.398651
 20
118.808350
 11
154.398651
 21
98.308350
  0
LINE
  8
0
 10
148.476013
 20
112.808350
 11
151.476013
 21
112.808350
  0
LINE
  8
0
 10
148.476013
 20
114.808350
 11
151.476013
 21
114.808350
  0
LINE
  8
0
 10
148.476013
 20
114.808350
 11
148.476013
 21
112.808350
  0
LINE
  8
0
 10
151.476013
 20
114.808350
 11
151.476013
 21
112.808350
  0
LINE
  8
0
 10
146.676010
 20
116.108353
 11
153.276001
 21
116.108353
  0
LINE
  8
0
 10
146.676010
 20
106.508347
 11
153.276001
 21
106.508347
  0
LINE
  8
0
 10
146.676010
 20
116.108353
 11
146.676010
 21
106.508347
  0
LINE
  8
0
 10
153.276001
 20
116.108353
 11
153.276001
 21
106.508347
  0
LINE
  8
0
 10
147.476013
 20
107.308350
 11
152.476013
 21
107.308350
  0
LINE
  8
0
 10
147.476013
 20
111.308350
 11
152.476013
 21
111.308350
  0
LINE
  8
0
 10
147.476013
 20
111.308350
 11
147.476013
 21
107.308350
  0
LINE
  8
0
 10
152.476013
 20
111.308350
 11
152.476013
 21
107.308350
  0
LINE
  8
0
 10
147.376007
 20
95.008347
 11
152.576004
 21
95.008347
  0
LINE
  8
0
 10
144.876007
 20
122.708344
 11
144.876007
 21
85.808334
  0
LINE
  8
0
 10
137.276001
 20
47.354904
 11
137.276001
 21
45.908340
  0
LINE
  8
0
 10
142.276001
 20
47.354904
 11
142.276001
 21
45.908340
  0
LINE
  8
0
 10
-17.724014
 20
122.708344
 11
-17.724014
 21
52.708344
  0
LINE
  8
0
 10
-32.724014
 20
122.708344
 11
-17.724014
 21
122.708344
  0
LINE
  8
0
 10
-32.724014
 20
52.708344
 11
-17.724014
 21
52.708344
  0
LINE
  8
0
 10
-32.724014
 20
67.708344
 11
-17.724014
 21
67.708344
  0
LINE
  8
0
 10
-18.524002
 20
67.708344
 11
-18.524002
 21
52.708344
  0
LINE
  8
0
 10
-31.924011
 20
67.708344
 11
-31.924011
 21
52.708344
  0
LINE
  8
0
 10
-31.924011
 20
66.708344
 11
-18.524002
 21
66.708344
  0
LINE
  8
0
 10
-31.924011
 20
57.708328
 11
-18.524002
 21
57.708328
  0
LINE
  8
0
 10
-24.524002
 20
65.058334
 11
-24.524002
 21
59.358337
  0
LINE
  8
0
 10
-18.824005
 20
65.058334
 11
-18.824005
 21
59.358337
  0
LINE
  8
0
 10
-24.524002
 20
59.358337
 11
-18.824005
 21
59.358337
  0
LINE
  8
0
 10
-24.524002
 20
65.058334
 11
-18.824005
 21
65.058334
  0
LINE
  8
0
 10
-31.624008
 20
59.358337
 11
-25.924011
 21
59.358337
  0
LINE
  8
0
 10
-31.624008
 20
65.058334
 11
-31.624008
 21
59.358337
  0
LINE
  8
0
 10
-31.624008
 20
65.058334
 11
-25.924011
 21
65.058334
  0
LINE
  8
0
 10
-25.924011
 20
65.058334
 11
-25.924011
 21
59.358337
  0
LINE
  8
0
 10
-25.224014
 20
126.042648
 11
-25.224014
 21
49.278641
  0
LINE
  8
0
 10
-27.824005
 20
75.708344
 11
-19.224014
 21
75.708344
  0
LINE
  8
0
 10
-27.824005
 20
109.708344
 11
-19.224014
 21
109.708344
  0
LINE
  8
0
 10
-19.224030
 20
108.658340
 11
-27.824005
 21
108.658340
  0
LINE
  8
0
 10
-19.224030
 20
76.758331
 11
-27.824005
 21
76.758331
  0
LINE
  8
0
 10
-25.024002
 20
77.758331
 11
-25.024002
 21
80.458344
  0
LINE
  8
0
 10
-22.024017
 20
77.758331
 11
-22.024017
 21
80.458344
  0
LINE
  8
0
 10
-22.024017
 20
77.758331
 11
-25.024017
 21
77.758331
  0
LINE
  8
0
 10
-25.524017
 20
83.858337
 11
-26.824020
 21
83.858337
  0
LINE
  8
0
 10
-25.524017
 20
80.458344
 11
-25.524017
 21
85.858337
  0
LINE
  8
0
 10
-21.524017
 20
80.458344
 11
-21.524017
 21
85.858337
  0
LINE
  8
0
 10
-21.524017
 20
80.458344
 11
-25.524017
 21
80.458344
  0
LINE
  8
0
 10
-21.524017
 20
85.858337
 11
-25.524017
 21
85.858337
  0
LINE
  8
0
 10
-21.524017
 20
81.458328
 11
-25.524017
 21
81.458328
  0
LINE
  8
0
 10
-21.524017
 20
81.958344
 11
-25.524017
 21
81.958344
  0
LINE
  8
0
 10
-21.524017
 20
82.458344
 11
-25.524017
 21
82.458344
  0
LINE
  8
0
 10
-21.524017
 20
82.958344
 11
-25.524017
 21
82.958344
  0
LINE
  8
0
 10
-21.524017
 20
83.458344
 11
-25.524017
 21
83.458344
  0
LINE
  8
0
 10
-21.524017
 20
83.958328
 11
-25.524017
 21
83.958328
  0
LINE
  8
0
 10
-21.524017
 20
84.458344
 11
-25.524017
 21
84.458344
  0
LINE
  8
0
 10
-21.524017
 20
84.458344
 11
-25.524017
 21
84.458344
  0
LINE
  8
0
 10
-20.224014
 20
83.858337
 11
-21.524017
 21
83.858337
  0
LINE
  8
0
 10
-19.224030
 20
80.358337
 11
-21.849014
 21
80.358337
  0
LINE
  8
0
 10
-25.199005
 20
80.358337
 11
-27.824005
 21
80.358337
  0
LINE
  8
0
 10
-25.199020
 20
108.658340
 11
-25.199020
 21
104.958344
  0
LINE
  8
0
 10
-22.024033
 20
107.658340
 11
-22.024033
 21
104.958344
  0
LINE
  8
0
 10
-25.024033
 20
107.658340
 11
-25.024033
 21
104.958344
  0
LINE
  8
0
 10
-25.024017
 20
107.658340
 11
-22.024017
 21
107.658340
  0
LINE
  8
0
 10
-21.524017
 20
101.558334
 11
-20.224014
 21
101.558334
  0
LINE
  8
0
 10
-21.524017
 20
104.958344
 11
-21.524017
 21
99.558334
  0
LINE
  8
0
 10
-25.524033
 20
104.958344
 11
-25.524033
 21
99.558334
  0
LINE
  8
0
 10
-25.524017
 20
104.958328
 11
-21.524017
 21
104.958328
  0
LINE
  8
0
 10
-25.524017
 20
99.558334
 11
-21.524017
 21
99.558334
  0
LINE
  8
0
 10
-25.524017
 20
103.958344
 11
-21.524017
 21
103.958344
  0
LINE
  8
0
 10
-25.524017
 20
103.458344
 11
-21.524017
 21
103.458344
  0
LINE
  8
0
 10
-25.524017
 20
102.958344
 11
-21.524017
 21
102.958344
  0
LINE
  8
0
 10
-25.524017
 20
102.458344
 11
-21.524017
 21
102.458344
  0
LINE
  8
0
 10
-25.524017
 20
101.958344
 11
-21.524017
 21
101.958344
  0
LINE
  8
0
 10
-25.524017
 20
101.458328
 11
-21.524017
 21
101.458328
  0
LINE
  8
0
 10
-25.524017
 20
100.958344
 11
-21.524017
 21
100.958344
  0
LINE
  8
0
 10
-25.524017
 20
100.958344
 11
-21.524017
 21
100.958344
  0
LINE
  8
0
 10
-26.824020
 20
101.558334
 11
-25.524017
 21
101.558334
  0
LINE
  8
0
 10
-27.824005
 20
105.058334
 11
-25.199005
 21
105.058334
  0
LINE
  8
0
 10
-22.024033
 20
105.058334
 11
-19.224014
 21
105.058334
  0
LINE
  8
0
 10
-19.224014
 20
75.708344
 11
-19.224014
 21
109.708344
  0
LINE
  8
0
 10
-20.224014
 20
83.858353
 11
-20.224014
 21
101.558334
  0
LINE
  8
0
 10
-26.824005
 20
83.858353
 11
-26.824005
 21
101.558334
  0
LINE
  8
0
 10
-27.824005
 20
75.708344
 11
-27.824005
 21
109.708344
  0
LINE
  8
0
 10
-21.224014
 20
56.708328
 11
-21.224014
 21
53.708344
  0
LINE
  8
0
 10
-22.724014
 20
55.208344
 11
-19.724014
 21
55.208344
  0
LINE
  8
0
 10
-29.834633
 20
63.268990
 11
-27.713322
 21
61.147682
  0
LINE
  8
0
 10
-29.834675
 20
61.147686
 11
-27.713354
 21
63.269009
  0
LINE
  8
0
 10
-22.734653
 20
63.269009
 11
-20.613342
 21
61.147697
  0
LINE
  8
0
 10
-22.734692
 20
61.147709
 11
-20.613373
 21
63.269032
  0
LINE
  8
0
 10
-22.734650
 20
63.269020
 11
-20.613338
 21
61.147713
  0
LINE
  8
0
 10
-22.734692
 20
61.147709
 11
-20.613373
 21
63.269032
  0
LINE
  8
0
 10
-26.284731
 20
118.147743
 11
-24.163422
 21
120.269051
  0
LINE
  8
0
 10
-24.163311
 20
118.147697
 11
-26.284632
 21
120.269020
  0
LINE
  8
0
 10
-30.723999
 20
55.208351
 11
-27.724014
 21
55.208351
  0
LINE
  8
0
 10
-29.223999
 20
53.708344
 11
-29.223999
 21
56.708336
  0
LINE
  8
0
 10
160.176010
 20
124.495895
 11
160.176010
 21
43.526436
  0
LINE
  8
0
 10
164.076004
 20
44.708344
 11
156.276001
 21
44.708344
  0
LINE
  8
0
 10
164.076004
 20
45.908340
 11
156.276001
 21
45.908340
  0
LINE
  8
0
 10
157.676010
 20
47.354904
 11
157.676010
 21
45.908340
  0
LINE
  8
0
 10
155.176010
 20
52.708344
 11
155.176010
 21
47.354919
  0
LINE
  8
0
 10
165.176025
 20
52.708344
 11
165.176025
 21
47.354904
  0
LINE
  8
0
 10
165.176025
 20
47.354904
 11
155.176010
 21
47.354904
  0
LINE
  8
0
 10
156.276001
 20
45.908340
 11
156.276001
 21
44.708344
  0
LINE
  8
0
 10
164.076004
 20
45.908348
 11
164.076004
 21
44.708351
  0
LINE
  8
0
 10
165.276016
 20
122.708344
 11
165.276016
 21
52.708344
  0
LINE
  8
0
 10
165.276016
 20
122.708344
 11
155.076004
 21
122.708344
  0
LINE
  8
0
 10
165.276016
 20
52.708344
 11
155.076004
 21
52.708344
  0
LINE
  8
0
 10
155.076004
 20
57.208344
 11
165.276016
 21
57.208344
  0
LINE
  8
0
 10
155.076004
 20
119.708344
 11
165.276016
 21
119.708344
  0
LINE
  8
0
 10
162.676010
 20
47.354904
 11
162.676010
 21
45.908340
  0
LINE
  8
0
 10
170.376022
 20
124.495895
 11
170.376022
 21
43.526436
  0
LINE
  8
0
 10
174.276016
 20
44.708344
 11
166.476013
 21
44.708344
  0
LINE
  8
0
 10
174.276016
 20
45.908340
 11
166.476013
 21
45.908340
  0
LINE
  8
0
 10
167.876022
 20
47.354904
 11
167.876022
 21
45.908340
  0
LINE
  8
0
 10
165.376022
 20
52.708344
 11
165.376022
 21
47.354919
  0
LINE
  8
0
 10
175.376038
 20
52.708344
 11
175.376038
 21
47.354904
  0
LINE
  8
0
 10
175.376038
 20
47.354904
 11
165.376022
 21
47.354904
  0
LINE
  8
0
 10
166.476013
 20
45.908340
 11
166.476013
 21
44.708344
  0
LINE
  8
0
 10
174.276016
 20
45.908348
 11
174.276016
 21
44.708351
  0
LINE
  8
0
 10
175.476028
 20
122.708344
 11
175.476028
 21
52.708344
  0
LINE
  8
0
 10
175.476028
 20
122.708344
 11
165.276016
 21
122.708344
  0
LINE
  8
0
 10
175.476028
 20
52.708344
 11
165.276016
 21
52.708344
  0
LINE
  8
0
 10
165.276016
 20
57.208344
 11
175.476028
 21
57.208344
  0
LINE
  8
0
 10
165.276016
 20
119.708344
 11
175.476028
 21
119.708344
  0
LINE
  8
0
 10
172.876022
 20
47.354904
 11
172.876022
 21
45.908340
  0
LINE
  8
0
 10
175.976044
 20
50.448471
 11
175.976044
 21
57.708328
  0
LINE
  8
0
 10
182.976044
 20
50.448471
 11
182.976044
 21
57.708328
  0
LINE
  8
0
 10
177.257980
 20
49.708344
 11
188.694092
 21
49.708344
  0
LINE
  8
0
 10
189.976044
 20
50.423615
 11
189.976044
 21
57.708328
  0
LINE
  8
0
 10
189.976044
 20
57.708328
 11
175.976044
 21
57.708328
  0
LINE
  8
0
 10
188.976044
 20
76.708344
 11
176.976044
 21
76.708344
  0
LINE
  8
0
 10
188.976044
 20
81.708344
 11
176.976044
 21
81.708344
  0
LINE
  8
0
 10
188.976044
 20
91.708344
 11
176.976044
 21
91.708344
  0
LINE
  8
0
 10
188.976044
 20
101.708344
 11
176.976044
 21
101.708344
  0
LINE
  8
0
 10
188.976044
 20
111.708344
 11
176.976044
 21
111.708344
  0
LINE
  8
0
 10
188.976044
 20
115.708344
 11
176.976044
 21
115.708344
  0
LINE
  8
0
 10
182.976044
 20
124.208344
 11
182.976044
 21
48.208344
  0
LINE
  8
0
 10
188.976044
 20
80.708344
 11
176.976044
 21
80.708344
  0
LINE
  8
0
 10
188.976044
 20
85.708344
 11
176.976044
 21
85.708344
  0
LINE
  8
0
 10
188.976044
 20
86.708344
 11
176.976044
 21
86.708344
  0
LINE
  8
0
 10
188.976044
 20
115.708328
 11
188.976044
 21
111.708328
  0
LINE
  8
0
 10
176.976044
 20
115.708328
 11
176.976044
 21
111.708328
  0
LINE
  8
0
 10
188.976044
 20
90.708344
 11
176.976044
 21
90.708344
  0
LINE
  8
0
 10
186.377975
 20
96.708344
 11
179.574127
 21
96.708344
  0
LINE
  8
0
 10
186.018005
 20
95.708344
 11
179.934097
 21
95.708344
  0
LINE
  8
0
 10
188.976044
 20
100.708344
 11
176.976044
 21
100.708344
  0
LINE
  8
0
 10
186.147629
 20
105.708344
 11
179.804474
 21
105.708344
  0
LINE
  8
0
 10
185.976044
 20
106.708344
 11
179.976044
 21
106.708344
  0
LINE
  8
0
 10
188.976044
 20
110.708344
 11
176.976044
 21
110.708344
  0
LINE
  8
0
 10
176.976044
 20
110.706573
 11
176.976044
 21
109.708328
  0
LINE
  8
0
 10
176.976044
 20
103.708328
 11
176.976044
 21
101.631302
  0
LINE
  8
0
 10
176.976044
 20
100.708328
 11
176.976044
 21
98.208328
  0
LINE
  8
0
 10
176.976044
 20
90.708328
 11
176.976044
 21
86.708328
  0
LINE
  8
0
 10
176.976044
 20
85.708328
 11
176.976044
 21
81.708328
  0
LINE
  8
0
 10
176.976044
 20
80.708328
 11
176.976044
 21
76.708328
  0
LINE
  8
0
 10
188.976044
 20
80.708328
 11
188.976044
 21
76.708328
  0
LINE
  8
0
 10
188.976044
 20
85.708328
 11
188.976044
 21
81.708328
  0
LINE
  8
0
 10
188.976044
 20
90.708328
 11
188.976044
 21
86.574600
  0
LINE
  8
0
 10
188.976044
 20
92.208328
 11
188.976044
 21
91.708328
  0
LINE
  8
0
 10
188.976044
 20
100.708328
 11
188.976044
 21
98.208328
  0
LINE
  8
0
 10
188.976044
 20
103.708328
 11
188.976044
 21
101.700058
  0
LINE
  8
0
 10
188.976044
 20
110.708328
 11
188.976044
 21
109.708328
  0
LINE
  8
0
 10
176.976044
 20
92.208328
 11
176.976044
 21
91.708328
  0
LINE
  8
0
 10
175.476028
 20
52.708344
 11
175.976044
 21
52.708344
  0
LINE
  8
0
 10
190.476044
 20
52.708344
 11
190.476044
 21
122.708344
  0
LINE
  8
0
 10
175.476044
 20
122.708344
 11
190.476044
 21
122.708344
  0
LINE
  8
0
 10
189.976044
 20
52.708344
 11
190.476028
 21
52.708344
  0
LINE
  8
0
 10
177.257950
 20
49.708321
 11
175.975983
 21
50.448463
  0
LINE
  8
0
 10
188.694092
 20
49.708336
 11
189.976059
 21
50.448479
  0
LINE
  8
0
 10
197.976059
 20
51.208344
 11
197.976059
 21
124.208344
  0
LINE
  8
0
 10
190.476059
 20
122.708344
 11
205.476044
 21
122.708344
  0
LINE
  8
0
 10
190.476044
 20
52.708344
 11
205.476044
 21
52.708344
  0
LINE
  8
0
 10
205.476044
 20
52.708344
 11
205.476044
 21
122.708344
  0
LINE
  8
0
 10
191.976059
 20
63.708344
 11
203.976044
 21
63.708344
  0
LINE
  8
0
 10
191.976059
 20
82.708344
 11
203.976044
 21
82.708344
  0
LINE
  8
0
 10
191.976059
 20
100.708344
 11
203.976044
 21
100.708344
  0
LINE
  8
0
 10
211.176056
 20
119.208344
 11
205.776031
 21
119.208344
  0
LINE
  8
0
 10
211.476044
 20
122.708344
 11
211.476044
 21
52.708344
  0
LINE
  8
0
 10
211.476044
 20
122.708344
 11
205.476044
 21
122.708344
  0
LINE
  8
0
 10
211.476044
 20
52.708344
 11
205.476044
 21
52.708344
  0
LINE
  8
0
 10
205.476044
 20
112.708344
 11
211.476044
 21
112.708344
  0
LINE
  8
0
 10
205.476044
 20
111.842316
 11
211.476044
 21
111.842316
  0
LINE
  8
0
 10
205.476044
 20
63.574371
 11
211.476044
 21
63.574371
  0
LINE
  8
0
 10
205.476044
 20
62.708344
 11
211.476044
 21
62.708344
  0
LINE
  8
0
 10
211.176056
 20
56.208328
 11
205.776031
 21
56.208328
  0
LINE
  8
0
 10
208.476044
 20
121.908340
 11
208.476044
 21
116.508331
  0
LINE
  8
0
 10
208.476044
 20
58.908340
 11
208.476044
 21
53.508331
  0
LINE
  8
0
 10
205.476044
 20
122.708344
 11
205.476044
 21
52.708344
  0
LINE
  8
0
 10
-42.624016
 20
56.208305
 11
-37.824013
 21
56.208305
  0
LINE
  8
0
 10
-12.624016
 20
56.208290
 11
-7.824013
 21
56.208290
  0
LINE
  8
0
 10
93.875992
 20
119.808350
 11
114.275986
 21
119.808350
  0
LINE
  8
0
 10
114.275986
 20
119.808350
 11
134.675995
 21
119.808350
  0
LINE
  8
0
 10
134.675995
 20
119.808350
 11
155.076004
 21
119.808350
  0
CIRCLE
  8
0
 10
-50.723969
 20
119.208344
 40
1.700000
  0
CIRCLE
  8
0
 10
-50.723969
 20
56.208328
 40
1.700000
  0
CIRCLE
  8
0
 10
-40.224152
 20
119.208344
 40
2.250000
  0
CIRCLE
  8
0
 10
-36.674030
 20
62.208344
 40
2.799999
  0
CIRCLE
  8
0
 10
-39.794117
 20
99.058350
 40
0.320000
  0
CIRCLE
  8
0
 10
-39.794086
 20
83.818359
 40
0.320000
  0
CIRCLE
  8
0
 10
-37.254086
 20
81.278366
 40
0.320000
  0
CIRCLE
  8
0
 10
-39.794079
 20
81.278351
 40
0.320000
  0
CIRCLE
  8
0
 10
-37.254108
 20
91.438354
 40
0.320000
  0
CIRCLE
  8
0
 10
-39.794102
 20
91.438354
 40
0.320000
  0
CIRCLE
  8
0
 10
-37.254101
 20
88.898361
 40
0.320000
  0
CIRCLE
  8
0
 10
-39.794094
 20
88.898346
 40
0.320000
  0
CIRCLE
  8
0
 10
-37.254097
 20
86.358368
 40
0.320000
  0
CIRCLE
  8
0
 10
-39.794090
 20
86.358368
 40
0.320000
  0
CIRCLE
  8
0
 10
-37.254089
 20
83.818359
 40
0.320000
  0
CIRCLE
  8
0
 10
-37.254112
 20
93.978363
 40
0.320000
  0
CIRCLE
  8
0
 10
-39.794109
 20
96.518341
 40
0.320000
  0
CIRCLE
  8
0
 10
-37.254116
 20
96.518356
 40
0.320000
  0
CIRCLE
  8
0
 10
-39.794106
 20
93.978363
 40
0.320000
  0
CIRCLE
  8
0
 10
-37.254150
 20
104.138367
 40
0.320000
  0
CIRCLE
  8
0
 10
-39.794140
 20
104.138367
 40
0.320000
  0
CIRCLE
  8
0
 10
-37.254143
 20
101.598358
 40
0.320000
  0
CIRCLE
  8
0
 10
-39.794136
 20
101.598358
 40
0.320000
  0
CIRCLE
  8
0
 10
-37.254139
 20
99.058350
 40
0.320000
  0
CIRCLE
  8
0
 10
-44.224018
 20
55.208328
 40
1.750000
  0
CIRCLE
  8
0
 10
-36.224018
 20
55.208344
 40
1.750000
  0
CIRCLE
  8
0
 10
-10.224022
 20
56.208305
 40
1.400000
  0
CIRCLE
  8
0
 10
-43.774021
 20
62.208328
 40
2.799999
  0
CIRCLE
  8
0
 10
-10.224106
 20
119.228317
 40
2.750000
  0
CIRCLE
  8
0
 10
-10.224106
 20
119.228317
 40
1.500000
  0
CIRCLE
  8
0
 10
-10.224106
 20
119.228317
 40
1.229500
  0
CIRCLE
  8
0
 10
-6.674034
 20
62.208344
 40
2.799999
  0
CIRCLE
  8
0
 10
-14.224026
 20
55.208336
 40
1.750000
  0
CIRCLE
  8
0
 10
-6.224026
 20
55.208344
 40
1.750000
  0
CIRCLE
  8
0
 10
-13.774025
 20
62.208336
 40
2.799999
  0
CIRCLE
  8
0
 10
-11.644093
 20
80.528351
 40
0.500000
  0
CIRCLE
  8
0
 10
-8.804077
 20
79.148346
 40
0.500000
  0
CIRCLE
  8
0
 10
-8.804085
 20
81.908356
 40
0.500000
  0
CIRCLE
  8
0
 10
-8.804089
 20
84.668304
 40
0.500000
  0
CIRCLE
  8
0
 10
-8.804108
 20
87.428314
 40
0.500000
  0
CIRCLE
  8
0
 10
-8.804096
 20
90.188339
 40
0.500000
  0
CIRCLE
  8
0
 10
-8.804100
 20
92.948349
 40
0.500000
  0
CIRCLE
  8
0
 10
-8.804119
 20
95.708359
 40
0.500000
  0
CIRCLE
  8
0
 10
-8.804123
 20
98.468369
 40
0.500000
  0
CIRCLE
  8
0
 10
-8.804131
 20
101.228317
 40
0.500000
  0
CIRCLE
  8
0
 10
-8.804131
 20
103.988327
 40
0.500000
  0
CIRCLE
  8
0
 10
-8.804138
 20
106.748337
 40
0.500000
  0
CIRCLE
  8
0
 10
-8.804142
 20
109.508347
 40
0.500000
  0
CIRCLE
  8
0
 10
-8.804146
 20
112.268326
 40
0.500000
  0
CIRCLE
  8
0
 10
-11.644154
 20
110.888306
 40
0.500000
  0
CIRCLE
  8
0
 10
-11.644150
 20
108.128326
 40
0.500000
  0
CIRCLE
  8
0
 10
-11.644146
 20
105.368317
 40
0.500000
  0
CIRCLE
  8
0
 10
-11.644142
 20
102.608307
 40
0.500000
  0
CIRCLE
  8
0
 10
-11.644138
 20
99.848297
 40
0.500000
  0
CIRCLE
  8
0
 10
-11.644135
 20
97.088348
 40
0.500000
  0
CIRCLE
  8
0
 10
-11.644112
 20
94.328339
 40
0.500000
  0
CIRCLE
  8
0
 10
-11.644112
 20
91.568329
 40
0.500000
  0
CIRCLE
  8
0
 10
-11.644119
 20
88.808319
 40
0.500000
  0
CIRCLE
  8
0
 10
-11.644119
 20
86.048309
 40
0.500000
  0
CIRCLE
  8
0
 10
-11.644096
 20
83.288300
 40
0.500000
  0
ARC
  8
0
 10
-6.424049
 20
71.708359
 40
2.500000
 50
270.000092
 51
0.000000
  0
ARC
  8
0
 10
-6.424137
 20
119.708374
 40
2.500000
 50
0.000000
 51
90.000000
  0
ARC
  8
0
 10
-14.024143
 20
119.708344
 40
2.500000
 50
90.000000
 51
180.000000
  0
ARC
  8
0
 10
-14.024055
 20
71.708351
 40
2.500000
 50
180.000168
 51
270.000092
  0
ARC
  8
0
 10
-8.014053
 20
78.584351
 40
1.700004
 50
260.000458
 51
0.000000
  0
ARC
  8
0
 10
-8.014122
 20
112.832382
 40
1.700001
 50
0.000000
 51
99.999916
  0
ARC
  8
0
 10
-12.434135
 20
112.052979
 40
1.699999
 50
100.000214
 51
180.000000
  0
ARC
  8
0
 10
-12.434067
 20
79.363708
 40
1.700001
 50
180.000000
 51
260.000183
  0
CIRCLE
  8
0
 10
-10.224052
 20
72.188370
 40
2.750000
  0
CIRCLE
  8
0
 10
-10.224052
 20
72.188370
 40
1.500000
  0
CIRCLE
  8
0
 10
-10.224052
 20
72.188370
 40
1.229500
  0
CIRCLE
  8
0
 10
5.025970
 20
99.948334
 40
2.799999
  0
CIRCLE
  8
0
 10
5.025963
 20
107.568344
 40
2.799999
  0
CIRCLE
  8
0
 10
4.775944
 20
119.208344
 40
2.250000
  0
CIRCLE
  8
0
 10
5.025974
 20
61.848343
 40
2.799999
  0
CIRCLE
  8
0
 10
5.025970
 20
69.468338
 40
2.799999
  0
CIRCLE
  8
0
 10
5.025967
 20
77.088333
 40
2.799999
  0
CIRCLE
  8
0
 10
5.025963
 20
84.708344
 40
2.799999
  0
CIRCLE
  8
0
 10
5.025974
 20
92.328339
 40
2.799999
  0
CIRCLE
  8
0
 10
17.375984
 20
95.008347
 40
1.099999
  0
CIRCLE
  8
0
 10
27.575989
 20
95.008347
 40
1.099999
  0
CIRCLE
  8
0
 10
37.775986
 20
95.008347
 40
1.099999
  0
CIRCLE
  8
0
 10
47.975983
 20
95.008347
 40
1.099999
  0
CIRCLE
  8
0
 10
58.175980
 20
95.008347
 40
1.099999
  0
CIRCLE
  8
0
 10
68.375984
 20
95.008347
 40
1.099999
  0
CIRCLE
  8
0
 10
78.575989
 20
95.008347
 40
1.099999
  0
CIRCLE
  8
0
 10
88.775986
 20
95.008347
 40
1.099999
  0
CIRCLE
  8
0
 10
109.175995
 20
95.008347
 40
0.950000
  0
CIRCLE
  8
0
 10
98.975983
 20
95.008347
 40
0.950000
  0
ARC
  8
0
 10
113.875992
 20
57.508339
 40
0.400002
 50
270.000000
 51
0.000000
  0
ARC
  8
0
 10
94.275986
 20
57.508339
 40
0.399994
 50
180.000000
 51
270.000000
  0
CIRCLE
  8
0
 10
129.576004
 20
95.008347
 40
0.950000
  0
CIRCLE
  8
0
 10
119.375992
 20
95.008347
 40
0.950000
  0
ARC
  8
0
 10
134.275986
 20
57.508339
 40
0.400002
 50
270.000000
 51
0.000000
  0
ARC
  8
0
 10
114.675995
 20
57.508339
 40
0.399994
 50
180.000000
 51
270.000000
  0
CIRCLE
  8
0
 10
149.976013
 20
95.008347
 40
0.950000
  0
CIRCLE
  8
0
 10
139.776001
 20
95.008347
 40
0.950000
  0
ARC
  8
0
 10
154.676010
 20
57.508339
 40
0.400002
 50
270.000000
 51
0.000000
  0
ARC
  8
0
 10
135.076004
 20
57.508339
 40
0.399994
 50
180.000000
 51
270.000000
  0
CIRCLE
  8
0
 10
-24.794022
 20
95.248337
 40
0.320000
  0
CIRCLE
  8
0
 10
-22.254028
 20
92.708328
 40
0.320000
  0
CIRCLE
  8
0
 10
-29.224014
 20
55.208344
 40
1.750000
  0
CIRCLE
  8
0
 10
-21.224014
 20
55.208344
 40
1.750000
  0
CIRCLE
  8
0
 10
-25.224014
 20
56.208328
 40
1.400000
  0
CIRCLE
  8
0
 10
-28.774002
 20
62.208344
 40
2.799999
  0
CIRCLE
  8
0
 10
-21.674011
 20
62.208344
 40
2.799999
  0
CIRCLE
  8
0
 10
-25.224014
 20
119.208344
 40
2.250000
  0
CIRCLE
  8
0
 10
-24.794022
 20
92.708328
 40
0.320000
  0
CIRCLE
  8
0
 10
-22.254028
 20
87.628342
 40
0.320000
  0
CIRCLE
  8
0
 10
-24.794022
 20
90.168335
 40
0.320000
  0
CIRCLE
  8
0
 10
-22.254028
 20
90.168335
 40
0.320000
  0
CIRCLE
  8
0
 10
-24.794022
 20
87.628342
 40
0.320000
  0
CIRCLE
  8
0
 10
-22.254028
 20
97.788345
 40
0.320000
  0
CIRCLE
  8
0
 10
-24.794022
 20
97.788345
 40
0.320000
  0
CIRCLE
  8
0
 10
-22.254028
 20
95.248337
 40
0.320000
  0
ARC
  8
0
 10
188.976044
 20
106.708328
 40
3.000000
 50
90.000000
 51
180.000000
  0
ARC
  8
0
 10
186.476044
 20
58.353912
 40
8.645580
 50
246.119461
 51
293.880524
  0
ARC
  8
0
 10
179.476044
 20
58.353912
 40
8.645580
 50
246.119461
 51
293.880524
  0
ARC
  8
0
 10
176.976044
 20
95.208328
 40
3.000000
 50
270.000000
 51
9.594073
  0
ARC
  8
0
 10
188.976044
 20
106.708328
 40
3.000003
 50
199.471207
 51
270.000000
  0
ARC
  8
0
 10
176.976044
 20
106.708328
 40
3.000000
 50
0.000000
 51
90.000000
  0
ARC
  8
0
 10
176.976044
 20
95.208328
 40
2.999993
 50
30.000076
 51
90.000000
  0
ARC
  8
0
 10
188.976044
 20
95.208328
 40
3.000000
 50
90.000000
 51
149.999924
  0
ARC
  8
0
 10
188.976044
 20
95.208328
 40
2.999999
 50
170.405930
 51
270.000000
  0
ARC
  8
0
 10
176.976044
 20
106.708328
 40
3.000000
 50
270.000000
 51
340.528809
  0
CIRCLE
  8
0
 10
197.976059
 20
100.708344
 40
4.864000
  0
CIRCLE
  8
0
 10
197.976059
 20
82.708344
 40
4.863999
  0
CIRCLE
  8
0
 10
197.976059
 20
82.708344
 40
4.278000
  0
CIRCLE
  8
0
 10
197.976059
 20
100.708344
 40
4.278000
  0
CIRCLE
  8
0
 10
197.976059
 20
63.708344
 40
4.863999
  0
CIRCLE
  8
0
 10
197.976059
 20
63.708344
 40
4.278000
  0
CIRCLE
  8
0
 10
208.476044
 20
119.208344
 40
1.700000
  0
CIRCLE
  8
0
 10
208.476044
 20
56.208328
 40
1.700000
  0
CIRCLE
  8
0
 10
-40.224022
 20
56.208321
 40
1.400000
  0
TEXT
  8
0
 10
181.297607
 20
67.008331
 40
3.000000
  1
P
 50
0.000000
 41
1.052632
 51
0.000000
  7
STANDARD
  0
TEXT
  8
0
 10
196.297623
 20
74.008347
 40
3.000000
  1
R
 50
0.000000
 41
1.052632
 51
0.000000
  7
STANDARD
  0
TEXT
  8
0
 10
194.797623
 20
91.008347
 40
3.000000
  1
PR
 50
0.000000
 41
1.052632
 51
0.000000
  7
STANDARD
  0
TEXT
  8
0
 10
196.297623
 20
55.008343
 40
3.000000
  1
P
 50
0.000000
 41
1.052632
 51
0.000000
  7
STANDARD
  0
POINT
  8
0
 10
-53.723969
 20
-115.517197
  0
POINT
  8
0
 10
211.475922
 20
-115.517197
  0
LINE
  8
0
 10
-47.723969
 20
-115.517197
 11
-53.723969
 21
-115.517197
  0
LINE
  8
0
 10
-47.723969
 20
-93.017197
 11
-47.723969
 21
-115.517197
  0
LINE
  8
0
 10
-47.723969
 20
-93.017197
 11
-53.723969
 21
-93.017197
  0
LINE
  8
0
 10
-53.723969
 20
-93.017197
 11
-53.723969
 21
-115.517197
  0
LINE
  8
0
 10
-47.723969
 20
-93.517197
 11
-53.723969
 21
-93.517197
  0
LINE
  8
0
 10
-44.524002
 20
-67.624229
 11
-44.524002
 21
-72.267204
  0
LINE
  8
0
 10
-35.924026
 20
-67.624207
 11
-35.924026
 21
-72.267181
  0
LINE
  8
0
 10
-41.724014
 20
-67.677689
 11
-41.724014
 21
-72.267197
  0
LINE
  8
0
 10
-38.724030
 20
-67.677681
 11
-38.724030
 21
-72.267189
  0
LINE
  8
0
 10
-38.724083
 20
-67.677704
 11
-38.224083
 21
-67.677704
  0
LINE
  8
0
 10
-42.224068
 20
-67.677704
 11
-41.724068
 21
-67.677704
  0
LINE
  8
0
 10
-42.224014
 20
-58.517212
 11
-42.224014
 21
-67.677689
  0
LINE
  8
0
 10
-42.224072
 20
-64.846298
 11
-38.224087
 21
-64.846298
  0
LINE
  8
0
 10
-42.224079
 20
-61.623669
 11
-38.224094
 21
-61.623669
  0
LINE
  8
0
 10
-38.224030
 20
-58.517204
 11
-38.224030
 21
-67.677681
  0
LINE
  8
0
 10
-44.524055
 20
-67.624237
 11
-42.224068
 21
-67.624237
  0
LINE
  8
0
 10
-38.224083
 20
-67.624237
 11
-35.924080
 21
-67.624237
  0
LINE
  8
0
 10
-47.424030
 20
-84.517227
 11
-47.724033
 21
-84.517227
  0
LINE
  8
0
 10
-46.924053
 20
-81.017212
 11
-33.524044
 21
-81.017212
  0
LINE
  8
0
 10
-33.524017
 20
-69.517181
 11
-33.524017
 21
-81.017181
  0
LINE
  8
0
 10
-46.924026
 20
-69.517204
 11
-46.924026
 21
-81.017204
  0
LINE
  8
0
 10
-47.724014
 20
-69.517212
 11
-47.724014
 21
-82.517212
  0
LINE
  8
0
 10
-32.724014
 20
-69.517181
 11
-32.724014
 21
-82.517181
  0
LINE
  8
0
 10
-32.723972
 20
-114.517227
 11
-47.723972
 21
-114.517227
  0
LINE
  8
0
 10
-32.724037
 20
-82.517227
 11
-47.724037
 21
-82.517227
  0
LINE
  8
0
 10
-32.724014
 20
-93.517227
 11
-47.724014
 21
-93.517227
  0
LINE
  8
0
 10
-32.724018
 20
-91.517227
 11
-47.724018
 21
-91.517227
  0
LINE
  8
0
 10
-47.424011
 20
-91.517212
 11
-47.424011
 21
-93.517212
  0
LINE
  8
0
 10
-33.024017
 20
-91.517181
 11
-33.024017
 21
-93.517181
  0
LINE
  8
0
 10
-47.424011
 20
-88.017212
 11
-47.424011
 21
-90.017212
  0
LINE
  8
0
 10
-33.024017
 20
-88.017181
 11
-33.024017
 21
-90.017181
  0
LINE
  8
0
 10
-32.724026
 20
-88.017227
 11
-47.724026
 21
-88.017227
  0
LINE
  8
0
 10
-32.724022
 20
-90.017227
 11
-47.724022
 21
-90.017227
  0
LINE
  8
0
 10
-32.724014
 20
-82.517181
 11
-32.724014
 21
-84.517181
  0
LINE
  8
0
 10
-32.724014
 20
-86.517181
 11
-32.724014
 21
-88.017181
  0
LINE
  8
0
 10
-32.724014
 20
-90.017181
 11
-32.724014
 21
-91.517181
  0
LINE
  8
0
 10
-32.724014
 20
-93.517181
 11
-32.724014
 21
-114.517181
  0
LINE
  8
0
 10
-47.724014
 20
-82.517212
 11
-47.724014
 21
-84.517212
  0
LINE
  8
0
 10
-47.724014
 20
-86.517212
 11
-47.724014
 21
-88.017212
  0
LINE
  8
0
 10
-47.724014
 20
-90.017212
 11
-47.724014
 21
-91.517212
  0
LINE
  8
0
 10
-32.724030
 20
-86.517227
 11
-33.024033
 21
-86.517227
  0
LINE
  8
0
 10
-32.724033
 20
-84.517227
 11
-33.024036
 21
-84.517227
  0
LINE
  8
0
 10
-33.024017
 20
-84.517181
 11
-33.024017
 21
-86.517181
  0
LINE
  8
0
 10
-47.424026
 20
-86.517227
 11
-47.724030
 21
-86.517227
  0
LINE
  8
0
 10
-47.424011
 20
-84.517212
 11
-47.424011
 21
-86.517212
  0
LINE
  8
0
 10
-46.924057
 20
-77.717209
 11
-33.524048
 21
-77.717209
  0
LINE
  8
0
 10
-39.524052
 20
-76.517212
 11
-33.824055
 21
-76.517212
  0
LINE
  8
0
 10
-39.524017
 20
-76.517189
 11
-39.524017
 21
-77.717186
  0
LINE
  8
0
 10
-33.824020
 20
-76.517181
 11
-33.824020
 21
-77.717178
  0
LINE
  8
0
 10
-33.874023
 20
-75.345352
 11
-33.874023
 21
-76.517181
  0
LINE
  8
0
 10
-39.474014
 20
-75.345360
 11
-39.474014
 21
-76.517189
  0
LINE
  8
0
 10
-46.624058
 20
-76.517212
 11
-40.924061
 21
-76.517212
  0
LINE
  8
0
 10
-46.624023
 20
-76.517204
 11
-46.624023
 21
-77.717201
  0
LINE
  8
0
 10
-40.924026
 20
-76.517197
 11
-40.924026
 21
-77.717194
  0
LINE
  8
0
 10
-40.974014
 20
-75.345367
 11
-40.974014
 21
-76.517197
  0
LINE
  8
0
 10
-46.574020
 20
-75.345375
 11
-46.574020
 21
-76.517204
  0
LINE
  8
0
 10
-40.224014
 20
-57.017208
 11
-40.224014
 21
-117.352005
  0
LINE
  8
0
 10
-47.724064
 20
-69.517212
 11
-32.724064
 21
-69.517212
  0
LINE
  8
0
 10
-46.924068
 20
-72.267212
 11
-33.524059
 21
-72.267212
  0
LINE
  8
0
 10
-42.224087
 20
-58.517223
 11
-38.224087
 21
-58.517223
  0
LINE
  8
0
 10
-17.424046
 20
-84.517212
 11
-17.724049
 21
-84.517212
  0
LINE
  8
0
 10
-16.924072
 20
-79.017197
 11
-3.524063
 21
-79.017197
  0
LINE
  8
0
 10
-16.924065
 20
-81.017197
 11
-3.524055
 21
-81.017197
  0
LINE
  8
0
 10
-3.524033
 20
-69.517166
 11
-3.524033
 21
-81.017166
  0
LINE
  8
0
 10
-16.924042
 20
-69.517197
 11
-16.924042
 21
-81.017197
  0
LINE
  8
0
 10
-17.724030
 20
-69.517197
 11
-17.724030
 21
-82.517197
  0
LINE
  8
0
 10
-2.724030
 20
-69.517166
 11
-2.724030
 21
-82.517166
  0
LINE
  8
0
 10
-2.723988
 20
-114.517212
 11
-17.723988
 21
-114.517212
  0
LINE
  8
0
 10
-2.724052
 20
-82.517212
 11
-17.724052
 21
-82.517212
  0
LINE
  8
0
 10
-2.724030
 20
-93.517212
 11
-17.724030
 21
-93.517212
  0
LINE
  8
0
 10
-2.724033
 20
-91.517212
 11
-17.724033
 21
-91.517212
  0
LINE
  8
0
 10
-17.424026
 20
-91.517197
 11
-17.424026
 21
-93.517197
  0
LINE
  8
0
 10
-3.024033
 20
-91.517166
 11
-3.024033
 21
-93.517166
  0
LINE
  8
0
 10
-17.424026
 20
-88.017197
 11
-17.424026
 21
-90.017197
  0
LINE
  8
0
 10
-3.024033
 20
-88.017166
 11
-3.024033
 21
-90.017166
  0
LINE
  8
0
 10
-2.724041
 20
-88.017212
 11
-17.724041
 21
-88.017212
  0
LINE
  8
0
 10
-2.724037
 20
-90.017212
 11
-17.724037
 21
-90.017212
  0
LINE
  8
0
 10
-2.724030
 20
-82.517166
 11
-2.724030
 21
-84.517166
  0
LINE
  8
0
 10
-2.724030
 20
-86.517166
 11
-2.724030
 21
-88.017166
  0
LINE
  8
0
 10
-2.724030
 20
-90.017166
 11
-2.724030
 21
-91.517166
  0
LINE
  8
0
 10
-2.724030
 20
-93.517166
 11
-2.724030
 21
-114.517166
  0
LINE
  8
0
 10
-17.724030
 20
-82.517197
 11
-17.724030
 21
-84.517197
  0
LINE
  8
0
 10
-17.724030
 20
-86.517197
 11
-17.724030
 21
-88.017197
  0
LINE
  8
0
 10
-17.724030
 20
-90.017197
 11
-17.724030
 21
-91.517197
  0
LINE
  8
0
 10
-2.724045
 20
-86.517212
 11
-3.024048
 21
-86.517212
  0
LINE
  8
0
 10
-2.724049
 20
-84.517212
 11
-3.024052
 21
-84.517212
  0
LINE
  8
0
 10
-3.024033
 20
-84.517166
 11
-3.024033
 21
-86.517166
  0
LINE
  8
0
 10
-17.424042
 20
-86.517212
 11
-17.724045
 21
-86.517212
  0
LINE
  8
0
 10
-17.424026
 20
-84.517197
 11
-17.424026
 21
-86.517197
  0
LINE
  8
0
 10
-16.924072
 20
-77.717194
 11
-3.524063
 21
-77.717194
  0
LINE
  8
0
 10
-9.524067
 20
-76.517197
 11
-3.824070
 21
-76.517197
  0
LINE
  8
0
 10
-9.524033
 20
-76.517181
 11
-9.524033
 21
-77.717178
  0
LINE
  8
0
 10
-3.824036
 20
-76.517166
 11
-3.824036
 21
-77.717163
  0
LINE
  8
0
 10
-3.874023
 20
-75.345337
 11
-3.874023
 21
-76.517166
  0
LINE
  8
0
 10
-9.474030
 20
-75.345352
 11
-9.474030
 21
-76.517181
  0
LINE
  8
0
 10
-16.624073
 20
-76.517197
 11
-10.924061
 21
-76.517197
  0
LINE
  8
0
 10
-16.624039
 20
-76.517197
 11
-16.624039
 21
-77.717194
  0
LINE
  8
0
 10
-10.924026
 20
-76.517181
 11
-10.924026
 21
-77.717178
  0
LINE
  8
0
 10
-10.974030
 20
-75.345352
 11
-10.974030
 21
-76.517181
  0
LINE
  8
0
 10
-16.574036
 20
-75.345367
 11
-16.574036
 21
-76.517197
  0
LINE
  8
0
 10
-10.224030
 20
-66.688278
 11
-10.224030
 21
-117.351990
  0
LINE
  8
0
 10
-17.724079
 20
-69.517197
 11
-2.724079
 21
-69.517197
  0
LINE
  8
0
 10
-2.424019
 20
-84.517189
 11
-2.724022
 21
-84.517189
  0
LINE
  8
0
 10
12.275948
 20
-114.517189
 11
-2.724052
 21
-114.517189
  0
LINE
  8
0
 10
12.275986
 20
-82.517189
 11
-2.724018
 21
-82.517189
  0
LINE
  8
0
 10
11.275978
 20
-85.517189
 11
7.775978
 21
-85.517189
  0
LINE
  8
0
 10
11.275978
 20
-86.517189
 11
7.775978
 21
-86.517189
  0
LINE
  8
0
 10
7.775970
 20
-85.517181
 11
7.775970
 21
-86.517181
  0
LINE
  8
0
 10
1.775970
 20
-85.517181
 11
1.775970
 21
-86.517181
  0
LINE
  8
0
 10
11.275970
 20
-85.517189
 11
11.275970
 21
-86.517189
  0
LINE
  8
0
 10
-1.724030
 20
-85.517174
 11
-1.724030
 21
-86.517174
  0
LINE
  8
0
 10
1.775978
 20
-86.517189
 11
-1.724022
 21
-86.517189
  0
LINE
  8
0
 10
12.275970
 20
-93.517189
 11
-2.724030
 21
-93.517189
  0
LINE
  8
0
 10
12.275970
 20
-91.517189
 11
-2.724030
 21
-91.517189
  0
LINE
  8
0
 10
1.775978
 20
-85.517189
 11
-1.724022
 21
-85.517189
  0
LINE
  8
0
 10
-2.424026
 20
-91.517174
 11
-2.424026
 21
-93.517174
  0
LINE
  8
0
 10
11.975967
 20
-91.517189
 11
11.975967
 21
-93.517189
  0
LINE
  8
0
 10
-2.424026
 20
-88.017174
 11
-2.424026
 21
-90.017174
  0
LINE
  8
0
 10
11.975967
 20
-88.017189
 11
11.975967
 21
-90.017189
  0
LINE
  8
0
 10
12.275978
 20
-88.017189
 11
-2.724022
 21
-88.017189
  0
LINE
  8
0
 10
12.275970
 20
-90.017189
 11
-2.724026
 21
-90.017189
  0
LINE
  8
0
 10
12.275970
 20
-76.517204
 11
12.275970
 21
-84.517189
  0
LINE
  8
0
 10
12.275970
 20
-86.517189
 11
12.275970
 21
-88.017189
  0
LINE
  8
0
 10
12.275970
 20
-90.017189
 11
12.275970
 21
-91.517189
  0
LINE
  8
0
 10
12.275970
 20
-93.517189
 11
12.275970
 21
-114.517189
  0
LINE
  8
0
 10
12.275978
 20
-86.517189
 11
11.975975
 21
-86.517189
  0
LINE
  8
0
 10
12.275978
 20
-84.517189
 11
11.975975
 21
-84.517189
  0
LINE
  8
0
 10
11.975967
 20
-84.517189
 11
11.975967
 21
-86.517189
  0
LINE
  8
0
 10
-2.424019
 20
-86.517189
 11
-2.724022
 21
-86.517189
  0
LINE
  8
0
 10
-2.424026
 20
-84.517174
 11
-2.424026
 21
-86.517174
  0
LINE
  8
0
 10
4.775970
 20
-63.178139
 11
4.775970
 21
-117.351990
  0
LINE
  8
0
 10
12.275986
 20
-76.517189
 11
-2.724014
 21
-76.517189
  0
LINE
  8
0
 10
10.475967
 20
-66.517204
 11
10.475967
 21
-76.517204
  0
LINE
  8
0
 10
-0.924026
 20
-66.517189
 11
-0.924026
 21
-76.517189
  0
LINE
  8
0
 10
10.475998
 20
-66.517189
 11
-0.924000
 21
-66.517189
  0
LINE
  8
0
 10
11.475998
 20
-65.517189
 11
-1.923996
 21
-65.517189
  0
LINE
  8
0
 10
11.475998
 20
-67.517189
 11
10.475998
 21
-67.517189
  0
LINE
  8
0
 10
-1.924026
 20
-65.517189
 11
-1.924026
 21
-67.517189
  0
LINE
  8
0
 10
11.475967
 20
-65.517204
 11
11.475967
 21
-67.517204
  0
LINE
  8
0
 10
-0.924000
 20
-67.517189
 11
-1.924000
 21
-67.517189
  0
LINE
  8
0
 10
-2.724030
 20
-76.517189
 11
-2.724030
 21
-84.517174
  0
LINE
  8
0
 10
-2.724030
 20
-86.517174
 11
-2.724030
 21
-88.017174
  0
LINE
  8
0
 10
-2.724030
 20
-90.017174
 11
-2.724030
 21
-91.517174
  0
LINE
  8
0
 10
22.475967
 20
-93.517197
 11
12.275970
 21
-93.517197
  0
LINE
  8
0
 10
22.475967
 20
-114.517197
 11
12.275970
 21
-114.517197
  0
LINE
  8
0
 10
22.475967
 20
-93.517197
 11
22.475967
 21
-114.517197
  0
LINE
  8
0
 10
23.275986
 20
-109.217194
 11
11.475967
 21
-109.217194
  0
LINE
  8
0
 10
17.375961
 20
-75.017197
 11
17.375961
 21
-115.531219
  0
LINE
  8
0
 10
21.275970
 20
-97.817200
 11
21.275970
 21
-99.817200
  0
LINE
  8
0
 10
21.275970
 20
-108.217194
 11
21.275970
 21
-110.217194
  0
LINE
  8
0
 10
13.475967
 20
-108.217194
 11
13.475967
 21
-110.217194
  0
LINE
  8
0
 10
12.375961
 20
-79.517197
 11
22.375961
 21
-79.517197
  0
LINE
  8
0
 10
12.375961
 20
-77.517197
 11
22.375961
 21
-77.517197
  0
LINE
  8
0
 10
21.943039
 20
-76.767151
 11
22.376053
 21
-77.517159
  0
LINE
  8
0
 10
22.375961
 20
-77.517197
 11
22.375961
 21
-93.517197
  0
LINE
  8
0
 10
12.808975
 20
-76.767227
 11
12.375961
 21
-77.517220
  0
LINE
  8
0
 10
12.375961
 20
-77.517197
 11
12.375961
 21
-93.517197
  0
LINE
  8
0
 10
13.475967
 20
-97.817200
 11
13.475967
 21
-99.817200
  0
LINE
  8
0
 10
23.275986
 20
-98.817200
 11
11.475967
 21
-98.817200
  0
LINE
  8
0
 10
13.241989
 20
-76.517197
 11
21.509933
 21
-76.517197
  0
LINE
  8
0
 10
32.675964
 20
-93.517197
 11
22.475967
 21
-93.517197
  0
LINE
  8
0
 10
32.675964
 20
-114.517197
 11
22.475967
 21
-114.517197
  0
LINE
  8
0
 10
32.675964
 20
-93.517197
 11
32.675964
 21
-114.517197
  0
LINE
  8
0
 10
33.475983
 20
-109.217194
 11
21.675964
 21
-109.217194
  0
LINE
  8
0
 10
27.575958
 20
-75.017197
 11
27.575958
 21
-115.531219
  0
LINE
  8
0
 10
31.475967
 20
-97.817200
 11
31.475967
 21
-99.817200
  0
LINE
  8
0
 10
31.475967
 20
-108.217194
 11
31.475967
 21
-110.217194
  0
LINE
  8
0
 10
23.675964
 20
-108.217194
 11
23.675964
 21
-110.217194
  0
LINE
  8
0
 10
22.575958
 20
-79.517197
 11
32.575958
 21
-79.517197
  0
LINE
  8
0
 10
22.575958
 20
-77.517197
 11
32.575958
 21
-77.517197
  0
LINE
  8
0
 10
32.143059
 20
-76.767143
 11
32.576073
 21
-77.517151
  0
LINE
  8
0
 10
32.575958
 20
-77.517197
 11
32.575958
 21
-93.517197
  0
LINE
  8
0
 10
23.008980
 20
-76.767197
 11
22.575966
 21
-77.517197
  0
LINE
  8
0
 10
22.575958
 20
-77.517197
 11
22.575958
 21
-93.517197
  0
LINE
  8
0
 10
23.675964
 20
-97.817200
 11
23.675964
 21
-99.817200
  0
LINE
  8
0
 10
33.475983
 20
-98.817200
 11
21.675964
 21
-98.817200
  0
LINE
  8
0
 10
23.441986
 20
-76.517197
 11
31.709930
 21
-76.517197
  0
LINE
  8
0
 10
42.875969
 20
-93.517197
 11
32.675972
 21
-93.517197
  0
LINE
  8
0
 10
42.875969
 20
-114.517197
 11
32.675972
 21
-114.517197
  0
LINE
  8
0
 10
42.875969
 20
-93.517197
 11
42.875969
 21
-114.517197
  0
LINE
  8
0
 10
43.675987
 20
-109.217194
 11
31.875969
 21
-109.217194
  0
LINE
  8
0
 10
37.775963
 20
-75.017197
 11
37.775963
 21
-115.531219
  0
LINE
  8
0
 10
41.675972
 20
-97.817200
 11
41.675972
 21
-99.817200
  0
LINE
  8
0
 10
41.675972
 20
-108.217194
 11
41.675972
 21
-110.217194
  0
LINE
  8
0
 10
33.875969
 20
-108.217194
 11
33.875969
 21
-110.217194
  0
LINE
  8
0
 10
32.775963
 20
-79.517197
 11
42.775963
 21
-79.517197
  0
LINE
  8
0
 10
32.775963
 20
-77.517197
 11
42.775963
 21
-77.517197
  0
LINE
  8
0
 10
42.343071
 20
-76.767143
 11
42.776085
 21
-77.517151
  0
LINE
  8
0
 10
42.775963
 20
-77.517197
 11
42.775963
 21
-93.517197
  0
LINE
  8
0
 10
33.208977
 20
-76.767204
 11
32.775963
 21
-77.517197
  0
LINE
  8
0
 10
32.775963
 20
-77.517197
 11
32.775963
 21
-93.517197
  0
LINE
  8
0
 10
33.875969
 20
-97.817200
 11
33.875969
 21
-99.817200
  0
LINE
  8
0
 10
43.675987
 20
-98.817200
 11
31.875969
 21
-98.817200
  0
LINE
  8
0
 10
33.641991
 20
-76.517197
 11
41.909935
 21
-76.517197
  0
LINE
  8
0
 10
53.075966
 20
-93.517197
 11
42.875969
 21
-93.517197
  0
LINE
  8
0
 10
53.075966
 20
-114.517197
 11
42.875969
 21
-114.517197
  0
LINE
  8
0
 10
53.075966
 20
-93.517197
 11
53.075966
 21
-114.517197
  0
LINE
  8
0
 10
53.875984
 20
-109.217194
 11
42.075966
 21
-109.217194
  0
LINE
  8
0
 10
47.975960
 20
-75.017197
 11
47.975960
 21
-115.531219
  0
LINE
  8
0
 10
51.875969
 20
-97.817200
 11
51.875969
 21
-99.817200
  0
LINE
  8
0
 10
51.875969
 20
-108.217194
 11
51.875969
 21
-110.217194
  0
LINE
  8
0
 10
44.075966
 20
-108.217194
 11
44.075966
 21
-110.217194
  0
LINE
  8
0
 10
42.975960
 20
-79.517197
 11
52.975960
 21
-79.517197
  0
LINE
  8
0
 10
42.975960
 20
-77.517197
 11
52.975960
 21
-77.517197
  0
LINE
  8
0
 10
52.543083
 20
-76.767136
 11
52.976097
 21
-77.517136
  0
LINE
  8
0
 10
52.975960
 20
-77.517197
 11
52.975960
 21
-93.517197
  0
LINE
  8
0
 10
43.408974
 20
-76.767197
 11
42.975967
 21
-77.517197
  0
LINE
  8
0
 10
42.975960
 20
-77.517197
 11
42.975960
 21
-93.517197
  0
LINE
  8
0
 10
44.075966
 20
-97.817200
 11
44.075966
 21
-99.817200
  0
LINE
  8
0
 10
53.875984
 20
-98.817200
 11
42.075966
 21
-98.817200
  0
LINE
  8
0
 10
43.841988
 20
-76.517197
 11
52.109932
 21
-76.517197
  0
LINE
  8
0
 10
63.275970
 20
-93.517197
 11
53.075974
 21
-93.517197
  0
LINE
  8
0
 10
63.275970
 20
-114.517197
 11
53.075974
 21
-114.517197
  0
LINE
  8
0
 10
63.275970
 20
-93.517197
 11
63.275970
 21
-114.517197
  0
LINE
  8
0
 10
64.075989
 20
-109.217194
 11
52.275970
 21
-109.217194
  0
LINE
  8
0
 10
58.175964
 20
-75.017197
 11
58.175964
 21
-115.531219
  0
LINE
  8
0
 10
62.075974
 20
-97.817200
 11
62.075974
 21
-99.817200
  0
LINE
  8
0
 10
62.075974
 20
-108.217194
 11
62.075974
 21
-110.217194
  0
LINE
  8
0
 10
54.275970
 20
-108.217194
 11
54.275970
 21
-110.217194
  0
LINE
  8
0
 10
53.175964
 20
-79.517197
 11
63.175964
 21
-79.517197
  0
LINE
  8
0
 10
53.175964
 20
-77.517197
 11
63.175964
 21
-77.517197
  0
LINE
  8
0
 10
62.743103
 20
-76.767120
 11
63.176109
 21
-77.517128
  0
LINE
  8
0
 10
63.175964
 20
-77.517197
 11
63.175964
 21
-93.517197
  0
LINE
  8
0
 10
53.608971
 20
-76.767212
 11
53.175957
 21
-77.517212
  0
LINE
  8
0
 10
53.175964
 20
-77.517197
 11
53.175964
 21
-93.517197
  0
LINE
  8
0
 10
54.275970
 20
-97.817200
 11
54.275970
 21
-99.817200
  0
LINE
  8
0
 10
64.075989
 20
-98.817200
 11
52.275970
 21
-98.817200
  0
LINE
  8
0
 10
54.041992
 20
-76.517197
 11
62.309937
 21
-76.517197
  0
LINE
  8
0
 10
73.475967
 20
-93.517197
 11
63.275970
 21
-93.517197
  0
LINE
  8
0
 10
73.475967
 20
-114.517197
 11
63.275970
 21
-114.517197
  0
LINE
  8
0
 10
73.475967
 20
-93.517197
 11
73.475967
 21
-114.517197
  0
LINE
  8
0
 10
74.275986
 20
-109.217194
 11
62.475967
 21
-109.217194
  0
LINE
  8
0
 10
68.375961
 20
-75.017197
 11
68.375961
 21
-115.531219
  0
LINE
  8
0
 10
72.275970
 20
-97.817200
 11
72.275970
 21
-99.817200
  0
LINE
  8
0
 10
72.275970
 20
-108.217194
 11
72.275970
 21
-110.217194
  0
LINE
  8
0
 10
64.475967
 20
-108.217194
 11
64.475967
 21
-110.217194
  0
LINE
  8
0
 10
63.375961
 20
-79.517197
 11
73.375961
 21
-79.517197
  0
LINE
  8
0
 10
63.375961
 20
-77.517197
 11
73.375961
 21
-77.517197
  0
LINE
  8
0
 10
72.943108
 20
-76.767120
 11
73.376122
 21
-77.517120
  0
LINE
  8
0
 10
73.375961
 20
-77.517197
 11
73.375961
 21
-93.517197
  0
LINE
  8
0
 10
63.808968
 20
-76.767212
 11
63.375954
 21
-77.517204
  0
LINE
  8
0
 10
63.375961
 20
-77.517197
 11
63.375961
 21
-93.517197
  0
LINE
  8
0
 10
64.475967
 20
-97.817200
 11
64.475967
 21
-99.817200
  0
LINE
  8
0
 10
74.275986
 20
-98.817200
 11
62.475967
 21
-98.817200
  0
LINE
  8
0
 10
64.241989
 20
-76.517197
 11
72.509933
 21
-76.517197
  0
LINE
  8
0
 10
83.675964
 20
-93.517197
 11
73.475967
 21
-93.517197
  0
LINE
  8
0
 10
83.675964
 20
-114.517197
 11
73.475967
 21
-114.517197
  0
LINE
  8
0
 10
83.675964
 20
-93.517197
 11
83.675964
 21
-114.517197
  0
LINE
  8
0
 10
84.475983
 20
-109.217194
 11
72.675964
 21
-109.217194
  0
LINE
  8
0
 10
78.575958
 20
-75.017197
 11
78.575958
 21
-115.531219
  0
LINE
  8
0
 10
82.475967
 20
-97.817200
 11
82.475967
 21
-99.817200
  0
LINE
  8
0
 10
82.475967
 20
-108.217194
 11
82.475967
 21
-110.217194
  0
LINE
  8
0
 10
74.675964
 20
-108.217194
 11
74.675964
 21
-110.217194
  0
LINE
  8
0
 10
73.575958
 20
-79.517197
 11
83.575958
 21
-79.517197
  0
LINE
  8
0
 10
73.575958
 20
-77.517197
 11
83.575958
 21
-77.517197
  0
LINE
  8
0
 10
83.143143
 20
-76.767105
 11
83.576157
 21
-77.517105
  0
LINE
  8
0
 10
83.575958
 20
-77.517197
 11
83.575958
 21
-93.517197
  0
LINE
  8
0
 10
74.008965
 20
-76.767212
 11
73.575958
 21
-77.517204
  0
LINE
  8
0
 10
73.575958
 20
-77.517197
 11
73.575958
 21
-93.517197
  0
LINE
  8
0
 10
74.675964
 20
-97.817200
 11
74.675964
 21
-99.817200
  0
LINE
  8
0
 10
84.475983
 20
-98.817200
 11
72.675964
 21
-98.817200
  0
LINE
  8
0
 10
74.441986
 20
-76.517197
 11
82.709930
 21
-76.517197
  0
LINE
  8
0
 10
93.875961
 20
-93.517197
 11
83.675964
 21
-93.517197
  0
LINE
  8
0
 10
93.875961
 20
-114.517197
 11
83.675964
 21
-114.517197
  0
LINE
  8
0
 10
93.875961
 20
-93.517197
 11
93.875961
 21
-114.517197
  0
LINE
  8
0
 10
94.675980
 20
-109.217194
 11
82.875977
 21
-109.217194
  0
LINE
  8
0
 10
88.775955
 20
-75.017197
 11
88.775955
 21
-115.531219
  0
LINE
  8
0
 10
92.675964
 20
-97.817200
 11
92.675964
 21
-99.817200
  0
LINE
  8
0
 10
92.675964
 20
-108.217194
 11
92.675964
 21
-110.217194
  0
LINE
  8
0
 10
84.875977
 20
-108.217194
 11
84.875977
 21
-110.217194
  0
LINE
  8
0
 10
83.775970
 20
-79.517197
 11
93.775955
 21
-79.517197
  0
LINE
  8
0
 10
83.775970
 20
-77.517197
 11
93.775955
 21
-77.517197
  0
LINE
  8
0
 10
93.343140
 20
-76.767105
 11
93.776154
 21
-77.517105
  0
LINE
  8
0
 10
93.775955
 20
-77.517197
 11
93.775955
 21
-93.517197
  0
LINE
  8
0
 10
84.208969
 20
-76.767212
 11
83.775955
 21
-77.517212
  0
LINE
  8
0
 10
83.775970
 20
-77.517197
 11
83.775970
 21
-93.517197
  0
LINE
  8
0
 10
84.875977
 20
-97.817200
 11
84.875977
 21
-99.817200
  0
LINE
  8
0
 10
94.675980
 20
-98.817200
 11
82.875977
 21
-98.817200
  0
LINE
  8
0
 10
84.641998
 20
-76.517197
 11
92.909927
 21
-76.517197
  0
LINE
  8
0
 10
-29.524017
 20
-67.624207
 11
-29.524017
 21
-72.517181
  0
LINE
  8
0
 10
-20.924042
 20
-67.624207
 11
-20.924042
 21
-72.517181
  0
LINE
  8
0
 10
-26.724030
 20
-67.677673
 11
-26.724030
 21
-72.517181
  0
LINE
  8
0
 10
-23.724045
 20
-67.677673
 11
-23.724045
 21
-72.517181
  0
LINE
  8
0
 10
-23.724045
 20
-67.677673
 11
-23.224045
 21
-67.677673
  0
LINE
  8
0
 10
-27.224030
 20
-67.677673
 11
-26.724030
 21
-67.677673
  0
LINE
  8
0
 10
-27.224030
 20
-58.517197
 11
-27.224030
 21
-67.677673
  0
LINE
  8
0
 10
-27.224030
 20
-58.517197
 11
-23.224030
 21
-58.517197
  0
LINE
  8
0
 10
-23.224045
 20
-58.517197
 11
-23.224045
 21
-67.677673
  0
LINE
  8
0
 10
-29.524017
 20
-67.624207
 11
-27.224030
 21
-67.624207
  0
LINE
  8
0
 10
-23.224045
 20
-67.624207
 11
-20.924042
 21
-67.624207
  0
LINE
  8
0
 10
-32.424026
 20
-84.517197
 11
-32.724030
 21
-84.517197
  0
LINE
  8
0
 10
-31.924042
 20
-72.517181
 11
-18.524033
 21
-72.517181
  0
LINE
  8
0
 10
-31.924042
 20
-79.017181
 11
-18.524033
 21
-79.017181
  0
LINE
  8
0
 10
-31.924042
 20
-81.017181
 11
-18.524033
 21
-81.017181
  0
LINE
  8
0
 10
-18.524033
 20
-69.517181
 11
-18.524033
 21
-81.017181
  0
LINE
  8
0
 10
-31.924042
 20
-69.517181
 11
-31.924042
 21
-81.017181
  0
LINE
  8
0
 10
-32.724030
 20
-69.517181
 11
-32.724030
 21
-82.517181
  0
LINE
  8
0
 10
-17.724030
 20
-69.517181
 11
-17.724030
 21
-82.517181
  0
LINE
  8
0
 10
-17.724030
 20
-114.517197
 11
-32.724030
 21
-114.517197
  0
LINE
  8
0
 10
-17.724030
 20
-82.517197
 11
-32.724030
 21
-82.517197
  0
LINE
  8
0
 10
-17.724030
 20
-93.517197
 11
-32.724030
 21
-93.517197
  0
LINE
  8
0
 10
-17.724030
 20
-91.517197
 11
-32.724030
 21
-91.517197
  0
LINE
  8
0
 10
-32.424026
 20
-91.517181
 11
-32.424026
 21
-93.517181
  0
LINE
  8
0
 10
-18.024033
 20
-91.517181
 11
-18.024033
 21
-93.517181
  0
LINE
  8
0
 10
-32.424026
 20
-88.017181
 11
-32.424026
 21
-90.017181
  0
LINE
  8
0
 10
-18.024033
 20
-88.017181
 11
-18.024033
 21
-90.017181
  0
LINE
  8
0
 10
-17.724030
 20
-88.017197
 11
-32.724030
 21
-88.017197
  0
LINE
  8
0
 10
-17.724030
 20
-90.017197
 11
-32.724030
 21
-90.017197
  0
LINE
  8
0
 10
-17.724030
 20
-82.517181
 11
-17.724030
 21
-84.517181
  0
LINE
  8
0
 10
-17.724030
 20
-86.517181
 11
-17.724030
 21
-88.017181
  0
LINE
  8
0
 10
-17.724030
 20
-90.017181
 11
-17.724030
 21
-91.517181
  0
LINE
  8
0
 10
-17.724030
 20
-93.517181
 11
-17.724030
 21
-114.517181
  0
LINE
  8
0
 10
-32.724030
 20
-82.517181
 11
-32.724030
 21
-84.517181
  0
LINE
  8
0
 10
-32.724030
 20
-86.517181
 11
-32.724030
 21
-88.017181
  0
LINE
  8
0
 10
-32.724030
 20
-90.017181
 11
-32.724030
 21
-91.517181
  0
LINE
  8
0
 10
-17.724030
 20
-86.517197
 11
-18.024033
 21
-86.517197
  0
LINE
  8
0
 10
-17.724030
 20
-84.517197
 11
-18.024033
 21
-84.517197
  0
LINE
  8
0
 10
-18.024033
 20
-84.517181
 11
-18.024033
 21
-86.517181
  0
LINE
  8
0
 10
-32.424026
 20
-86.517197
 11
-32.724030
 21
-86.517197
  0
LINE
  8
0
 10
-32.424026
 20
-84.517181
 11
-32.424026
 21
-86.517181
  0
LINE
  8
0
 10
-31.924042
 20
-77.717178
 11
-18.524033
 21
-77.717178
  0
LINE
  8
0
 10
-24.524033
 20
-76.517181
 11
-18.824036
 21
-76.517181
  0
LINE
  8
0
 10
-24.524033
 20
-76.517181
 11
-24.524033
 21
-77.717178
  0
LINE
  8
0
 10
-18.824036
 20
-76.517181
 11
-18.824036
 21
-77.717178
  0
LINE
  8
0
 10
-18.874039
 20
-75.345352
 11
-18.874039
 21
-76.517181
  0
LINE
  8
0
 10
-24.474030
 20
-75.345352
 11
-24.474030
 21
-76.517181
  0
LINE
  8
0
 10
-31.624039
 20
-76.517181
 11
-25.924042
 21
-76.517181
  0
LINE
  8
0
 10
-31.624039
 20
-76.517181
 11
-31.624039
 21
-77.717178
  0
LINE
  8
0
 10
-25.924042
 20
-76.517181
 11
-25.924042
 21
-77.717178
  0
LINE
  8
0
 10
-25.974030
 20
-75.345352
 11
-25.974030
 21
-76.517181
  0
LINE
  8
0
 10
-31.574036
 20
-75.345352
 11
-31.574036
 21
-76.517181
  0
LINE
  8
0
 10
-25.224030
 20
-57.017197
 11
-25.224030
 21
-117.351990
  0
LINE
  8
0
 10
-32.724030
 20
-69.517181
 11
-17.724030
 21
-69.517181
  0
LINE
  8
0
 10
109.175949
 20
-75.017197
 11
109.175949
 21
-116.017197
  0
LINE
  8
0
 10
113.075958
 20
-97.817200
 11
113.075958
 21
-99.817200
  0
LINE
  8
0
 10
105.275955
 20
-97.817200
 11
105.275955
 21
-99.817200
  0
LINE
  8
0
 10
113.075958
 20
-108.217194
 11
113.075958
 21
-110.217194
  0
LINE
  8
0
 10
105.275955
 20
-108.217194
 11
105.275955
 21
-110.217194
  0
LINE
  8
0
 10
114.275955
 20
-114.517197
 11
104.075958
 21
-114.517197
  0
LINE
  8
0
 10
114.275955
 20
-93.517197
 11
114.275955
 21
-114.517197
  0
LINE
  8
0
 10
114.275955
 20
-93.517197
 11
93.875961
 21
-93.517197
  0
LINE
  8
0
 10
104.075958
 20
-114.517197
 11
93.875961
 21
-114.517197
  0
LINE
  8
0
 10
104.075958
 20
-93.517197
 11
104.075958
 21
-114.517197
  0
LINE
  8
0
 10
104.175949
 20
-77.517197
 11
104.175949
 21
-79.517197
  0
LINE
  8
0
 10
103.975952
 20
-77.517197
 11
103.975952
 21
-79.517197
  0
LINE
  8
0
 10
105.041977
 20
-76.517197
 11
113.309937
 21
-76.517197
  0
LINE
  8
0
 10
93.975952
 20
-79.517197
 11
114.175949
 21
-79.517197
  0
LINE
  8
0
 10
104.175964
 20
-77.517197
 11
114.175949
 21
-77.517197
  0
LINE
  8
0
 10
104.609024
 20
-76.767220
 11
104.176010
 21
-77.517227
  0
LINE
  8
0
 10
113.742966
 20
-76.767212
 11
114.175964
 21
-77.517181
  0
LINE
  8
0
 10
114.175949
 20
-77.517197
 11
114.175949
 21
-93.517197
  0
LINE
  8
0
 10
93.975952
 20
-77.517197
 11
93.975952
 21
-93.517197
  0
LINE
  8
0
 10
94.841980
 20
-76.517197
 11
103.109940
 21
-76.517197
  0
LINE
  8
0
 10
93.975952
 20
-77.517197
 11
103.975952
 21
-77.517197
  0
LINE
  8
0
 10
94.409042
 20
-76.767227
 11
93.976028
 21
-77.517227
  0
LINE
  8
0
 10
103.543045
 20
-76.767151
 11
103.976059
 21
-77.517151
  0
LINE
  8
0
 10
115.075974
 20
-109.217194
 11
93.075958
 21
-109.217194
  0
LINE
  8
0
 10
115.075974
 20
-98.817200
 11
93.075958
 21
-98.817200
  0
LINE
  8
0
 10
98.975952
 20
-75.017197
 11
98.975952
 21
-116.017197
  0
LINE
  8
0
 10
102.875961
 20
-97.817200
 11
102.875961
 21
-99.817200
  0
LINE
  8
0
 10
95.075958
 20
-97.817200
 11
95.075958
 21
-99.817200
  0
LINE
  8
0
 10
102.875961
 20
-108.217194
 11
102.875961
 21
-110.217194
  0
LINE
  8
0
 10
95.075958
 20
-108.217194
 11
95.075958
 21
-110.217194
  0
LINE
  8
0
 10
129.575943
 20
-75.017197
 11
129.575943
 21
-116.017197
  0
LINE
  8
0
 10
133.475952
 20
-97.817200
 11
133.475952
 21
-99.817200
  0
LINE
  8
0
 10
125.675949
 20
-97.817200
 11
125.675949
 21
-99.817200
  0
LINE
  8
0
 10
133.475952
 20
-108.217194
 11
133.475952
 21
-110.217194
  0
LINE
  8
0
 10
125.675949
 20
-108.217194
 11
125.675949
 21
-110.217194
  0
LINE
  8
0
 10
134.675949
 20
-114.517197
 11
124.475952
 21
-114.517197
  0
LINE
  8
0
 10
134.675949
 20
-93.517197
 11
134.675949
 21
-114.517197
  0
LINE
  8
0
 10
134.675949
 20
-93.517197
 11
114.275955
 21
-93.517197
  0
LINE
  8
0
 10
124.475952
 20
-114.517197
 11
114.275955
 21
-114.517197
  0
LINE
  8
0
 10
124.475952
 20
-93.517197
 11
124.475952
 21
-114.517197
  0
LINE
  8
0
 10
124.575943
 20
-77.517197
 11
124.575943
 21
-79.517197
  0
LINE
  8
0
 10
124.375946
 20
-77.517197
 11
124.375946
 21
-79.517197
  0
LINE
  8
0
 10
125.441971
 20
-76.517197
 11
133.709930
 21
-76.517197
  0
LINE
  8
0
 10
114.375946
 20
-79.517197
 11
134.575943
 21
-79.517197
  0
LINE
  8
0
 10
124.575958
 20
-77.517197
 11
134.575943
 21
-77.517197
  0
LINE
  8
0
 10
125.009048
 20
-76.767242
 11
124.576035
 21
-77.517250
  0
LINE
  8
0
 10
134.142975
 20
-76.767212
 11
134.575974
 21
-77.517181
  0
LINE
  8
0
 10
134.575943
 20
-77.517197
 11
134.575943
 21
-93.517197
  0
LINE
  8
0
 10
114.375946
 20
-77.517197
 11
114.375946
 21
-93.517197
  0
LINE
  8
0
 10
115.241974
 20
-76.517197
 11
123.509933
 21
-76.517197
  0
LINE
  8
0
 10
114.375946
 20
-77.517197
 11
124.375946
 21
-77.517197
  0
LINE
  8
0
 10
114.809052
 20
-76.767220
 11
114.376038
 21
-77.517220
  0
LINE
  8
0
 10
123.943054
 20
-76.767120
 11
124.376068
 21
-77.517128
  0
LINE
  8
0
 10
135.475967
 20
-109.217194
 11
113.475952
 21
-109.217194
  0
LINE
  8
0
 10
135.475967
 20
-98.817200
 11
113.475952
 21
-98.817200
  0
LINE
  8
0
 10
119.375946
 20
-75.017197
 11
119.375946
 21
-116.017197
  0
LINE
  8
0
 10
123.275955
 20
-97.817200
 11
123.275955
 21
-99.817200
  0
LINE
  8
0
 10
115.475952
 20
-97.817200
 11
115.475952
 21
-99.817200
  0
LINE
  8
0
 10
123.275955
 20
-108.217194
 11
123.275955
 21
-110.217194
  0
LINE
  8
0
 10
115.475952
 20
-108.217194
 11
115.475952
 21
-110.217194
  0
LINE
  8
0
 10
149.975937
 20
-75.017197
 11
149.975937
 21
-116.017197
  0
LINE
  8
0
 10
153.875946
 20
-97.817200
 11
153.875946
 21
-99.817200
  0
LINE
  8
0
 10
146.075943
 20
-97.817200
 11
146.075943
 21
-99.817200
  0
LINE
  8
0
 10
153.875946
 20
-108.217194
 11
153.875946
 21
-110.217194
  0
LINE
  8
0
 10
146.075943
 20
-108.217194
 11
146.075943
 21
-110.217194
  0
LINE
  8
0
 10
155.075943
 20
-114.517197
 11
144.875946
 21
-114.517197
  0
LINE
  8
0
 10
155.075943
 20
-93.517197
 11
155.075943
 21
-114.517197
  0
LINE
  8
0
 10
155.075943
 20
-93.517197
 11
134.675949
 21
-93.517197
  0
LINE
  8
0
 10
144.875946
 20
-114.517197
 11
134.675949
 21
-114.517197
  0
LINE
  8
0
 10
144.875946
 20
-93.517197
 11
144.875946
 21
-114.517197
  0
LINE
  8
0
 10
144.975937
 20
-77.517197
 11
144.975937
 21
-79.517197
  0
LINE
  8
0
 10
144.775940
 20
-77.517197
 11
144.775940
 21
-79.517197
  0
LINE
  8
0
 10
145.841965
 20
-76.517197
 11
154.109924
 21
-76.517197
  0
LINE
  8
0
 10
134.775940
 20
-79.517197
 11
154.975937
 21
-79.517197
  0
LINE
  8
0
 10
144.975952
 20
-77.517197
 11
154.975937
 21
-77.517197
  0
LINE
  8
0
 10
145.409012
 20
-76.767227
 11
144.975998
 21
-77.517227
  0
LINE
  8
0
 10
154.542953
 20
-76.767227
 11
154.975952
 21
-77.517197
  0
LINE
  8
0
 10
154.975937
 20
-77.517197
 11
154.975937
 21
-93.517197
  0
LINE
  8
0
 10
134.775940
 20
-77.517197
 11
134.775940
 21
-93.517197
  0
LINE
  8
0
 10
135.641968
 20
-76.517197
 11
143.909927
 21
-76.517197
  0
LINE
  8
0
 10
134.775940
 20
-77.517197
 11
144.775940
 21
-77.517197
  0
LINE
  8
0
 10
135.209015
 20
-76.767212
 11
134.776001
 21
-77.517220
  0
LINE
  8
0
 10
144.343094
 20
-76.767113
 11
144.776108
 21
-77.517113
  0
LINE
  8
0
 10
155.875961
 20
-109.217194
 11
133.875946
 21
-109.217194
  0
LINE
  8
0
 10
155.875961
 20
-98.817200
 11
133.875946
 21
-98.817200
  0
LINE
  8
0
 10
139.775940
 20
-75.017197
 11
139.775940
 21
-116.017197
  0
LINE
  8
0
 10
143.675949
 20
-97.817200
 11
143.675949
 21
-99.817200
  0
LINE
  8
0
 10
135.875946
 20
-97.817200
 11
135.875946
 21
-99.817200
  0
LINE
  8
0
 10
143.675949
 20
-108.217194
 11
143.675949
 21
-110.217194
  0
LINE
  8
0
 10
135.875946
 20
-108.217194
 11
135.875946
 21
-110.217194
  0
LINE
  8
0
 10
165.275940
 20
-93.517197
 11
155.075943
 21
-93.517197
  0
LINE
  8
0
 10
165.275940
 20
-114.517197
 11
155.075943
 21
-114.517197
  0
LINE
  8
0
 10
165.275940
 20
-93.517197
 11
165.275940
 21
-114.517197
  0
LINE
  8
0
 10
166.075943
 20
-109.217194
 11
154.275940
 21
-109.217194
  0
LINE
  8
0
 10
166.075943
 20
-98.817200
 11
154.275940
 21
-98.817200
  0
LINE
  8
0
 10
164.075943
 20
-97.817200
 11
164.075943
 21
-99.817200
  0
LINE
  8
0
 10
156.275940
 20
-97.817200
 11
156.275940
 21
-99.817200
  0
LINE
  8
0
 10
164.075943
 20
-108.217194
 11
164.075943
 21
-110.217194
  0
LINE
  8
0
 10
156.275940
 20
-108.217194
 11
156.275940
 21
-110.217194
  0
LINE
  8
0
 10
155.175934
 20
-91.917191
 11
165.175934
 21
-91.917191
  0
LINE
  8
0
 10
165.175934
 20
-91.917191
 11
165.175934
 21
-93.517197
  0
LINE
  8
0
 10
155.175934
 20
-91.917191
 11
155.175934
 21
-93.517197
  0
LINE
  8
0
 10
160.175934
 20
-90.417191
 11
160.175934
 21
-116.017197
  0
LINE
  8
0
 10
175.475937
 20
-93.517197
 11
165.275940
 21
-93.517197
  0
LINE
  8
0
 10
175.475937
 20
-114.517197
 11
165.275940
 21
-114.517197
  0
LINE
  8
0
 10
175.475937
 20
-93.517197
 11
175.475937
 21
-114.517197
  0
LINE
  8
0
 10
176.275940
 20
-109.217194
 11
164.475937
 21
-109.217194
  0
LINE
  8
0
 10
176.275940
 20
-98.817200
 11
164.475937
 21
-98.817200
  0
LINE
  8
0
 10
174.275940
 20
-97.817200
 11
174.275940
 21
-99.817200
  0
LINE
  8
0
 10
166.475937
 20
-97.817200
 11
166.475937
 21
-99.817200
  0
LINE
  8
0
 10
174.275940
 20
-108.217194
 11
174.275940
 21
-110.217194
  0
LINE
  8
0
 10
166.475937
 20
-108.217194
 11
166.475937
 21
-110.217194
  0
LINE
  8
0
 10
165.375931
 20
-91.917191
 11
175.375931
 21
-91.917191
  0
LINE
  8
0
 10
175.375931
 20
-91.917191
 11
175.375931
 21
-93.517197
  0
LINE
  8
0
 10
165.375931
 20
-91.917191
 11
165.375931
 21
-93.517197
  0
LINE
  8
0
 10
170.375931
 20
-90.417191
 11
170.375931
 21
-116.017197
  0
LINE
  8
0
 10
189.975937
 20
-76.517181
 11
175.975937
 21
-76.517181
  0
LINE
  8
0
 10
175.675934
 20
-76.817184
 11
175.675934
 21
-93.517181
  0
LINE
  8
0
 10
190.275940
 20
-76.817184
 11
190.275940
 21
-93.517181
  0
LINE
  8
0
 10
191.375931
 20
-84.517181
 11
174.575943
 21
-84.517181
  0
LINE
  8
0
 10
182.975937
 20
-75.017181
 11
182.975937
 21
-116.017197
  0
LINE
  8
0
 10
175.975906
 20
-76.517181
 11
175.675903
 21
-76.817192
  0
LINE
  8
0
 10
189.976013
 20
-76.517166
 11
190.276001
 21
-76.817154
  0
LINE
  8
0
 10
190.475937
 20
-93.517197
 11
175.475937
 21
-93.517197
  0
LINE
  8
0
 10
190.475937
 20
-114.517197
 11
175.475937
 21
-114.517197
  0
LINE
  8
0
 10
190.475937
 20
-93.517181
 11
190.475937
 21
-114.517181
  0
LINE
  8
0
 10
175.975937
 20
-80.475723
 11
175.975937
 21
-88.558640
  0
LINE
  8
0
 10
189.975937
 20
-80.475723
 11
189.975937
 21
-88.558640
  0
LINE
  8
0
 10
175.975937
 20
-80.475754
 11
182.975952
 21
-76.434296
  0
LINE
  8
0
 10
182.975937
 20
-92.600090
 11
189.975937
 21
-88.558632
  0
LINE
  8
0
 10
175.975952
 20
-88.558640
 11
182.975952
 21
-92.600082
  0
LINE
  8
0
 10
182.975937
 20
-76.434280
 11
189.975952
 21
-80.475739
  0
LINE
  8
0
 10
205.475922
 20
-93.517197
 11
205.475922
 21
-114.517197
  0
LINE
  8
0
 10
205.475922
 20
-114.517212
 11
190.475937
 21
-114.517212
  0
LINE
  8
0
 10
190.675949
 20
-76.517197
 11
205.275940
 21
-76.517197
  0
LINE
  8
0
 10
190.475937
 20
-93.517197
 11
205.475922
 21
-93.517197
  0
LINE
  8
0
 10
190.675949
 20
-76.517197
 11
190.675949
 21
-93.517197
  0
LINE
  8
0
 10
205.275940
 20
-76.517197
 11
205.275940
 21
-93.517197
  0
LINE
  8
0
 10
211.475922
 20
-115.517197
 11
205.475922
 21
-115.517197
  0
LINE
  8
0
 10
211.475922
 20
-93.017197
 11
211.475922
 21
-115.517197
  0
LINE
  8
0
 10
211.475922
 20
-93.017197
 11
205.475922
 21
-93.017197
  0
LINE
  8
0
 10
205.475922
 20
-93.017197
 11
205.475922
 21
-115.517197
  0
LINE
  8
0
 10
211.475922
 20
-93.517197
 11
205.475922
 21
-93.517197
  0
ARC
  8
0
 10
-45.907387
 20
-75.345375
 40
0.666670
 50
119.492233
 51
180.000000
  0
ARC
  8
0
 10
-40.224041
 20
-81.017197
 40
1.399998
 50
0.000000
 51
180.000000
  0
ARC
  8
0
 10
-36.674042
 20
-79.117187
 40
5.000004
 50
60.507679
 51
119.492317
  0
ARC
  8
0
 10
-34.540718
 20
-75.345352
 40
0.666664
 50
0.000000
 51
60.507446
  0
ARC
  8
0
 10
-38.807381
 20
-75.345360
 40
0.666670
 50
119.492233
 51
180.000000
  0
ARC
  8
0
 10
-43.774048
 20
-79.117203
 40
5.000004
 50
60.507679
 51
119.492317
  0
ARC
  8
0
 10
-41.640724
 20
-75.345367
 40
0.666668
 50
0.000000
 51
60.507446
  0
ARC
  8
0
 10
-11.640739
 20
-75.345352
 40
0.666668
 50
0.000000
 51
60.507446
  0
ARC
  8
0
 10
-15.907402
 20
-75.345367
 40
0.666663
 50
119.492554
 51
180.000000
  0
ARC
  8
0
 10
-6.674057
 20
-79.117180
 40
4.999997
 50
60.507637
 51
119.492363
  0
ARC
  8
0
 10
-4.540733
 20
-75.345337
 40
0.666668
 50
0.000000
 51
60.507446
  0
ARC
  8
0
 10
-8.807396
 20
-75.345352
 40
0.666663
 50
119.492554
 51
180.000000
  0
ARC
  8
0
 10
-13.774063
 20
-79.117195
 40
4.999997
 50
60.507637
 51
119.492363
  0
ARC
  8
0
 10
17.375977
 20
-97.817200
 40
3.900002
 50
0.000000
 51
180.000000
  0
ARC
  8
0
 10
17.375977
 20
-99.817200
 40
3.900002
 50
180.000000
 51
0.000000
  0
CIRCLE
  8
0
 10
17.375977
 20
-98.817200
 40
2.000000
  0
ARC
  8
0
 10
17.375977
 20
-108.217194
 40
3.900002
 50
0.000000
 51
180.000000
  0
ARC
  8
0
 10
17.375977
 20
-110.217194
 40
3.900002
 50
180.000000
 51
0.000000
  0
CIRCLE
  8
0
 10
17.375977
 20
-109.217194
 40
2.000000
  0
ARC
  8
0
 10
21.509949
 20
-77.017197
 40
0.500001
 50
29.999931
 51
90.000000
  0
ARC
  8
0
 10
13.241989
 20
-77.017197
 40
0.500000
 50
90.000000
 51
150.000076
  0
ARC
  8
0
 10
27.575974
 20
-97.817200
 40
3.900002
 50
0.000000
 51
180.000000
  0
ARC
  8
0
 10
27.575974
 20
-99.817200
 40
3.900002
 50
180.000000
 51
0.000000
  0
CIRCLE
  8
0
 10
27.575974
 20
-98.817200
 40
2.000000
  0
ARC
  8
0
 10
27.575974
 20
-108.217194
 40
3.900002
 50
0.000000
 51
180.000000
  0
ARC
  8
0
 10
27.575974
 20
-110.217194
 40
3.900002
 50
180.000000
 51
0.000000
  0
CIRCLE
  8
0
 10
27.575974
 20
-109.217194
 40
2.000000
  0
ARC
  8
0
 10
31.709946
 20
-77.017197
 40
0.500001
 50
29.999931
 51
90.000000
  0
ARC
  8
0
 10
23.441986
 20
-77.017197
 40
0.500000
 50
90.000000
 51
150.000076
  0
ARC
  8
0
 10
37.775978
 20
-97.817200
 40
3.900002
 50
0.000000
 51
180.000000
  0
ARC
  8
0
 10
37.775978
 20
-99.817200
 40
3.900002
 50
180.000000
 51
0.000000
  0
CIRCLE
  8
0
 10
37.775978
 20
-98.817200
 40
2.000000
  0
ARC
  8
0
 10
37.775978
 20
-108.217194
 40
3.900002
 50
0.000000
 51
180.000000
  0
ARC
  8
0
 10
37.775978
 20
-110.217194
 40
3.900002
 50
180.000000
 51
0.000000
  0
CIRCLE
  8
0
 10
37.775978
 20
-109.217194
 40
2.000000
  0
ARC
  8
0
 10
41.909950
 20
-77.017197
 40
0.500001
 50
29.999931
 51
90.000000
  0
ARC
  8
0
 10
33.641991
 20
-77.017197
 40
0.500000
 50
90.000000
 51
150.000076
  0
ARC
  8
0
 10
47.975975
 20
-97.817200
 40
3.900002
 50
0.000000
 51
180.000000
  0
ARC
  8
0
 10
47.975975
 20
-99.817200
 40
3.900002
 50
180.000000
 51
0.000000
  0
CIRCLE
  8
0
 10
47.975975
 20
-98.817200
 40
2.000000
  0
ARC
  8
0
 10
47.975975
 20
-108.217194
 40
3.900002
 50
0.000000
 51
180.000000
  0
ARC
  8
0
 10
47.975975
 20
-110.217194
 40
3.900002
 50
180.000000
 51
0.000000
  0
CIRCLE
  8
0
 10
47.975975
 20
-109.217194
 40
2.000000
  0
ARC
  8
0
 10
52.109947
 20
-77.017197
 40
0.500001
 50
29.999931
 51
90.000000
  0
ARC
  8
0
 10
43.841988
 20
-77.017197
 40
0.500000
 50
90.000000
 51
150.000076
  0
ARC
  8
0
 10
58.175980
 20
-97.817200
 40
3.900002
 50
0.000000
 51
180.000000
  0
ARC
  8
0
 10
58.175980
 20
-99.817200
 40
3.900002
 50
180.000000
 51
0.000000
  0
CIRCLE
  8
0
 10
58.175980
 20
-98.817200
 40
2.000000
  0
ARC
  8
0
 10
58.175980
 20
-108.217194
 40
3.900002
 50
0.000000
 51
180.000000
  0
ARC
  8
0
 10
58.175980
 20
-110.217194
 40
3.900002
 50
180.000000
 51
0.000000
  0
CIRCLE
  8
0
 10
58.175980
 20
-109.217194
 40
2.000000
  0
ARC
  8
0
 10
62.309952
 20
-77.017197
 40
0.500001
 50
29.999931
 51
90.000000
  0
ARC
  8
0
 10
54.041992
 20
-77.017197
 40
0.500000
 50
90.000000
 51
150.000076
  0
ARC
  8
0
 10
68.375977
 20
-97.817200
 40
3.900002
 50
0.000000
 51
180.000000
  0
ARC
  8
0
 10
68.375977
 20
-99.817200
 40
3.900002
 50
180.000000
 51
0.000000
  0
CIRCLE
  8
0
 10
68.375977
 20
-98.817200
 40
2.000000
  0
ARC
  8
0
 10
68.375977
 20
-108.217194
 40
3.900002
 50
0.000000
 51
180.000000
  0
ARC
  8
0
 10
68.375977
 20
-110.217194
 40
3.900002
 50
180.000000
 51
0.000000
  0
CIRCLE
  8
0
 10
68.375977
 20
-109.217194
 40
2.000000
  0
ARC
  8
0
 10
72.509949
 20
-77.017197
 40
0.500001
 50
29.999931
 51
90.000000
  0
ARC
  8
0
 10
64.241989
 20
-77.017197
 40
0.500000
 50
90.000000
 51
150.000076
  0
ARC
  8
0
 10
78.575974
 20
-97.817200
 40
3.899994
 50
0.000000
 51
180.000000
  0
ARC
  8
0
 10
78.575974
 20
-99.817200
 40
3.899994
 50
180.000000
 51
0.000000
  0
CIRCLE
  8
0
 10
78.575974
 20
-98.817200
 40
2.000000
  0
ARC
  8
0
 10
78.575974
 20
-108.217194
 40
3.899994
 50
0.000000
 51
180.000000
  0
ARC
  8
0
 10
78.575974
 20
-110.217194
 40
3.899994
 50
180.000000
 51
0.000000
  0
CIRCLE
  8
0
 10
78.575974
 20
-109.217194
 40
2.000000
  0
ARC
  8
0
 10
82.709946
 20
-77.017197
 40
0.500001
 50
29.999931
 51
90.000000
  0
ARC
  8
0
 10
74.441986
 20
-77.017197
 40
0.500000
 50
90.000000
 51
150.000076
  0
ARC
  8
0
 10
88.775970
 20
-97.817200
 40
3.899994
 50
0.000000
 51
180.000000
  0
ARC
  8
0
 10
88.775970
 20
-99.817200
 40
3.899994
 50
180.000000
 51
0.000000
  0
CIRCLE
  8
0
 10
88.775970
 20
-98.817200
 40
2.000000
  0
ARC
  8
0
 10
88.775970
 20
-108.217194
 40
3.899994
 50
0.000000
 51
180.000000
  0
ARC
  8
0
 10
88.775970
 20
-110.217194
 40
3.899994
 50
180.000000
 51
0.000000
  0
CIRCLE
  8
0
 10
88.775970
 20
-109.217194
 40
2.000000
  0
ARC
  8
0
 10
92.909943
 20
-77.017197
 40
0.500001
 50
29.999931
 51
90.000000
  0
ARC
  8
0
 10
84.641998
 20
-77.017197
 40
0.500000
 50
90.000000
 51
150.000076
  0
ARC
  8
0
 10
-26.640701
 20
-75.345352
 40
0.666666
 50
0.000000
 51
60.507446
  0
ARC
  8
0
 10
-30.907364
 20
-75.345352
 40
0.666663
 50
119.492554
 51
180.000000
  0
ARC
  8
0
 10
-21.674026
 20
-79.117187
 40
5.000004
 50
60.507679
 51
119.492317
  0
ARC
  8
0
 10
-19.540695
 20
-75.345352
 40
0.666668
 50
0.000000
 51
60.507446
  0
ARC
  8
0
 10
-23.807358
 20
-75.345352
 40
0.666663
 50
119.492554
 51
180.000000
  0
ARC
  8
0
 10
-28.774033
 20
-79.117187
 40
5.000004
 50
60.507679
 51
119.492317
  0
CIRCLE
  8
0
 10
98.975952
 20
-109.217194
 40
2.000000
  0
ARC
  8
0
 10
98.975952
 20
-110.217194
 40
3.899994
 50
180.000000
 51
0.000000
  0
ARC
  8
0
 10
109.175964
 20
-97.817200
 40
3.899994
 50
0.000000
 51
180.000000
  0
ARC
  8
0
 10
109.175964
 20
-99.817200
 40
3.899994
 50
180.000000
 51
0.000000
  0
CIRCLE
  8
0
 10
109.175964
 20
-98.817200
 40
2.000000
  0
ARC
  8
0
 10
109.175964
 20
-108.217194
 40
3.899994
 50
0.000000
 51
180.000000
  0
ARC
  8
0
 10
109.175964
 20
-110.217194
 40
3.899994
 50
180.000000
 51
0.000000
  0
CIRCLE
  8
0
 10
109.175964
 20
-109.217194
 40
2.000000
  0
ARC
  8
0
 10
105.041992
 20
-77.017197
 40
0.500000
 50
90.000000
 51
150.000076
  0
ARC
  8
0
 10
113.309937
 20
-77.017197
 40
0.500001
 50
29.999931
 51
90.000000
  0
ARC
  8
0
 10
94.841980
 20
-77.017197
 40
0.500000
 50
90.000000
 51
150.000076
  0
ARC
  8
0
 10
103.109940
 20
-77.017197
 40
0.500001
 50
29.999931
 51
90.000000
  0
ARC
  8
0
 10
98.975952
 20
-97.817200
 40
3.899994
 50
0.000000
 51
180.000000
  0
ARC
  8
0
 10
98.975952
 20
-99.817200
 40
3.899994
 50
180.000000
 51
0.000000
  0
CIRCLE
  8
0
 10
98.975952
 20
-98.817200
 40
2.000000
  0
ARC
  8
0
 10
98.975952
 20
-108.217194
 40
3.899994
 50
0.000000
 51
180.000000
  0
CIRCLE
  8
0
 10
119.375946
 20
-109.217194
 40
2.000000
  0
ARC
  8
0
 10
119.375946
 20
-110.217194
 40
3.899994
 50
180.000000
 51
0.000000
  0
ARC
  8
0
 10
129.575958
 20
-97.817200
 40
3.899994
 50
0.000000
 51
180.000000
  0
ARC
  8
0
 10
129.575958
 20
-99.817200
 40
3.899994
 50
180.000000
 51
0.000000
  0
CIRCLE
  8
0
 10
129.575958
 20
-98.817200
 40
2.000000
  0
ARC
  8
0
 10
129.575958
 20
-108.217194
 40
3.899994
 50
0.000000
 51
180.000000
  0
ARC
  8
0
 10
129.575958
 20
-110.217194
 40
3.899994
 50
180.000000
 51
0.000000
  0
CIRCLE
  8
0
 10
129.575958
 20
-109.217194
 40
2.000000
  0
ARC
  8
0
 10
125.441986
 20
-77.017197
 40
0.500000
 50
90.000000
 51
150.000076
  0
ARC
  8
0
 10
133.709930
 20
-77.017197
 40
0.500001
 50
29.999931
 51
90.000000
  0
ARC
  8
0
 10
115.241974
 20
-77.017197
 40
0.500000
 50
90.000000
 51
150.000076
  0
ARC
  8
0
 10
123.509933
 20
-77.017197
 40
0.500001
 50
29.999931
 51
90.000000
  0
ARC
  8
0
 10
119.375946
 20
-97.817200
 40
3.899994
 50
0.000000
 51
180.000000
  0
ARC
  8
0
 10
119.375946
 20
-99.817200
 40
3.899994
 50
180.000000
 51
0.000000
  0
CIRCLE
  8
0
 10
119.375946
 20
-98.817200
 40
2.000000
  0
ARC
  8
0
 10
119.375946
 20
-108.217194
 40
3.899994
 50
0.000000
 51
180.000000
  0
CIRCLE
  8
0
 10
139.775940
 20
-109.217194
 40
2.000000
  0
ARC
  8
0
 10
139.775940
 20
-110.217194
 40
3.899994
 50
180.000000
 51
0.000000
  0
ARC
  8
0
 10
149.975952
 20
-97.817200
 40
3.899994
 50
0.000000
 51
180.000000
  0
ARC
  8
0
 10
149.975952
 20
-99.817200
 40
3.899994
 50
180.000000
 51
0.000000
  0
CIRCLE
  8
0
 10
149.975952
 20
-98.817200
 40
2.000000
  0
ARC
  8
0
 10
149.975952
 20
-108.217194
 40
3.899994
 50
0.000000
 51
180.000000
  0
ARC
  8
0
 10
149.975952
 20
-110.217194
 40
3.899994
 50
180.000000
 51
0.000000
  0
CIRCLE
  8
0
 10
149.975952
 20
-109.217194
 40
2.000000
  0
ARC
  8
0
 10
145.841980
 20
-77.017197
 40
0.500000
 50
90.000000
 51
150.000076
  0
ARC
  8
0
 10
154.109924
 20
-77.017197
 40
0.500001
 50
29.999931
 51
90.000000
  0
ARC
  8
0
 10
135.641968
 20
-77.017197
 40
0.500000
 50
90.000000
 51
150.000076
  0
ARC
  8
0
 10
143.909927
 20
-77.017197
 40
0.500001
 50
29.999931
 51
90.000000
  0
ARC
  8
0
 10
139.775940
 20
-97.817200
 40
3.899994
 50
0.000000
 51
180.000000
  0
ARC
  8
0
 10
139.775940
 20
-99.817200
 40
3.899994
 50
180.000000
 51
0.000000
  0
CIRCLE
  8
0
 10
139.775940
 20
-98.817200
 40
2.000000
  0
ARC
  8
0
 10
139.775940
 20
-108.217194
 40
3.899994
 50
0.000000
 51
180.000000
  0
ARC
  8
0
 10
160.175934
 20
-110.217194
 40
3.899994
 50
180.000000
 51
0.000000
  0
CIRCLE
  8
0
 10
160.175934
 20
-109.217194
 40
2.000000
  0
ARC
  8
0
 10
160.175934
 20
-97.817200
 40
3.899994
 50
0.000000
 51
180.000000
  0
ARC
  8
0
 10
160.175934
 20
-99.817200
 40
3.899994
 50
180.000000
 51
0.000000
  0
CIRCLE
  8
0
 10
160.175934
 20
-98.817200
 40
2.000000
  0
ARC
  8
0
 10
160.175934
 20
-108.217194
 40
3.899994
 50
0.000000
 51
180.000000
  0
ARC
  8
0
 10
170.375931
 20
-110.217194
 40
3.899994
 50
180.000000
 51
0.000000
  0
CIRCLE
  8
0
 10
170.375931
 20
-109.217194
 40
2.000000
  0
ARC
  8
0
 10
170.375931
 20
-97.817200
 40
3.899994
 50
0.000000
 51
180.000000
  0
ARC
  8
0
 10
170.375931
 20
-99.817200
 40
3.899994
 50
180.000000
 51
0.000000
  0
CIRCLE
  8
0
 10
170.375931
 20
-98.817200
 40
2.000000
  0
ARC
  8
0
 10
170.375931
 20
-108.217194
 40
3.899994
 50
0.000000
 51
180.000000
  0
CIRCLE
  8
0
 10
182.975937
 20
-84.517181
 40
3.500000
  0
CIRCLE
  8
0
 10
182.975937
 20
-84.517181
 40
7.000000
  0
TEXT
  8
0
 10
-52.902405
 20
-110.717194
 40
3.000000
  1
A
 50
0.000000
 41
1.052632
 51
0.000000
  7
STANDARD
  0
TEXT
  8
0
 10
-52.902405
 20
-100.717194
 40
3.000000
  1
B
 50
0.000000
 41
1.052632
 51
0.000000
  7
STANDARD
  0
TEXT
  8
0
 10
206.297485
 20
-110.717194
 40
3.000000
  1
A
 50
0.000000
 41
1.052632
 51
0.000000
  7
STANDARD
  0
TEXT
  8
0
 10
206.297485
 20
-100.717194
 40
3.000000
  1
B
 50
0.000000
 41
1.052632
 51
0.000000
  7
STANDARD
  0
POINT
  8
0
 10
-191.804077
 20
52.708344
  0
POINT
  8
0
 10
-145.804108
 20
52.708344
  0
LINE
  8
0
 10
-141.167923
 20
110.558365
 11
-137.945694
 21
110.558365
  0
LINE
  8
0
 10
-137.945648
 20
110.558197
 11
-135.338623
 21
111.436813
  0
LINE
  8
0
 10
-143.999237
 20
111.577751
 11
-143.434326
 21
108.096931
  0
LINE
  8
0
 10
-143.434418
 20
108.096893
 11
-138.934433
 21
108.096893
  0
LINE
  8
0
 10
-138.934402
 20
107.596924
 11
-138.934402
 21
108.096893
  0
LINE
  8
0
 10
-138.845093
 20
106.482864
 11
-139.169220
 21
106.655106
  0
LINE
  8
0
 10
-135.285706
 20
110.544510
 11
-135.054932
 21
110.544510
  0
LINE
  8
0
 10
-135.516479
 20
110.198380
 11
-135.285706
 21
110.198380
  0
LINE
  8
0
 10
-135.747238
 20
109.852219
 11
-135.516479
 21
109.852219
  0
LINE
  8
0
 10
-135.978012
 20
109.506073
 11
-135.747238
 21
109.506073
  0
LINE
  8
0
 10
-136.208786
 20
109.159912
 11
-135.978012
 21
109.159912
  0
LINE
  8
0
 10
-136.208755
 20
108.874329
 11
-136.208755
 21
109.159912
  0
LINE
  8
0
 10
-135.978012
 20
109.159927
 11
-135.978012
 21
109.506088
  0
LINE
  8
0
 10
-135.747223
 20
109.506088
 11
-135.747223
 21
109.852249
  0
LINE
  8
0
 10
-135.516464
 20
109.852249
 11
-135.516464
 21
110.198410
  0
LINE
  8
0
 10
-135.285690
 20
110.198410
 11
-135.285690
 21
110.544540
  0
LINE
  8
0
 10
-135.054916
 20
110.544540
 11
-135.054916
 21
110.719559
  0
LINE
  8
0
 10
-147.445633
 20
79.064423
 11
-147.445648
 21
106.352356
  0
LINE
  8
0
 10
-152.800140
 20
70.670731
 11
-141.167877
 21
74.858353
  0
LINE
  8
0
 10
-147.109283
 20
78.591820
 11
-143.434448
 21
77.319763
  0
LINE
  8
0
 10
-136.242386
 20
76.653381
 11
-137.543640
 21
78.605247
  0
LINE
  8
0
 10
-141.167877
 20
74.858353
 11
-137.945648
 21
74.858353
  0
LINE
  8
0
 10
-137.945557
 20
74.858582
 11
-135.338531
 21
73.979958
  0
LINE
  8
0
 10
-143.999084
 20
73.839035
 11
-143.434189
 21
77.319809
  0
LINE
  8
0
 10
-143.434372
 20
77.319839
 11
-138.934372
 21
77.319839
  0
LINE
  8
0
 10
-138.934357
 20
77.819870
 11
-138.934357
 21
77.319870
  0
LINE
  8
0
 10
-138.844894
 20
78.933701
 11
-139.169006
 21
78.761459
  0
LINE
  8
0
 10
-135.285660
 20
74.872208
 11
-135.054886
 21
74.872208
  0
LINE
  8
0
 10
-135.516418
 20
75.218353
 11
-135.285660
 21
75.218353
  0
LINE
  8
0
 10
-135.747177
 20
75.564514
 11
-135.516418
 21
75.564514
  0
LINE
  8
0
 10
-135.977966
 20
75.910660
 11
-135.747177
 21
75.910660
  0
LINE
  8
0
 10
-136.208725
 20
76.256821
 11
-135.977966
 21
76.256821
  0
LINE
  8
0
 10
-136.208710
 20
76.542435
 11
-136.208710
 21
76.256851
  0
LINE
  8
0
 10
-135.977951
 20
76.256866
 11
-135.977951
 21
75.910706
  0
LINE
  8
0
 10
-135.747162
 20
75.910706
 11
-135.747162
 21
75.564545
  0
LINE
  8
0
 10
-135.516418
 20
75.564545
 11
-135.516418
 21
75.218399
  0
LINE
  8
0
 10
-135.285629
 20
75.218399
 11
-135.285629
 21
74.872253
  0
LINE
  8
0
 10
-135.054871
 20
74.872253
 11
-135.054871
 21
74.697235
  0
LINE
  8
0
 10
-136.242264
 20
108.763351
 11
-137.543533
 21
106.811440
  0
LINE
  8
0
 10
-152.804123
 20
114.747498
 11
-141.167770
 21
110.558418
  0
LINE
  8
0
 10
-147.109192
 20
106.824593
 11
-143.434296
 21
108.096680
  0
LINE
  8
0
 10
-157.304108
 20
122.708359
 11
-157.304092
 21
67.708359
  0
LINE
  8
0
 10
-159.304108
 20
122.708351
 11
-159.304092
 21
67.708359
  0
LINE
  8
0
 10
-167.804108
 20
122.708351
 11
-167.804092
 21
52.708336
  0
LINE
  8
0
 10
-166.304108
 20
122.708351
 11
-166.304092
 21
52.708336
  0
LINE
  8
0
 10
-164.304108
 20
122.708351
 11
-164.304092
 21
52.708336
  0
LINE
  8
0
 10
-162.804108
 20
122.708351
 11
-162.804092
 21
52.708347
  0
LINE
  8
0
 10
-160.804108
 20
122.708351
 11
-160.804092
 21
52.708363
  0
LINE
  8
0
 10
-152.804169
 20
122.708344
 11
-157.304169
 21
122.708336
  0
LINE
  8
0
 10
-154.804108
 20
122.708359
 11
-154.804092
 21
67.708366
  0
LINE
  8
0
 10
-154.804108
 20
67.708344
 11
-159.304108
 21
67.708336
  0
LINE
  8
0
 10
-158.804092
 20
67.708359
 11
-158.804092
 21
52.708363
  0
LINE
  8
0
 10
-158.804077
 20
52.708340
 11
-164.304077
 21
52.708336
  0
LINE
  8
0
 10
-167.804077
 20
53.008339
 11
-169.804077
 21
53.008339
  0
LINE
  8
0
 10
-164.304077
 20
53.008339
 11
-166.304077
 21
53.008339
  0
LINE
  8
0
 10
-166.304077
 20
52.708336
 11
-167.804077
 21
52.708336
  0
LINE
  8
0
 10
-157.304169
 20
122.408333
 11
-159.304169
 21
122.408333
  0
LINE
  8
0
 10
-160.804169
 20
122.408333
 11
-162.804169
 21
122.408333
  0
LINE
  8
0
 10
-164.304169
 20
122.408333
 11
-166.304169
 21
122.408333
  0
LINE
  8
0
 10
-167.804169
 20
122.408333
 11
-169.804169
 21
122.408333
  0
LINE
  8
0
 10
-159.304169
 20
122.708336
 11
-160.804169
 21
122.708336
  0
LINE
  8
0
 10
-162.804169
 20
122.708336
 11
-164.304169
 21
122.708336
  0
LINE
  8
0
 10
-166.304169
 20
122.708336
 11
-167.804169
 21
122.708336
  0
LINE
  8
0
 10
-152.804108
 20
122.708359
 11
-152.804092
 21
67.708366
  0
LINE
  8
0
 10
-147.304077
 20
52.708344
 11
-158.804077
 21
52.708340
  0
LINE
  8
0
 10
-145.804123
 20
67.708344
 11
-152.804108
 21
67.708344
  0
LINE
  8
0
 10
-145.804108
 20
67.708374
 11
-145.804108
 21
54.208374
  0
LINE
  8
0
 10
-145.804108
 20
54.458374
 11
-145.804108
 21
54.208374
  0
LINE
  8
0
 10
-191.804108
 20
122.708359
 11
-191.804092
 21
112.708359
  0
LINE
  8
0
 10
-169.304077
 20
111.842339
 11
-169.304062
 21
63.574394
  0
LINE
  8
0
 10
-170.104095
 20
122.708366
 11
-191.804108
 21
122.708359
  0
LINE
  8
0
 10
-169.804077
 20
52.708351
 11
-191.804062
 21
52.708344
  0
LINE
  8
0
 10
-190.804062
 20
62.708344
 11
-191.804062
 21
62.708344
  0
LINE
  8
0
 10
-190.804092
 20
112.708344
 11
-191.804092
 21
112.708344
  0
LINE
  8
0
 10
-191.804077
 20
62.708344
 11
-191.804077
 21
52.708344
  0
LINE
  8
0
 10
-190.804092
 20
112.708359
 11
-190.804077
 21
62.708344
  0
LINE
  8
0
 10
-169.804108
 20
122.408363
 11
-169.804092
 21
112.708366
  0
LINE
  8
0
 10
-169.804108
 20
62.708374
 11
-169.304108
 21
63.574406
  0
LINE
  8
0
 10
-169.804031
 20
112.708389
 11
-169.304047
 21
111.842361
  0
LINE
  8
0
 10
-169.804077
 20
62.708366
 11
-169.804077
 21
52.708351
  0
LINE
  8
0
 10
-170.104126
 20
122.708351
 11
-169.804108
 21
122.408333
  0
LINE
  8
0
 10
-188.006882
 20
119.208359
 11
-193.036652
 21
119.208359
  0
LINE
  8
0
 10
-189.304092
 20
117.508347
 11
-191.804092
 21
117.508347
  0
LINE
  8
0
 10
-189.304092
 20
120.908356
 11
-191.804092
 21
120.908356
  0
LINE
  8
0
 10
-189.304092
 20
120.908356
 11
-189.304092
 21
117.508362
  0
LINE
  8
0
 10
-189.304062
 20
57.908340
 11
-191.804062
 21
57.908340
  0
LINE
  8
0
 10
-188.006851
 20
56.208344
 11
-193.036621
 21
56.208344
  0
LINE
  8
0
 10
-189.304077
 20
54.508347
 11
-189.304077
 21
57.908340
  0
LINE
  8
0
 10
-189.304062
 20
54.508347
 11
-191.804062
 21
54.508347
  0
LINE
  8
0
 10
-141.165878
 20
104.059067
 11
-137.943649
 21
104.059067
  0
LINE
  8
0
 10
-137.943634
 20
104.058945
 11
-135.336609
 21
104.937561
  0
LINE
  8
0
 10
-143.997238
 20
105.078346
 11
-143.432343
 21
101.597549
  0
LINE
  8
0
 10
-143.432373
 20
101.597610
 11
-138.932388
 21
101.597610
  0
LINE
  8
0
 10
-138.932449
 20
101.097549
 11
-138.932449
 21
101.597519
  0
LINE
  8
0
 10
-138.843140
 20
99.983368
 11
-139.167267
 21
100.155609
  0
LINE
  8
0
 10
-135.283661
 20
104.045212
 11
-135.052887
 21
104.045212
  0
LINE
  8
0
 10
-135.514435
 20
103.699081
 11
-135.283661
 21
103.699081
  0
LINE
  8
0
 10
-135.745193
 20
103.352921
 11
-135.514435
 21
103.352921
  0
LINE
  8
0
 10
-135.975967
 20
103.006790
 11
-135.745193
 21
103.006790
  0
LINE
  8
0
 10
-136.206741
 20
102.660629
 11
-135.975967
 21
102.660629
  0
LINE
  8
0
 10
-136.206802
 20
102.374954
 11
-136.206802
 21
102.660538
  0
LINE
  8
0
 10
-135.976059
 20
102.660538
 11
-135.976059
 21
103.006699
  0
LINE
  8
0
 10
-135.745285
 20
103.006699
 11
-135.745285
 21
103.352890
  0
LINE
  8
0
 10
-135.514511
 20
103.352890
 11
-135.514511
 21
103.699051
  0
LINE
  8
0
 10
-135.283737
 20
103.699051
 11
-135.283737
 21
104.045181
  0
LINE
  8
0
 10
-135.052963
 20
104.045181
 11
-135.052963
 21
104.220200
  0
LINE
  8
0
 10
-147.445602
 20
79.098122
 11
-141.165802
 21
81.358841
  0
LINE
  8
0
 10
-147.107300
 20
85.092468
 11
-143.432480
 21
83.820412
  0
LINE
  8
0
 10
-136.240372
 20
83.154022
 11
-137.541626
 21
85.105896
  0
LINE
  8
0
 10
-141.165863
 20
81.359085
 11
-137.943634
 21
81.359085
  0
LINE
  8
0
 10
-137.943573
 20
81.359299
 11
-135.336548
 21
80.480682
  0
LINE
  8
0
 10
-143.997162
 20
80.339706
 11
-143.432281
 21
83.820488
  0
LINE
  8
0
 10
-143.432373
 20
83.820541
 11
-138.932373
 21
83.820541
  0
LINE
  8
0
 10
-138.932419
 20
84.320511
 11
-138.932419
 21
83.820511
  0
LINE
  8
0
 10
-138.843063
 20
85.434647
 11
-139.167160
 21
85.262405
  0
LINE
  8
0
 10
-135.283661
 20
81.372940
 11
-135.052887
 21
81.372940
  0
LINE
  8
0
 10
-135.514435
 20
81.719070
 11
-135.283661
 21
81.719070
  0
LINE
  8
0
 10
-135.745178
 20
82.065231
 11
-135.514435
 21
82.065231
  0
LINE
  8
0
 10
-135.975983
 20
82.411392
 11
-135.745178
 21
82.411392
  0
LINE
  8
0
 10
-136.206726
 20
82.757553
 11
-135.975983
 21
82.757553
  0
LINE
  8
0
 10
-136.206772
 20
83.043076
 11
-136.206772
 21
82.757492
  0
LINE
  8
0
 10
-135.976028
 20
82.757492
 11
-135.976028
 21
82.411331
  0
LINE
  8
0
 10
-135.745224
 20
82.411331
 11
-135.745224
 21
82.065170
  0
LINE
  8
0
 10
-135.514481
 20
82.065170
 11
-135.514481
 21
81.719025
  0
LINE
  8
0
 10
-135.283707
 20
81.719025
 11
-135.283691
 21
81.372879
  0
LINE
  8
0
 10
-135.052917
 20
81.372879
 11
-135.052917
 21
81.197861
  0
LINE
  8
0
 10
-136.240326
 20
102.263969
 11
-137.541580
 21
100.312073
  0
LINE
  8
0
 10
-147.445618
 20
106.319901
 11
-141.165695
 21
104.059128
  0
LINE
  8
0
 10
-147.107117
 20
100.325256
 11
-143.431946
 21
101.597443
  0
LINE
  8
0
 10
-151.804077
 20
69.208344
 11
-152.804077
 21
69.208344
  0
LINE
  8
0
 10
-151.804138
 20
122.208359
 11
-152.804138
 21
122.208359
  0
LINE
  8
0
 10
-145.804123
 20
114.858353
 11
-151.804108
 21
114.858353
  0
LINE
  8
0
 10
-146.804108
 20
116.458359
 11
-146.804108
 21
121.958359
  0
LINE
  8
0
 10
-151.804077
 20
69.032936
 11
-151.804077
 21
71.029305
  0
LINE
  8
0
 10
-147.049744
 20
116.032928
 11
-151.804138
 21
116.032928
  0
LINE
  8
0
 10
-147.049744
 20
117.620651
 11
-151.804138
 21
117.620651
  0
LINE
  8
0
 10
-147.049744
 20
120.796066
 11
-151.804138
 21
120.796066
  0
LINE
  8
0
 10
-147.049744
 20
122.383789
 11
-151.804138
 21
122.383789
  0
LINE
  8
0
 10
-146.804153
 20
116.458389
 11
-147.049774
 21
116.032959
  0
LINE
  8
0
 10
-146.804138
 20
121.958397
 11
-147.049759
 21
122.383827
  0
LINE
  8
0
 10
-146.804077
 20
69.458366
 11
-146.804077
 21
72.829308
  0
LINE
  8
0
 10
-147.049698
 20
69.032913
 11
-151.804077
 21
69.032913
  0
LINE
  8
0
 10
-147.049713
 20
70.620636
 11
-151.804077
 21
70.620636
  0
LINE
  8
0
 10
-146.804077
 20
69.458382
 11
-147.049713
 21
69.032951
  0
LINE
  8
0
 10
-145.804077
 20
78.139999
 11
-145.804077
 21
79.689133
  0
LINE
  8
0
 10
-145.804092
 20
112.227463
 11
-145.804092
 21
114.858353
  0
LINE
  8
0
 10
-145.804092
 20
84.641342
 11
-145.804092
 21
100.776382
  0
LINE
  8
0
 10
-145.804092
 20
105.728912
 11
-145.804092
 21
107.276428
  0
LINE
  8
0
 10
-151.804092
 20
114.387451
 11
-151.804108
 21
122.383804
  0
LINE
  8
0
 10
-141.704178
 20
112.538345
 11
-145.804092
 21
112.538345
  0
LINE
  8
0
 10
-142.704102
 20
112.538406
 11
-142.704102
 21
111.218399
  0
LINE
  8
0
 10
-142.704178
 20
111.218338
 11
-143.000977
 21
111.218338
  0
LINE
  8
0
 10
-142.704102
 20
66.818352
 11
-145.804108
 21
66.818352
  0
LINE
  8
0
 10
-142.704102
 20
65.498360
 11
-145.804108
 21
65.498360
  0
LINE
  8
0
 10
-142.704086
 20
66.818398
 11
-142.704086
 21
65.498390
  0
LINE
  8
0
 10
-142.704163
 20
104.918350
 11
-143.552521
 21
104.918350
  0
LINE
  8
0
 10
-142.704102
 20
104.918411
 11
-142.704102
 21
104.612930
  0
LINE
  8
0
 10
-142.704147
 20
97.298355
 11
-145.804092
 21
97.298355
  0
LINE
  8
0
 10
-142.704147
 20
95.978348
 11
-145.804092
 21
95.978348
  0
LINE
  8
0
 10
-142.704102
 20
97.298386
 11
-142.704102
 21
95.978409
  0
LINE
  8
0
 10
-142.704147
 20
89.678360
 11
-145.804092
 21
89.678360
  0
LINE
  8
0
 10
-142.704147
 20
88.358353
 11
-145.804092
 21
88.358353
  0
LINE
  8
0
 10
-142.704102
 20
89.678391
 11
-142.704102
 21
88.358383
  0
LINE
  8
0
 10
-142.704117
 20
80.738358
 11
-142.889587
 21
80.738358
  0
LINE
  8
0
 10
-142.704102
 20
80.805130
 11
-142.704102
 21
80.738388
  0
LINE
  8
0
 10
-142.704102
 20
73.118355
 11
-146.001175
 21
73.118355
  0
LINE
  8
0
 10
-142.704102
 20
74.305305
 11
-142.704102
 21
73.118401
  0
LINE
  8
0
 10
-141.704071
 20
57.878349
 11
-145.804108
 21
57.878349
  0
LINE
  8
0
 10
-142.704086
 20
59.198357
 11
-145.804108
 21
59.198357
  0
LINE
  8
0
 10
-142.704086
 20
59.198402
 11
-142.704086
 21
57.878395
  0
LINE
  8
0
 10
-145.432251
 20
59.548347
 11
-145.804108
 21
59.548347
  0
LINE
  8
0
 10
-145.432266
 20
65.148354
 11
-145.804108
 21
65.148354
  0
LINE
  8
0
 10
-145.432312
 20
97.648361
 11
-145.804092
 21
97.648361
  0
LINE
  8
0
 10
-145.432312
 20
90.028336
 11
-145.804092
 21
90.028336
  0
LINE
  8
0
 10
-145.432312
 20
95.628342
 11
-145.804092
 21
95.628342
  0
LINE
  8
0
 10
-145.432312
 20
88.008347
 11
-145.804092
 21
88.008347
  0
LINE
  8
0
 10
-147.104080
 20
69.032913
 11
-147.104080
 21
67.708344
  0
LINE
  8
0
 10
-146.604080
 20
67.708344
 11
-146.604095
 21
72.768387
  0
LINE
  8
0
 10
-146.604095
 20
72.468361
 11
-146.804077
 21
72.468361
  0
LINE
  8
0
 10
-145.432266
 20
67.168358
 11
-145.804108
 21
67.168358
  0
LINE
  8
0
 10
-145.432281
 20
72.768364
 11
-146.604095
 21
72.768364
  0
LINE
  8
0
 10
-141.704102
 20
112.538406
 11
-141.704102
 21
110.751465
  0
LINE
  8
0
 10
-143.704102
 20
112.538406
 11
-143.704102
 21
111.471466
  0
LINE
  8
0
 10
-147.904083
 20
69.032913
 11
-147.904083
 21
67.708344
  0
LINE
  8
0
 10
-141.704102
 20
108.096893
 11
-141.704102
 21
104.252930
  0
LINE
  8
0
 10
-141.704102
 20
102.429886
 11
-141.704102
 21
83.820541
  0
LINE
  8
0
 10
-143.704102
 20
108.003357
 11
-143.704102
 21
104.972916
  0
LINE
  8
0
 10
-143.704102
 20
101.503311
 11
-143.704102
 21
83.914429
  0
LINE
  8
0
 10
-143.704102
 20
80.445129
 11
-143.704102
 21
77.413078
  0
LINE
  8
0
 10
-141.704102
 20
81.165131
 11
-141.704102
 21
77.319839
  0
LINE
  8
0
 10
-141.704102
 20
74.665306
 11
-141.704086
 21
57.878395
  0
LINE
  8
0
 10
-143.704102
 20
73.945305
 11
-143.704086
 21
57.878395
  0
LINE
  8
0
 10
-175.104095
 20
53.208256
 11
-175.104095
 21
43.693367
  0
LINE
  8
0
 10
-170.204071
 20
44.708351
 11
-180.004059
 21
44.708347
  0
LINE
  8
0
 10
-170.204102
 20
45.908363
 11
-170.204102
 21
44.708366
  0
LINE
  8
0
 10
-180.004089
 20
45.908344
 11
-180.004089
 21
44.708347
  0
LINE
  8
0
 10
-170.204071
 20
45.908348
 11
-180.004059
 21
45.908344
  0
LINE
  8
0
 10
-177.604095
 20
47.354908
 11
-177.604095
 21
45.908344
  0
LINE
  8
0
 10
-172.604095
 20
47.354912
 11
-172.604095
 21
45.908348
  0
LINE
  8
0
 10
-180.104095
 20
52.708347
 11
-180.104095
 21
47.354923
  0
LINE
  8
0
 10
-170.104095
 20
52.708351
 11
-170.104095
 21
47.354912
  0
LINE
  8
0
 10
-170.104065
 20
47.354912
 11
-180.104065
 21
47.354908
  0
LINE
  8
0
 10
-185.504089
 20
53.208256
 11
-185.504089
 21
43.693359
  0
LINE
  8
0
 10
-180.604065
 20
44.708347
 11
-190.404083
 21
44.708344
  0
LINE
  8
0
 10
-180.604095
 20
45.908344
 11
-180.604095
 21
44.708347
  0
LINE
  8
0
 10
-190.404114
 20
45.908340
 11
-190.404114
 21
44.708344
  0
LINE
  8
0
 10
-180.604065
 20
45.908344
 11
-190.404083
 21
45.908340
  0
LINE
  8
0
 10
-188.004089
 20
47.354904
 11
-188.004089
 21
45.908340
  0
LINE
  8
0
 10
-183.004089
 20
47.354908
 11
-183.004089
 21
45.908344
  0
LINE
  8
0
 10
-190.504089
 20
52.708328
 11
-190.504089
 21
47.354904
  0
LINE
  8
0
 10
-180.504089
 20
52.708347
 11
-180.504089
 21
47.354908
  0
LINE
  8
0
 10
-180.504059
 20
47.354908
 11
-190.504089
 21
47.354904
  0
LINE
  8
0
 10
-156.762634
 20
52.708340
 11
-156.762634
 21
50.352215
  0
LINE
  8
0
 10
-167.688843
 20
49.708351
 11
-153.919312
 21
49.708355
  0
LINE
  8
0
 10
-152.804092
 20
50.352215
 11
-152.804092
 21
52.708340
  0
LINE
  8
0
 10
-168.804077
 20
50.352226
 11
-168.804077
 21
53.008339
  0
LINE
  8
0
 10
-153.919281
 20
49.708347
 11
-152.804062
 21
50.352226
  0
LINE
  8
0
 10
-167.688889
 20
49.708347
 11
-168.804123
 21
50.352222
  0
LINE
  8
0
 10
-164.845535
 20
53.008339
 11
-164.845535
 21
50.352226
  0
LINE
  8
0
 10
-160.804077
 20
57.708355
 11
-160.804077
 21
48.208355
  0
ARC
  8
0
 10
-134.854935
 20
110.719559
 40
0.200003
 50
111.900436
 51
180.000000
  0
ARC
  8
0
 10
-135.208313
 20
111.050247
 40
0.408141
 50
11.205750
 51
108.625626
  0
ARC
  8
0
 10
-136.408798
 20
108.874329
 40
0.199997
 50
326.312347
 51
0.000000
  0
CIRCLE
  8
0
 10
-147.804077
 20
55.208374
 40
0.750000
  0
CIRCLE
  8
0
 10
-147.804108
 20
65.208374
 40
0.800000
  0
ARC
  8
0
 10
-147.304077
 20
54.208374
 40
1.500000
 50
270.000000
 51
0.000000
  0
ARC
  8
0
 10
-138.934372
 20
78.319870
 40
0.500001
 50
117.986809
 51
270.000000
  0
ARC
  8
0
 10
-135.004059
 20
74.326080
 40
0.199995
 50
348.794647
 51
68.103615
  0
ARC
  8
0
 10
-135.208252
 20
74.366531
 40
0.408141
 50
251.374023
 51
348.796356
  0
ARC
  8
0
 10
-138.375687
 20
107.366211
 40
0.999995
 50
242.012009
 51
326.309692
  0
ARC
  8
0
 10
-138.934433
 20
107.096893
 40
0.500000
 50
90.000000
 51
242.011230
  0
ARC
  8
0
 10
-135.004135
 20
111.090714
 40
0.199996
 50
291.901245
 51
11.205340
  0
ARC
  8
0
 10
-146.945679
 20
106.352356
 40
0.499997
 50
109.094063
 51
180.000000
  0
ARC
  8
0
 10
-146.945648
 20
79.064423
 40
0.500000
 50
180.000000
 51
250.905930
  0
ARC
  8
0
 10
-138.375626
 20
78.050598
 40
0.999998
 50
33.690311
 51
117.987785
  0
ARC
  8
0
 10
-136.408737
 20
76.542435
 40
0.199997
 50
0.000000
 51
33.691280
  0
ARC
  8
0
 10
-134.854858
 20
74.697220
 40
0.200012
 50
180.000000
 51
248.094696
  0
ARC
  8
0
 10
-146.943649
 20
85.565063
 40
0.500000
 50
180.000000
 51
250.905930
  0
ARC
  8
0
 10
-135.002075
 20
104.591324
 40
0.199996
 50
291.901245
 51
11.205340
  0
ARC
  8
0
 10
-134.852875
 20
81.197861
 40
0.199997
 50
180.000000
 51
248.098740
  0
ARC
  8
0
 10
-136.406723
 20
83.043076
 40
0.199997
 50
0.000000
 51
33.691280
  0
ARC
  8
0
 10
-138.373611
 20
84.551224
 40
0.999998
 50
33.690311
 51
117.987579
  0
ARC
  8
0
 10
-146.943634
 20
99.852997
 40
0.499992
 50
109.092415
 51
180.000000
  0
ARC
  8
0
 10
-135.206268
 20
104.550858
 40
0.408141
 50
11.205750
 51
108.625626
  0
ARC
  8
0
 10
-134.852875
 20
104.220169
 40
0.200003
 50
111.900436
 51
180.000000
  0
ARC
  8
0
 10
-136.406754
 20
102.374954
 40
0.199997
 50
326.312347
 51
0.000000
  0
ARC
  8
0
 10
-138.932358
 20
84.820496
 40
0.500001
 50
117.986809
 51
270.000000
  0
ARC
  8
0
 10
-135.002075
 20
80.826721
 40
0.199995
 50
348.794647
 51
68.099564
  0
ARC
  8
0
 10
-135.206268
 20
80.867172
 40
0.408137
 50
251.376053
 51
348.796356
  0
ARC
  8
0
 10
-138.373657
 20
100.866837
 40
0.999988
 50
242.012787
 51
326.310181
  0
ARC
  8
0
 10
-138.932404
 20
100.597519
 40
0.500000
 50
90.000000
 51
242.012787
  0
ARC
  8
0
 10
-190.504120
 20
94.908325
 40
0.299997
 50
109.472687
 51
180.000000
  0
ARC
  8
0
 10
-152.058502
 20
119.208359
 40
5.254377
 50
342.412109
 51
17.587978
  0
ARC
  8
0
 10
-148.209839
 20
116.826797
 40
1.405706
 50
334.384552
 51
34.383858
  0
ARC
  8
0
 10
-148.209839
 20
121.589951
 40
1.405686
 50
325.615448
 51
25.615988
  0
ARC
  8
0
 10
-152.058472
 20
72.208366
 40
5.254392
 50
342.412140
 51
6.647183
  0
ARC
  8
0
 10
-148.209793
 20
69.826805
 40
1.405709
 50
334.384277
 51
34.384209
  0
ARC
  8
0
 10
-145.432266
 20
67.835052
 40
0.666664
 50
270.000000
 51
330.507721
  0
ARC
  8
0
 10
-149.204102
 20
77.588394
 40
5.000000
 50
359.974304
 51
29.492359
  0
ARC
  8
0
 10
-149.204102
 20
69.968384
 40
5.000002
 50
330.507721
 51
29.492359
  0
ARC
  8
0
 10
-145.432281
 20
72.101715
 40
0.666661
 50
29.492270
 51
90.000000
  0
ARC
  8
0
 10
-149.204071
 20
62.348389
 40
5.000004
 50
330.507690
 51
29.492359
  0
ARC
  8
0
 10
-145.432266
 20
60.215057
 40
0.666668
 50
270.000000
 51
330.507446
  0
ARC
  8
0
 10
-145.432266
 20
64.481720
 40
0.666661
 50
29.492270
 51
90.000000
  0
ARC
  8
0
 10
-149.204147
 20
108.068390
 40
4.999989
 50
330.507629
 51
357.247284
  0
ARC
  8
0
 10
-145.432327
 20
105.935059
 40
0.666661
 50
311.527893
 51
330.507721
  0
ARC
  8
0
 10
-149.204147
 20
100.448380
 40
5.000002
 50
330.507721
 51
9.860654
  0
ARC
  8
0
 10
-145.432312
 20
98.315048
 40
0.666672
 50
270.000000
 51
330.507721
  0
ARC
  8
0
 10
-149.204132
 20
92.828384
 40
5.000002
 50
330.507721
 51
29.492283
  0
ARC
  8
0
 10
-145.432312
 20
90.695053
 40
0.666672
 50
270.000000
 51
330.508362
  0
ARC
  8
0
 10
-145.432312
 20
94.961716
 40
0.666661
 50
29.492270
 51
90.000000
  0
ARC
  8
0
 10
-149.204132
 20
85.208389
 40
4.999995
 50
347.525574
 51
29.492283
  0
ARC
  8
0
 10
-145.432297
 20
87.341721
 40
0.666661
 50
29.492270
 51
90.000000
  0
ARC
  8
0
 10
-153.304108
 20
118.601242
 40
0.500000
 50
0.000000
 51
45.000618
  0
ARC
  8
0
 10
-153.304108
 20
98.515472
 40
0.500001
 50
314.998749
 51
0.000000
  0
ARC
  8
0
 10
-154.803879
 20
53.009617
 40
3.301274
 50
233.606430
 51
300.000214
  0
ARC
  8
0
 10
-160.804077
 20
62.713779
 40
13.005440
 50
251.895477
 51
288.104523
  0
ARC
  8
0
 10
-166.804276
 20
53.009613
 40
3.301272
 50
240.000015
 51
306.393616
  0
LINE
  8
0
 10
-40.223980
 20
-58.517204
 11
-34.450478
 21
-48.517208
  0
LINE
  8
0
 10
-40.223980
 20
-58.517204
 11
-38.102661
 21
-56.395885
  0
LINE
  8
0
 10
-40.223980
 20
-58.517204
 11
-39.447521
 21
-55.619427
  0
LINE
  8
0
 10
-25.223999
 20
-58.517212
 11
-19.450502
 21
-48.517212
  0
LINE
  8
0
 10
-25.223999
 20
-58.517212
 11
-23.102680
 21
-56.395889
  0
LINE
  8
0
 10
-25.223999
 20
-58.517212
 11
-24.447544
 21
-55.619434
  0
LINE
  8
0
 10
-10.224021
 20
-69.517250
 11
1.900343
 21
-48.517242
  0
LINE
  8
0
 10
-10.224021
 20
-69.517250
 11
-8.102700
 21
-67.395927
  0
LINE
  8
0
 10
-10.224021
 20
-69.517250
 11
-9.447563
 21
-66.619476
  0
LINE
  8
0
 10
4.776003
 20
-65.517220
 11
14.590959
 21
-48.517216
  0
LINE
  8
0
 10
4.776003
 20
-65.517220
 11
6.897324
 21
-63.395901
  0
LINE
  8
0
 10
4.776003
 20
-65.517220
 11
5.552461
 21
-62.619442
  0
LINE
  8
0
 10
27.576006
 20
-76.517242
 11
43.741821
 21
-48.517231
  0
LINE
  8
0
 10
27.576006
 20
-76.517242
 11
29.697327
 21
-74.395920
  0
LINE
  8
0
 10
27.576006
 20
-76.517242
 11
28.352463
 21
-73.619469
  0
LINE
  8
0
 10
109.175980
 20
-76.517204
 11
125.341766
 21
-48.517231
  0
LINE
  8
0
 10
109.175980
 20
-76.517204
 11
111.297302
 21
-74.395882
  0
LINE
  8
0
 10
109.175980
 20
-76.517204
 11
109.952438
 21
-73.619431
  0
LINE
  8
0
 10
160.175980
 20
-91.917183
 11
185.232971
 21
-48.517193
  0
LINE
  8
0
 10
160.175980
 20
-91.917183
 11
162.297302
 21
-89.795860
  0
LINE
  8
0
 10
160.175980
 20
-91.917183
 11
160.952438
 21
-89.019409
  0
LINE
  8
0
 10
197.976135
 20
-76.517303
 11
214.141953
 21
-48.517303
  0
LINE
  8
0
 10
197.976135
 20
-76.517303
 11
200.097458
 21
-74.395981
  0
LINE
  8
0
 10
197.976135
 20
-76.517303
 11
198.752594
 21
-73.619530
  0
LINE
  8
0
 10
182.975922
 20
-76.517174
 11
199.141739
 21
-48.517185
  0
LINE
  8
0
 10
182.975922
 20
-76.517174
 11
185.097244
 21
-74.395851
  0
LINE
  8
0
 10
182.975922
 20
-76.517174
 11
183.752380
 21
-73.619400
  0
LINE
  8
0
 10
17.375973
 20
-76.517212
 11
33.541782
 21
-48.517208
  0
LINE
  8
0
 10
17.375973
 20
-76.517212
 11
19.497293
 21
-74.395889
  0
LINE
  8
0
 10
17.375973
 20
-76.517212
 11
18.152430
 21
-73.619438
  0
ENDSEC
  0
EOF
