  0
SECTION
  2
HEADER
  0
ENDSEC
  0
SECTION
  2
TABLES
  0
TABLE
  2
LTYPE
 70
     4
  0
LTYPE
  2
CONTINUOUS
 70
    64
  3
Solid line
 72
    65
 73
     0
 40
0.000000
  0
LTYPE
  2
DASHED
 70
    64
  3
__ __ __ __ __ __ __ __ __ __ __ __ __ __ __
 72
    65
 73
     2
 40
3.500000
 49
2.000000
 49
-1.500000
  0
LTYPE
  2
CENTER
 70
    64
  3
____ _ ____ _ ____ _ ____ _ ____ _ ____ _ ____
 72
    65
 73
     4
 40
17.500000
 49
13.000000
 49
-1.500000
 49
1.500000
 49
-1.500000
  0
LTYPE
  2
PHANTOM
 70
    64
  3
_____ _ _ _____ _ _ _____ _ _ _____ _ _ ____  
 72
    65
 73
     6
 40
15.500000
 49
8.000000
 49
-1.500000
 49
1.500000
 49
-1.500000
 49
1.500000
 49
-1.500000
  0
LTYPE
  2
DASHED1
 70
    64
  3
__ __ __ __ __ __ __ __ __ __ __ __ __ __ __
 72
    65
 73
     2
 40
1.500000
 49
1.000000
 49
-0.500000
  0
LTYPE
  2
DASHED2
 70
    64
  3
__ __ __ __ __ __ __ __ __ __ __ __ __ __ __
 72
    65
 73
     2
 40
3.500000
 49
2.500000
 49
-1.000000
  0
LTYPE
  2
DASHED3
 70
    64
  3
__ __ __ __ __ __ __ __ __ __ __ __ __ __ __
 72
    65
 73
     2
 40
6.000000
 49
4.000000
 49
-2.000000
  0
LTYPE
  2
DASHED4
 70
    64
  3
__ __ __ __ __ __ __ __ __ __ __ __ __ __ __
 72
    65
 73
     2
 40
12.000000
 49
10.000000
 49
-2.000000
  0
LTYPE
  2
DASHED5
 70
    64
  3
__ __ __ __ __ __ __ __ __ __ __ __ __ __ __
 72
    65
 73
     2
 40
17.000000
 49
15.000000
 49
-2.000000
  0
LTYPE
  2
DASHED6
 70
    64
  3
__ __ __ __ __ __ __ __ __ __ __ __ __ __ __
 72
    65
 73
     2
 40
29.000000
 49
27.000000
 49
-2.000000
  0
LTYPE
  2
PHANTOM1
 70
    64
  3
_____ _ _ _____ _ _ _____ _ _ _____ _ _ ____  
 72
    65
 73
     6
 40
31.000000
 49
25.000000
 49
-1.500000
 49
1.000000
 49
-1.000000
 49
1.000000
 49
-1.500000
  0
LTYPE
  2
PHANTOM2
 70
    64
  3
_____ _ _ _____ _ _ _____ _ _ _____ _ _ ____  
 72
    65
 73
     6
 40
36.000000
 49
27.000000
 49
-1.500000
 49
2.500000
 49
-1.000000
 49
2.500000
 49
-1.500000
  0
LTYPE
  2
PHANTOM3
 70
    64
  3
_____ _ _ _____ _ _ _____ _ _ _____ _ _ ____  
 72
    65
 73
     6
 40
78.000000
 49
64.000000
 49
-2.000000
 49
4.000000
 49
-2.000000
 49
4.000000
 49
-2.000000
  0
LTYPE
  2
CENTER1
 70
    64
  3
____ _ ____ _ ____ _ ____ _ ____ _ ____ _ ____
 72
    65
 73
     4
 40
19.000000
 49
14.000000
 49
-1.000000
 49
3.000000
 49
-1.000000
  0
LTYPE
  2
CENTER2
 70
    64
  3
____ _ ____ _ ____ _ ____ _ ____ _ ____ _ ____
 72
    65
 73
     4
 40
28.500000
 49
25.000000
 49
-1.000000
 49
1.500000
 49
-1.000000
  0
LTYPE
  2
CENTER3
 70
    64
  3
____ _ ____ _ ____ _ ____ _ ____ _ ____ _ ____
 72
    65
 73
     4
 40
31.500000
 49
27.000000
 49
-1.000000
 49
2.500000
 49
-1.000000
  0
LTYPE
  2
CENTER4
 70
    64
  3
____ _ ____ _ ____ _ ____ _ ____ _ ____ _ ____
 72
    65
 73
     4
 40
50.000000
 49
45.000000
 49
-1.000000
 49
3.000000
 49
-1.000000
  0
LTYPE
  2
CENTER5
 70
    64
  3
____ _ ____ _ ____ _ ____ _ ____ _ ____ _ ____
 72
    65
 73
     4
 40
100.000000
 49
92.000000
 49
-2.000000
 49
4.000000
 49
-2.000000
  0
LTYPE
  2
SBK1
 70
    64
  3
______ _ _ _ ______ _ _ _ ______ _ _ _ _____  
 72
    65
 73
     8
 40
60.500000
 49
45.000000
 49
-2.000000
 49
2.500000
 49
-2.000000
 49
2.500000
 49
-2.000000
 49
2.500000
 49
-2.000000
  0
LTYPE
  2
SBK2
 70
    64
  3
______ _ _ _ ______ _ _ _ ______ _ _ _ _____  
 72
    65
 73
     8
 40
84.000000
 49
64.000000
 49
-2.000000
 49
4.000000
 49
-2.000000
 49
4.000000
 49
-2.000000
 49
4.000000
 49
-2.000000
  0
LTYPE
  2
STCH
 70
    64
  3
__ __ __ __ __ __ __ __ __ __ __ __ __ __ __
 72
    65
 73
     2
 40
3.000000
 49
1.000000
 49
-2.000000
  0
LTYPE
  2
MTCH
 70
    64
  3
_____ _ _ _____ _ _ _____ _ _ _____ _ _ ____  
 72
    65
 73
     6
 40
80.000000
 49
66.000000
 49
-2.000000
 49
4.000000
 49
-2.000000
 49
4.000000
 49
-2.000000
  0
ENDTAB
  0
TABLE
  2
LAYER
 70
     1
  0
LAYER
  2
0
 70
     0
 62
     7
  6
CONTINUOUS
  0
ENDTAB
  0
TABLE
  2
STYLE
 70
     1
  0
STYLE
  2
STANDARD
 70
     0
 40
0.000000
 41
1.000000
 50
0.000000
 71
     0
 42
0.200000
  3
txt
  4
BIGFONT
  0
ENDTAB
  0
TABLE
  2
VIEW
 70
     0
  0
ENDTAB
  0
ENDSEC
  0
SECTION
  2
BLOCKS
  0
ENDSEC
  0
SECTION
  2
ENTITIES
  0
POINT
  8
0
 10
159.999847
 20
-20.000000
  0
LINE
  8
0
  6
PHANTOM
 62
     3
 10
220.499847
 20
-65.370667
 11
220.499847
 21
-56.966049
  0
LINE
  8
0
  6
PHANTOM
 62
     3
 10
195.499847
 20
-65.370667
 11
195.499847
 21
-56.966049
  0
LINE
  8
0
  6
PHANTOM
 62
     3
 10
124.499847
 20
-65.370667
 11
124.499847
 21
-56.966049
  0
LINE
  8
0
  6
PHANTOM
 62
     3
 10
99.499847
 20
-65.370667
 11
99.499847
 21
-56.966049
  0
LINE
  8
0
  6
PHANTOM
 62
     3
 10
220.499847
 20
16.735977
 11
220.499847
 21
29.019653
  0
LINE
  8
0
  6
PHANTOM
 62
     3
 10
195.499847
 20
16.735977
 11
195.499847
 21
29.019653
  0
LINE
  8
0
  6
PHANTOM
 62
     3
 10
124.499847
 20
16.735977
 11
124.499847
 21
29.019653
  0
LINE
  8
0
  6
PHANTOM
 62
     3
 10
99.499847
 20
16.735977
 11
99.499847
 21
29.019653
  0
LINE
  8
0
 10
77.176361
 20
-36.000000
 11
80.999847
 21
-36.000000
  0
LINE
  8
0
 10
76.499847
 20
-35.323502
 11
76.499847
 21
-28.676498
  0
LINE
  8
0
 10
77.176361
 20
-28.000000
 11
80.999847
 21
-28.000000
  0
LINE
  8
0
 62
     2
 10
76.499847
 20
-28.676498
 11
80.999847
 21
-28.676498
  0
LINE
  8
0
 62
     2
 10
76.499847
 20
-35.323502
 11
80.999847
 21
-35.323502
  0
LINE
  8
0
 10
76.499855
 20
-28.676498
 11
77.176353
 21
-28.000000
  0
LINE
  8
0
 10
77.176361
 20
-35.999996
 11
76.499863
 21
-35.323502
  0
LINE
  8
0
 10
77.176361
 20
-36.000000
 11
77.176361
 21
-28.000000
  0
LINE
  8
0
 10
77.176361
 20
0.500000
 11
80.999847
 21
0.500000
  0
LINE
  8
0
 10
76.499847
 20
1.176498
 11
76.499847
 21
7.823486
  0
LINE
  8
0
 10
77.176361
 20
8.500000
 11
80.999847
 21
8.500000
  0
LINE
  8
0
 62
     2
 10
76.499847
 20
7.823486
 11
80.999847
 21
7.823486
  0
LINE
  8
0
 62
     2
 10
76.499847
 20
1.176498
 11
80.999847
 21
1.176498
  0
LINE
  8
0
 10
76.499863
 20
7.823500
 11
77.176361
 21
8.499995
  0
LINE
  8
0
 10
77.176353
 20
0.499998
 11
76.499855
 21
1.176497
  0
LINE
  8
0
 10
77.176361
 20
0.500000
 11
77.176361
 21
8.500000
  0
LINE
  8
0
 10
242.823334
 20
-40.500000
 11
238.999847
 21
-40.500000
  0
LINE
  8
0
 10
243.499847
 20
-41.176498
 11
243.499847
 21
-47.823486
  0
LINE
  8
0
 10
242.823334
 20
-48.500000
 11
238.999847
 21
-48.500000
  0
LINE
  8
0
 62
     2
 10
243.499847
 20
-47.823486
 11
238.999847
 21
-47.823486
  0
LINE
  8
0
 62
     2
 10
243.499847
 20
-41.176498
 11
238.999847
 21
-41.176498
  0
LINE
  8
0
 10
243.499832
 20
-47.823502
 11
242.823334
 21
-48.499996
  0
LINE
  8
0
 10
242.823334
 20
-40.500000
 11
243.499832
 21
-41.176498
  0
LINE
  8
0
 10
242.823334
 20
-40.500000
 11
242.823334
 21
-48.500000
  0
LINE
  8
0
 10
242.823334
 20
-4.000000
 11
238.999847
 21
-4.000000
  0
LINE
  8
0
 10
243.499847
 20
-4.676500
 11
243.499847
 21
-11.323501
  0
LINE
  8
0
 10
242.823334
 20
-12.000000
 11
238.999847
 21
-12.000000
  0
LINE
  8
0
 62
     2
 10
243.499847
 20
-11.323501
 11
238.999847
 21
-11.323501
  0
LINE
  8
0
 62
     2
 10
243.499847
 20
-4.676500
 11
238.999847
 21
-4.676500
  0
LINE
  8
0
 10
243.499847
 20
-11.323509
 11
242.823349
 21
-12.000005
  0
LINE
  8
0
 10
242.823334
 20
-4.000001
 11
243.499832
 21
-4.676497
  0
LINE
  8
0
 10
242.823334
 20
-4.000000
 11
242.823334
 21
-12.000000
  0
LINE
  8
0
  6
CENTER
 62
     2
 10
243.989838
 20
-20.000000
 11
75.999847
 21
-20.000000
  0
LINE
  8
0
 10
234.499847
 20
-1.000000
 11
220.499847
 21
-1.000000
  0
LINE
  8
0
 10
234.499847
 20
-39.000000
 11
220.499847
 21
-39.000000
  0
LINE
  8
0
 10
99.499847
 20
-39.000000
 11
85.499847
 21
-39.000000
  0
LINE
  8
0
 10
99.499847
 20
-1.000000
 11
85.499847
 21
-1.000000
  0
LINE
  8
0
 10
238.399841
 20
-44.500000
 11
234.499847
 21
-44.500000
  0
LINE
  8
0
 10
238.999847
 20
-51.000000
 11
234.499847
 21
-51.000000
  0
LINE
  8
0
 10
238.399841
 20
-8.000000
 11
234.499847
 21
-8.000000
  0
LINE
  8
0
 10
238.999847
 20
-1.500000
 11
234.499847
 21
-1.500000
  0
LINE
  8
0
 10
238.999847
 20
-14.500000
 11
234.499847
 21
-14.500000
  0
LINE
  8
0
 10
238.999847
 20
-1.500000
 11
238.999847
 21
-14.500000
  0
LINE
  8
0
 10
234.499847
 20
14.000000
 11
220.499847
 21
14.000000
  0
LINE
  8
0
 10
234.499847
 20
14.000000
 11
234.499847
 21
-54.000000
  0
LINE
  8
0
 10
234.499847
 20
-54.000000
 11
220.499847
 21
-54.000000
  0
LINE
  8
0
 10
238.999847
 20
-38.000000
 11
234.499847
 21
-38.000000
  0
LINE
  8
0
 10
238.999847
 20
-38.000000
 11
238.999847
 21
-51.000000
  0
LINE
  8
0
  6
CENTER
 62
     2
 10
248.339844
 20
-44.500000
 11
118.309860
 21
-44.500000
  0
LINE
  8
0
  6
CENTER
 62
     2
 10
249.039841
 20
-8.000000
 11
119.619858
 21
-8.000000
  0
LINE
  8
0
 10
80.999847
 20
-2.000000
 11
80.999847
 21
11.000000
  0
LINE
  8
0
 10
80.999847
 20
-2.000000
 11
85.499847
 21
-2.000000
  0
LINE
  8
0
 10
81.599854
 20
4.500000
 11
85.499847
 21
4.500000
  0
LINE
  8
0
 10
80.999847
 20
11.000000
 11
85.499847
 21
11.000000
  0
LINE
  8
0
 10
81.599854
 20
-32.000000
 11
85.499847
 21
-32.000000
  0
LINE
  8
0
 10
80.999847
 20
-38.500000
 11
85.499847
 21
-38.500000
  0
LINE
  8
0
 10
80.999847
 20
-25.500000
 11
85.499847
 21
-25.500000
  0
LINE
  8
0
 10
99.499847
 20
14.000000
 11
85.499847
 21
14.000000
  0
LINE
  8
0
 10
99.499847
 20
-54.000000
 11
85.499847
 21
-54.000000
  0
LINE
  8
0
 10
85.499847
 20
14.000000
 11
85.499847
 21
-54.000000
  0
LINE
  8
0
 10
80.999847
 20
-38.500000
 11
80.999847
 21
-25.500000
  0
LINE
  8
0
  6
CENTER
 62
     2
 10
198.299835
 20
-32.000000
 11
71.989853
 21
-32.000000
  0
LINE
  8
0
  6
CENTER
 62
     2
 10
198.729843
 20
4.500000
 11
71.049850
 21
4.500000
  0
LINE
  8
0
 10
220.499847
 20
14.000000
 11
220.499847
 21
-54.000000
  0
LINE
  8
0
 10
99.499847
 20
14.000000
 11
99.499847
 21
-54.000000
  0
LINE
  8
0
 10
126.999847
 20
-59.500000
 11
192.999847
 21
-59.500000
  0
LINE
  8
0
 10
126.999847
 20
-49.500000
 11
192.999847
 21
-49.500000
  0
LINE
  8
0
 10
126.999847
 20
14.000000
 11
192.999847
 21
14.000000
  0
LINE
  8
0
 10
124.249863
 20
-12.000001
 11
125.249863
 21
-13.000002
  0
LINE
  8
0
 10
125.249855
 20
-2.999998
 11
124.249855
 21
-4.000000
  0
LINE
  8
0
 10
195.749847
 20
-36.000000
 11
194.749847
 21
-36.999996
  0
LINE
  8
0
 10
195.749832
 20
-28.000000
 11
194.749832
 21
-26.999998
  0
LINE
  8
0
 10
126.999847
 20
-37.000000
 11
99.499847
 21
-37.000000
  0
LINE
  8
0
 10
126.999847
 20
-27.000000
 11
99.499847
 21
-27.000000
  0
LINE
  8
0
 10
126.999847
 20
-13.000000
 11
125.249847
 21
-13.000000
  0
LINE
  8
0
 10
126.999847
 20
-3.000000
 11
125.249847
 21
-3.000000
  0
LINE
  8
0
 10
194.749847
 20
-27.000000
 11
194.749847
 21
-37.000000
  0
LINE
  8
0
 10
195.749847
 20
-28.000000
 11
195.749847
 21
-36.000000
  0
LINE
  8
0
 10
125.249847
 20
-3.000000
 11
125.249847
 21
-13.000000
  0
LINE
  8
0
 10
124.249847
 20
-4.000000
 11
124.249847
 21
-12.000000
  0
LINE
  8
0
 10
194.749847
 20
-27.000000
 11
192.999847
 21
-27.000000
  0
LINE
  8
0
 10
194.749847
 20
-37.000000
 11
192.999847
 21
-37.000000
  0
LINE
  8
0
 10
220.499847
 20
-13.000000
 11
192.999847
 21
-13.000000
  0
LINE
  8
0
 10
220.499847
 20
-3.000000
 11
192.999847
 21
-3.000000
  0
LINE
  8
0
 10
124.249855
 20
-49.499992
 11
125.249847
 21
-50.499985
  0
LINE
  8
0
 10
125.249855
 20
-38.499992
 11
124.249855
 21
-39.499996
  0
LINE
  8
0
 10
195.749847
 20
-0.500001
 11
194.749847
 21
-1.500003
  0
LINE
  8
0
 10
195.749832
 20
9.499989
 11
194.749832
 21
10.499990
  0
LINE
  8
0
 10
126.999847
 20
-50.500000
 11
125.249847
 21
-50.500000
  0
LINE
  8
0
 10
126.999847
 20
-38.500000
 11
125.249847
 21
-38.500000
  0
LINE
  8
0
 10
126.999847
 20
-1.500000
 11
99.499847
 21
-1.500000
  0
LINE
  8
0
 10
126.999847
 20
10.500000
 11
99.499847
 21
10.500000
  0
LINE
  8
0
 10
194.749847
 20
10.500000
 11
194.749847
 21
-1.500000
  0
LINE
  8
0
 10
195.749847
 20
9.500000
 11
195.749847
 21
-0.500000
  0
LINE
  8
0
 10
125.249847
 20
-38.500000
 11
125.249847
 21
-50.500000
  0
LINE
  8
0
 10
124.249847
 20
-39.500000
 11
124.249847
 21
-49.500000
  0
LINE
  8
0
 10
220.499847
 20
-38.500000
 11
192.999847
 21
-38.500000
  0
LINE
  8
0
 10
220.499847
 20
-50.500000
 11
192.999847
 21
-50.500000
  0
LINE
  8
0
 10
194.749847
 20
10.500000
 11
192.999847
 21
10.500000
  0
LINE
  8
0
 10
194.749847
 20
-1.500000
 11
192.999847
 21
-1.500000
  0
LINE
  8
0
  6
CENTER
 62
     2
 10
133.999847
 20
-11.370001
 11
133.999847
 21
-27.209999
  0
LINE
  8
0
  6
CENTER
 62
     2
 10
185.999847
 20
-11.930000
 11
185.999847
 21
-28.439999
  0
LINE
  8
0
  6
CENTER
 62
     2
 10
159.999847
 20
23.099991
 11
159.999847
 21
-68.659988
  0
LINE
  8
0
 10
126.999847
 20
19.000000
 11
126.999847
 21
-64.000000
  0
LINE
  8
0
 10
192.999847
 20
19.000000
 11
192.999847
 21
-64.000000
  0
LINE
  8
0
 10
192.999847
 20
-64.000000
 11
126.999847
 21
-64.000000
  0
LINE
  8
0
 10
192.999847
 20
19.000000
 11
126.999847
 21
19.000000
  0
LINE
  8
0
  6
PHANTOM
 62
     3
 10
-114.500137
 20
-87.860580
 11
-114.500137
 21
-76.877823
  0
LINE
  8
0
  6
PHANTOM
 62
     3
 10
-139.500137
 20
-87.860580
 11
-139.500137
 21
-78.799911
  0
LINE
  8
0
  6
PHANTOM
 62
     3
 10
-210.500137
 20
-87.860580
 11
-210.500137
 21
-78.799911
  0
LINE
  8
0
  6
PHANTOM
 62
     3
 10
-235.500137
 20
-87.860580
 11
-235.500137
 21
-77.216217
  0
LINE
  8
0
 10
-92.176651
 20
-144.490311
 11
-96.000137
 21
-144.490311
  0
LINE
  8
0
 10
-91.500137
 20
-145.166809
 11
-91.500137
 21
-151.813812
  0
LINE
  8
0
 10
-92.176651
 20
-152.490311
 11
-96.000137
 21
-152.490311
  0
LINE
  8
0
 62
     2
 10
-91.500137
 20
-151.813812
 11
-96.000137
 21
-151.813812
  0
LINE
  8
0
 62
     2
 10
-91.500137
 20
-145.166809
 11
-96.000137
 21
-145.166809
  0
LINE
  8
0
 10
-91.500145
 20
-151.813812
 11
-92.176643
 21
-152.490311
  0
LINE
  8
0
 10
-92.176651
 20
-144.490311
 11
-91.500153
 21
-145.166809
  0
LINE
  8
0
 10
-92.176651
 20
-144.490311
 11
-92.176651
 21
-152.490311
  0
LINE
  8
0
 10
-92.176651
 20
-125.990311
 11
-96.000137
 21
-125.990311
  0
LINE
  8
0
 10
-91.500137
 20
-126.666809
 11
-91.500137
 21
-133.313812
  0
LINE
  8
0
 10
-92.176651
 20
-133.990311
 11
-96.000137
 21
-133.990311
  0
LINE
  8
0
 62
     2
 10
-91.500137
 20
-133.313812
 11
-96.000137
 21
-133.313812
  0
LINE
  8
0
 62
     2
 10
-91.500137
 20
-126.666809
 11
-96.000137
 21
-126.666809
  0
LINE
  8
0
 10
-91.500145
 20
-133.313797
 11
-92.176651
 21
-133.990311
  0
LINE
  8
0
 10
-92.176651
 20
-125.990295
 11
-91.500145
 21
-126.666809
  0
LINE
  8
0
 10
-92.176651
 20
-125.990311
 11
-92.176651
 21
-133.990311
  0
LINE
  8
0
 10
-257.823608
 20
-152.489410
 11
-254.000137
 21
-152.489410
  0
LINE
  8
0
 10
-258.500122
 20
-151.812897
 11
-258.500122
 21
-145.165909
  0
LINE
  8
0
 10
-257.823608
 20
-144.489410
 11
-254.000137
 21
-144.489410
  0
LINE
  8
0
 62
     2
 10
-258.500122
 20
-145.165909
 11
-254.000137
 21
-145.165909
  0
LINE
  8
0
 62
     2
 10
-258.500122
 20
-151.812897
 11
-254.000137
 21
-151.812897
  0
LINE
  8
0
 10
-258.500122
 20
-145.165909
 11
-257.823608
 21
-144.489380
  0
LINE
  8
0
 10
-257.823608
 20
-152.489410
 11
-258.500122
 21
-151.812897
  0
LINE
  8
0
 10
-257.823608
 20
-152.489410
 11
-257.823608
 21
-144.489410
  0
LINE
  8
0
 10
-257.823608
 20
-134.010605
 11
-254.000137
 21
-134.010605
  0
LINE
  8
0
 10
-258.500122
 20
-133.334106
 11
-258.500122
 21
-126.687103
  0
LINE
  8
0
 10
-257.823608
 20
-126.010605
 11
-254.000137
 21
-126.010605
  0
LINE
  8
0
 62
     2
 10
-258.500122
 20
-126.687103
 11
-254.000137
 21
-126.687103
  0
LINE
  8
0
 62
     2
 10
-258.500122
 20
-133.334106
 11
-254.000137
 21
-133.334106
  0
LINE
  8
0
 10
-258.500122
 20
-126.687088
 11
-257.823608
 21
-126.010590
  0
LINE
  8
0
 10
-257.823608
 20
-134.010590
 11
-258.500122
 21
-133.334091
  0
LINE
  8
0
 10
-257.823608
 20
-134.010605
 11
-257.823608
 21
-126.010605
  0
LINE
  8
0
 10
-211.000137
 20
-144.500000
 11
-210.000137
 21
-143.500000
  0
LINE
  8
0
 10
-211.000107
 20
-152.499985
 11
-210.000107
 21
-153.499985
  0
LINE
  8
0
 10
-210.000137
 20
-143.500000
 11
-210.000137
 21
-153.500000
  0
LINE
  8
0
 10
-211.000137
 20
-144.500000
 11
-211.000137
 21
-152.500000
  0
LINE
  8
0
 10
-140.000137
 20
-124.000000
 11
-140.000137
 21
-136.000000
  0
LINE
  8
0
 10
-140.000137
 20
-136.000000
 11
-139.000137
 21
-135.000000
  0
LINE
  8
0
 10
-140.000137
 20
-124.000008
 11
-139.000137
 21
-125.000008
  0
LINE
  8
0
 10
-139.000137
 20
-125.000000
 11
-139.000137
 21
-135.000000
  0
LINE
  8
0
 10
-208.000137
 20
-139.900009
 11
-142.000137
 21
-139.900009
  0
LINE
  8
0
 10
-208.000137
 20
-143.100006
 11
-142.000137
 21
-143.100006
  0
LINE
  8
0
 10
-208.000137
 20
-120.100006
 11
-142.000137
 21
-120.100006
  0
LINE
  8
0
 10
-208.000137
 20
-116.900009
 11
-142.000137
 21
-116.900009
  0
LINE
  8
0
  6
CENTER
 62
     2
 10
-209.370132
 20
-118.500000
 11
-140.150146
 21
-118.500000
  0
LINE
  8
0
  6
CENTER
 62
     2
 10
-209.950134
 20
-141.500000
 11
-139.370148
 21
-141.500000
  0
LINE
  8
0
 10
-249.500137
 20
-141.500000
 11
-235.500137
 21
-141.500000
  0
LINE
  8
0
 10
-114.500137
 20
-141.500000
 11
-100.500137
 21
-141.500000
  0
LINE
  8
0
 10
-114.500137
 20
-92.000000
 11
-102.500137
 21
-92.000000
  0
LINE
  8
0
 10
-247.500137
 20
-92.000000
 11
-235.500137
 21
-92.000000
  0
LINE
  8
0
 10
-253.400131
 20
-152.000000
 11
-249.500137
 21
-152.000000
  0
LINE
  8
0
 10
-253.400131
 20
-155.500000
 11
-249.500137
 21
-155.500000
  0
LINE
  8
0
 10
-253.400131
 20
-133.500000
 11
-249.500137
 21
-133.500000
  0
LINE
  8
0
 10
-253.400131
 20
-137.000000
 11
-249.500137
 21
-137.000000
  0
LINE
  8
0
 10
-253.400131
 20
-145.000000
 11
-249.500137
 21
-145.000000
  0
LINE
  8
0
 10
-253.400131
 20
-141.500000
 11
-249.500137
 21
-141.500000
  0
LINE
  8
0
 10
-254.000137
 20
-143.250000
 11
-254.000137
 21
-153.750000
  0
LINE
  8
0
 10
-253.400131
 20
-126.500000
 11
-249.500137
 21
-126.500000
  0
LINE
  8
0
 10
-253.400131
 20
-123.000000
 11
-249.500137
 21
-123.000000
  0
LINE
  8
0
 10
-254.000137
 20
-124.750000
 11
-254.000137
 21
-135.250000
  0
LINE
  8
0
 10
-96.600143
 20
-133.500000
 11
-100.500137
 21
-133.500000
  0
LINE
  8
0
 10
-96.600143
 20
-137.000000
 11
-100.500137
 21
-137.000000
  0
LINE
  8
0
 10
-96.600143
 20
-126.500000
 11
-100.500137
 21
-126.500000
  0
LINE
  8
0
 10
-96.600143
 20
-123.000000
 11
-100.500137
 21
-123.000000
  0
LINE
  8
0
 10
-96.000137
 20
-124.750000
 11
-96.000137
 21
-135.250000
  0
LINE
  8
0
  6
CENTER
 62
     2
 10
-261.320129
 20
-148.500000
 11
-90.000137
 21
-148.500000
  0
LINE
  8
0
 10
-96.600143
 20
-152.000000
 11
-100.500137
 21
-152.000000
  0
LINE
  8
0
 10
-96.600143
 20
-145.000000
 11
-100.500137
 21
-145.000000
  0
LINE
  8
0
 10
-96.600143
 20
-155.500000
 11
-100.500137
 21
-155.500000
  0
LINE
  8
0
 10
-96.600143
 20
-141.500000
 11
-100.500137
 21
-141.500000
  0
LINE
  8
0
 10
-96.000137
 20
-143.250000
 11
-96.000137
 21
-153.750000
  0
LINE
  8
0
  6
CENTER
 62
     2
 10
-261.590149
 20
-130.000000
 11
-89.650146
 21
-130.000000
  0
LINE
  8
0
 10
-100.500137
 20
-115.000000
 11
-100.500137
 21
-156.500000
  0
LINE
  8
0
 10
-114.500137
 20
-89.000000
 11
-114.500137
 21
-156.500000
  0
LINE
  8
0
 10
-235.500137
 20
-89.000000
 11
-235.500137
 21
-156.500000
  0
LINE
  8
0
 10
-249.500137
 20
-115.000000
 11
-249.500137
 21
-156.500000
  0
LINE
  8
0
 10
-208.000137
 20
-158.000000
 11
-142.000137
 21
-158.000000
  0
LINE
  8
0
 10
-208.000137
 20
-150.300003
 11
-142.000137
 21
-150.300003
  0
LINE
  8
0
 10
-208.000137
 20
-155.000000
 11
-142.000137
 21
-155.000000
  0
LINE
  8
0
 10
-208.000137
 20
-138.300003
 11
-142.000137
 21
-138.300003
  0
LINE
  8
0
  6
CENTER
 62
     2
 10
-160.930145
 20
-127.000000
 11
-149.890152
 21
-127.000000
  0
LINE
  8
0
  6
CENTER
 62
     2
 10
-155.500137
 20
-121.040009
 11
-155.500137
 21
-132.320007
  0
LINE
  8
0
  6
CENTER
 62
     2
 10
-189.070129
 20
-133.000000
 11
-200.100128
 21
-133.000000
  0
LINE
  8
0
  6
CENTER
 62
     2
 10
-194.500137
 20
-138.950012
 11
-194.500137
 21
-127.670013
  0
LINE
  8
0
 10
-208.000137
 20
-121.700012
 11
-142.000137
 21
-121.700012
  0
LINE
  8
0
 10
-247.500137
 20
-115.000000
 11
-249.500137
 21
-115.000000
  0
LINE
  8
0
 10
-247.500137
 20
-89.000000
 11
-247.500137
 21
-115.000000
  0
LINE
  8
0
 10
-102.500137
 20
-115.000000
 11
-100.500137
 21
-115.000000
  0
LINE
  8
0
 10
-102.500137
 20
-89.000000
 11
-102.500137
 21
-115.000000
  0
LINE
  8
0
 10
-114.500137
 20
-89.000000
 11
-102.500137
 21
-89.000000
  0
LINE
  8
0
 10
-247.500137
 20
-89.000000
 11
-235.500137
 21
-89.000000
  0
LINE
  8
0
 10
-142.000137
 20
-153.500000
 11
-114.500137
 21
-153.500000
  0
LINE
  8
0
 10
-142.000137
 20
-143.500000
 11
-114.500137
 21
-143.500000
  0
LINE
  8
0
 10
-235.500137
 20
-143.500000
 11
-208.000137
 21
-143.500000
  0
LINE
  8
0
 10
-235.500137
 20
-153.500000
 11
-208.000137
 21
-153.500000
  0
LINE
  8
0
 10
-142.000137
 20
-136.000000
 11
-114.500137
 21
-136.000000
  0
LINE
  8
0
 10
-142.000137
 20
-124.000000
 11
-114.500137
 21
-124.000000
  0
LINE
  8
0
 10
-114.500137
 20
-156.500000
 11
-100.500137
 21
-156.500000
  0
LINE
  8
0
 10
-249.500137
 20
-156.500000
 11
-235.500137
 21
-156.500000
  0
LINE
  8
0
 10
-235.500137
 20
-124.000000
 11
-208.000137
 21
-124.000000
  0
LINE
  8
0
 10
-235.500137
 20
-136.000000
 11
-208.000137
 21
-136.000000
  0
LINE
  8
0
  6
CENTER
 62
     2
 10
-175.000137
 20
-108.860001
 11
-175.000137
 21
-165.199997
  0
LINE
  8
0
 10
-208.000137
 20
-114.000000
 11
-142.000137
 21
-114.000000
  0
LINE
  8
0
 10
-142.000137
 20
-114.000000
 11
-142.000137
 21
-158.000000
  0
LINE
  8
0
 10
-208.000137
 20
-114.000000
 11
-208.000137
 21
-158.000000
  0
LINE
  8
0
  6
PHANTOM
 62
     3
 10
-114.500137
 20
41.346344
 11
-114.500137
 21
52.329544
  0
LINE
  8
0
  6
PHANTOM
 62
     3
 10
-139.500137
 20
45.810532
 11
-139.500137
 21
52.329544
  0
LINE
  8
0
  6
PHANTOM
 62
     3
 10
-210.500137
 20
45.810532
 11
-210.500137
 21
52.329544
  0
LINE
  8
0
  6
PHANTOM
 62
     3
 10
-235.500137
 20
41.346344
 11
-235.500137
 21
52.329544
  0
LINE
  8
0
 10
-139.000137
 20
117.500000
 11
-139.000137
 21
109.500000
  0
LINE
  8
0
 10
-96.000137
 20
89.750000
 11
-96.000137
 21
100.250000
  0
LINE
  8
0
 10
-96.000137
 20
108.250000
 11
-96.000137
 21
118.750000
  0
LINE
  8
0
 10
-92.176651
 20
109.500000
 11
-96.000137
 21
109.500000
  0
LINE
  8
0
 10
-91.500137
 20
110.176498
 11
-91.500137
 21
116.823502
  0
LINE
  8
0
 10
-92.176651
 20
117.500000
 11
-96.000137
 21
117.500000
  0
LINE
  8
0
 62
     2
 10
-91.500137
 20
116.823502
 11
-96.000137
 21
116.823502
  0
LINE
  8
0
 62
     2
 10
-91.500137
 20
110.176498
 11
-96.000137
 21
110.176498
  0
LINE
  8
0
 10
-91.500145
 20
116.823494
 11
-92.176643
 21
117.500008
  0
LINE
  8
0
 10
-92.176651
 20
109.500000
 11
-91.500145
 21
110.176506
  0
LINE
  8
0
 10
-92.176651
 20
109.500000
 11
-92.176651
 21
117.500000
  0
LINE
  8
0
 10
-91.500137
 20
91.665909
 11
-91.500137
 21
98.312912
  0
LINE
  8
0
 10
-92.176636
 20
98.989410
 11
-96.000137
 21
98.989410
  0
LINE
  8
0
 62
     2
 10
-91.500137
 20
98.312912
 11
-96.000137
 21
98.312912
  0
LINE
  8
0
 10
-92.176636
 20
90.989410
 11
-92.176636
 21
98.989410
  0
LINE
  8
0
 10
-91.500137
 20
98.312904
 11
-92.176643
 21
98.989410
  0
LINE
  8
0
 10
-92.176636
 20
90.989410
 11
-96.000137
 21
90.989410
  0
LINE
  8
0
 62
     2
 10
-91.500137
 20
91.665909
 11
-96.000137
 21
91.665909
  0
LINE
  8
0
 10
-92.176643
 20
90.989403
 11
-91.500145
 21
91.665901
  0
LINE
  8
0
 10
-96.600143
 20
117.000000
 11
-100.500137
 21
117.000000
  0
LINE
  8
0
 10
-96.600143
 20
120.500000
 11
-100.500137
 21
120.500000
  0
LINE
  8
0
 10
-96.600143
 20
98.500000
 11
-100.500137
 21
98.500000
  0
LINE
  8
0
 10
-96.600143
 20
102.000000
 11
-100.500137
 21
102.000000
  0
LINE
  8
0
 10
-96.600143
 20
110.000000
 11
-100.500137
 21
110.000000
  0
LINE
  8
0
 10
-96.600143
 20
106.500000
 11
-100.500137
 21
106.500000
  0
LINE
  8
0
 10
-96.600143
 20
91.500000
 11
-100.500137
 21
91.500000
  0
LINE
  8
0
 10
-96.600143
 20
88.000000
 11
-100.500137
 21
88.000000
  0
LINE
  8
0
 10
-257.823639
 20
90.989410
 11
-258.500122
 21
91.665901
  0
LINE
  8
0
 62
     2
 10
-258.500122
 20
91.665909
 11
-254.000137
 21
91.665909
  0
LINE
  8
0
 10
-257.823639
 20
90.989410
 11
-254.000137
 21
90.989410
  0
LINE
  8
0
 10
-258.500153
 20
98.312904
 11
-257.823639
 21
98.989410
  0
LINE
  8
0
 10
-257.823639
 20
90.989410
 11
-257.823639
 21
98.989410
  0
LINE
  8
0
 62
     2
 10
-258.500122
 20
98.312912
 11
-254.000137
 21
98.312912
  0
LINE
  8
0
 10
-257.823639
 20
98.989410
 11
-254.000137
 21
98.989410
  0
LINE
  8
0
 10
-258.500122
 20
91.665909
 11
-258.500122
 21
98.312912
  0
LINE
  8
0
 10
-257.823608
 20
109.500000
 11
-257.823608
 21
117.500000
  0
LINE
  8
0
 10
-257.823608
 20
109.500000
 11
-258.500122
 21
110.176498
  0
LINE
  8
0
 10
-258.500122
 20
116.823479
 11
-257.823608
 21
117.499992
  0
LINE
  8
0
 62
     2
 10
-258.500122
 20
110.176498
 11
-254.000137
 21
110.176498
  0
LINE
  8
0
 62
     2
 10
-258.500122
 20
116.823502
 11
-254.000137
 21
116.823502
  0
LINE
  8
0
 10
-100.500137
 20
106.500000
 11
-114.500137
 21
106.500000
  0
LINE
  8
0
 10
-235.500137
 20
106.500000
 11
-249.500137
 21
106.500000
  0
LINE
  8
0
 10
-102.500137
 20
57.000000
 11
-114.500137
 21
57.000000
  0
LINE
  8
0
 10
-235.500137
 20
57.000000
 11
-247.500137
 21
57.000000
  0
LINE
  8
0
  6
CENTER
 62
     2
 10
-261.570129
 20
113.500000
 11
-90.000137
 21
113.500000
  0
LINE
  8
0
 10
-257.823608
 20
117.500000
 11
-254.000137
 21
117.500000
  0
LINE
  8
0
 10
-253.400131
 20
117.000000
 11
-249.500137
 21
117.000000
  0
LINE
  8
0
 10
-253.400131
 20
120.500000
 11
-249.500137
 21
120.500000
  0
LINE
  8
0
 10
-253.400131
 20
98.500000
 11
-249.500137
 21
98.500000
  0
LINE
  8
0
 10
-253.400131
 20
102.000000
 11
-249.500137
 21
102.000000
  0
LINE
  8
0
 10
-258.500122
 20
110.176498
 11
-258.500122
 21
116.823502
  0
LINE
  8
0
 10
-257.823608
 20
109.500000
 11
-254.000137
 21
109.500000
  0
LINE
  8
0
 10
-253.400131
 20
110.000000
 11
-249.500137
 21
110.000000
  0
LINE
  8
0
 10
-253.400131
 20
106.500000
 11
-249.500137
 21
106.500000
  0
LINE
  8
0
 10
-254.000137
 20
108.250000
 11
-254.000137
 21
118.750000
  0
LINE
  8
0
 10
-253.400131
 20
91.500000
 11
-249.500137
 21
91.500000
  0
LINE
  8
0
 10
-253.400131
 20
88.000000
 11
-249.500137
 21
88.000000
  0
LINE
  8
0
 10
-254.000137
 20
89.750000
 11
-254.000137
 21
100.250000
  0
LINE
  8
0
  6
CENTER
 62
     2
 10
-261.840149
 20
95.000000
 11
-89.650146
 21
95.000000
  0
LINE
  8
0
 10
-249.500137
 20
80.000000
 11
-249.500137
 21
121.500000
  0
LINE
  8
0
 10
-100.500137
 20
80.000000
 11
-100.500137
 21
121.500000
  0
LINE
  8
0
 10
-114.500137
 20
54.000000
 11
-114.500137
 21
121.500000
  0
LINE
  8
0
 10
-235.500137
 20
54.000000
 11
-235.500137
 21
121.500000
  0
LINE
  8
0
 10
-208.000137
 20
84.000000
 11
-142.000137
 21
84.000000
  0
LINE
  8
0
 10
-208.000137
 20
119.000000
 11
-142.000137
 21
119.000000
  0
LINE
  8
0
  6
CENTER
 62
     2
 10
-195.000137
 20
106.820007
 11
-195.000137
 21
119.110001
  0
LINE
  8
0
  6
CENTER
 62
     2
 10
-155.000137
 20
107.250000
 11
-155.000137
 21
119.790001
  0
LINE
  8
0
  6
CENTER
 62
     2
 10
-161.050140
 20
113.000000
 11
-149.640152
 21
113.000000
  0
LINE
  8
0
  6
CENTER
 62
     2
 10
-200.280136
 20
113.000000
 11
-188.190140
 21
113.000000
  0
LINE
  8
0
 10
-208.000137
 20
123.000000
 11
-142.000137
 21
123.000000
  0
LINE
  8
0
 10
-102.500137
 20
80.000000
 11
-100.500137
 21
80.000000
  0
LINE
  8
0
 10
-102.500137
 20
54.000000
 11
-102.500137
 21
80.000000
  0
LINE
  8
0
 10
-247.500137
 20
80.000000
 11
-249.500137
 21
80.000000
  0
LINE
  8
0
 10
-247.500137
 20
54.000000
 11
-247.500137
 21
80.000000
  0
LINE
  8
0
 10
-235.500137
 20
54.000000
 11
-247.500137
 21
54.000000
  0
LINE
  8
0
 10
-102.500137
 20
54.000000
 11
-114.500137
 21
54.000000
  0
LINE
  8
0
 10
-140.000137
 20
108.500000
 11
-140.000137
 21
118.500000
  0
LINE
  8
0
 10
-139.000153
 20
117.499985
 11
-140.000153
 21
118.499985
  0
LINE
  8
0
 10
-140.000137
 20
108.499992
 11
-139.000137
 21
109.499992
  0
LINE
  8
0
 10
-210.000137
 20
89.000000
 11
-210.000137
 21
101.000000
  0
LINE
  8
0
 10
-210.000137
 20
101.000000
 11
-211.000137
 21
100.000000
  0
LINE
  8
0
 10
-210.000137
 20
89.000008
 11
-211.000137
 21
90.000008
  0
LINE
  8
0
 10
-142.000137
 20
118.500000
 11
-114.500137
 21
118.500000
  0
LINE
  8
0
 10
-142.000137
 20
108.500000
 11
-114.500137
 21
108.500000
  0
LINE
  8
0
 10
-235.500137
 20
108.500000
 11
-208.000137
 21
108.500000
  0
LINE
  8
0
 10
-235.500137
 20
118.500000
 11
-208.000137
 21
118.500000
  0
LINE
  8
0
 10
-211.000137
 20
90.000000
 11
-211.000137
 21
100.000000
  0
LINE
  8
0
 10
-142.000137
 20
101.000000
 11
-114.500137
 21
101.000000
  0
LINE
  8
0
 10
-142.000137
 20
89.000000
 11
-114.500137
 21
89.000000
  0
LINE
  8
0
 10
-235.500137
 20
121.500000
 11
-249.500137
 21
121.500000
  0
LINE
  8
0
 10
-100.500137
 20
121.500000
 11
-114.500137
 21
121.500000
  0
LINE
  8
0
 10
-235.500137
 20
89.000000
 11
-208.000137
 21
89.000000
  0
LINE
  8
0
 10
-235.500137
 20
101.000000
 11
-208.000137
 21
101.000000
  0
LINE
  8
0
  6
CENTER
 62
     2
 10
-175.000137
 20
73.860001
 11
-175.000137
 21
126.190002
  0
LINE
  8
0
 10
-208.000137
 20
79.000000
 11
-142.000137
 21
79.000000
  0
LINE
  8
0
 10
-142.000137
 20
79.000000
 11
-142.000137
 21
123.000000
  0
LINE
  8
0
 10
-208.000137
 20
79.000000
 11
-208.000137
 21
123.000000
  0
LINE
  8
0
  6
CENTER
 62
     2
 10
15.159851
 20
-57.399994
 11
7.739853
 21
-57.399994
  0
LINE
  8
0
  6
CENTER
 62
     2
 10
-15.160141
 20
-57.399994
 11
-7.750137
 21
-57.399994
  0
LINE
  8
0
 10
-13.100136
 20
-59.500000
 11
-13.600137
 21
-58.999996
  0
LINE
  8
0
 10
-9.400136
 20
-58.999996
 11
-9.900137
 21
-59.500000
  0
LINE
  8
0
 10
-13.600143
 20
-57.399994
 11
-13.600143
 21
-59.000000
  0
LINE
  8
0
 10
-13.100143
 20
-59.500000
 11
-13.100143
 21
-60.500000
  0
LINE
  8
0
 10
-13.100143
 20
-60.500000
 11
-14.000137
 21
-60.500000
  0
LINE
  8
0
 10
-9.400146
 20
-57.399994
 11
-9.400146
 21
-59.000000
  0
LINE
  8
0
 10
-9.900146
 20
-59.500000
 11
-9.900146
 21
-60.500000
  0
LINE
  8
0
 10
-9.000145
 20
-61.399994
 11
-9.900138
 21
-60.500000
  0
LINE
  8
0
  6
CENTER
 62
     2
 10
-11.500137
 20
-53.339996
 11
-11.500137
 21
-66.729996
  0
LINE
  8
0
 10
-9.000137
 20
-61.399994
 11
-9.000137
 21
-64.000000
  0
LINE
  8
0
 10
9.399856
 20
-58.999989
 11
9.899855
 21
-59.499989
  0
LINE
  8
0
 10
8.999852
 20
-61.399990
 11
9.899854
 21
-60.499992
  0
LINE
  8
0
 10
13.099849
 20
-59.499992
 11
13.599851
 21
-58.999989
  0
LINE
  8
0
 10
9.899857
 20
-59.500000
 11
9.899857
 21
-60.500000
  0
LINE
  8
0
 10
13.099854
 20
-59.500000
 11
13.099854
 21
-60.500000
  0
LINE
  8
0
 10
13.599854
 20
-57.399994
 11
13.599854
 21
-59.000000
  0
LINE
  8
0
 10
9.399857
 20
-57.399994
 11
9.399857
 21
-59.000000
  0
LINE
  8
0
 10
-41.000134
 20
-50.999985
 11
-38.000130
 21
-53.999989
  0
LINE
  8
0
 10
-41.000137
 20
10.999989
 11
-38.000130
 21
13.999993
  0
LINE
  8
0
 10
26.499861
 20
-39.000000
 11
11.499860
 21
-54.000000
  0
LINE
  8
0
 10
11.499862
 20
13.999999
 11
26.499863
 21
-1.000000
  0
LINE
  8
0
 10
22.999846
 20
18.999998
 11
27.999851
 21
13.999993
  0
LINE
  8
0
  6
DASHED
 62
     2
 10
-16.000143
 20
-35.499996
 11
-7.500144
 21
-26.999996
  0
LINE
  8
0
  6
DASHED
 62
     2
 10
-7.500137
 20
-13.000000
 11
-7.500137
 21
-27.000000
  0
LINE
  8
0
  6
DASHED
 62
     2
 10
-16.000143
 20
-4.500005
 11
-7.500144
 21
-13.000004
  0
LINE
  8
0
 10
16.999857
 20
-60.499989
 11
27.999849
 21
-49.500000
  0
LINE
  8
0
 10
13.099854
 20
-60.500000
 11
16.999863
 21
-60.500000
  0
LINE
  8
0
  6
CENTER
 62
     2
 10
11.499863
 20
-53.339996
 11
11.499863
 21
-66.729996
  0
LINE
  8
0
 10
8.999863
 20
-61.399994
 11
8.999863
 21
-64.000000
  0
LINE
  8
0
 10
-16.000137
 20
13.999999
 11
-11.000143
 21
18.999994
  0
LINE
  8
0
 10
-9.000137
 20
-64.000000
 11
8.999863
 21
-64.000000
  0
LINE
  8
0
 10
27.999863
 20
14.000000
 11
27.999863
 21
-49.500000
  0
LINE
  8
0
 10
-16.000137
 20
-54.000000
 11
-16.000137
 21
-58.500000
  0
LINE
  8
0
 10
-11.000137
 20
19.000000
 11
22.999863
 21
19.000000
  0
LINE
  8
0
  6
DASHED
 62
     2
 10
-16.000137
 20
-35.500000
 11
-16.000137
 21
-54.000000
  0
LINE
  8
0
  6
DASHED
 62
     2
 10
-16.000137
 20
14.000000
 11
-16.000137
 21
-4.500000
  0
LINE
  8
0
 10
26.499863
 20
-39.000000
 11
26.499863
 21
-1.000000
  0
LINE
  8
0
  6
CENTER
 62
     2
 10
-35.750137
 20
-35.000000
 11
-25.630138
 21
-35.000000
  0
LINE
  8
0
  6
CENTER
 62
     2
 10
-31.000137
 20
-30.099998
 11
-31.000137
 21
-40.829987
  0
LINE
  8
0
  6
CENTER
 62
     2
 10
-35.750137
 20
-5.000000
 11
-25.630138
 21
-5.000000
  0
LINE
  8
0
  6
CENTER
 62
     2
 10
-31.000137
 20
-9.890000
 11
-31.000137
 21
0.839996
  0
LINE
  8
0
 10
-15.000137
 20
-54.000000
 11
-15.000137
 21
14.000000
  0
LINE
  8
0
 10
-41.000137
 20
-51.000000
 11
-41.000137
 21
11.000000
  0
LINE
  8
0
  6
CENTER
 62
     2
 10
-9.090149
 20
-44.500000
 11
9.099854
 21
-44.500000
  0
LINE
  8
0
 10
22.249847
 20
-25.500006
 11
25.999847
 21
-32.000008
  0
LINE
  8
0
 10
25.999853
 20
-32.000000
 11
22.249855
 21
-38.499996
  0
LINE
  8
0
 10
-38.000137
 20
-54.000000
 11
11.499863
 21
-54.000000
  0
LINE
  8
0
 10
10.989853
 20
-31.999992
 11
14.739853
 21
-38.499992
  0
LINE
  8
0
 10
14.739853
 20
-38.500000
 11
22.249863
 21
-38.500000
  0
LINE
  8
0
 10
14.739853
 20
-25.500000
 11
22.249863
 21
-25.500000
  0
LINE
  8
0
 10
14.739849
 20
-25.500002
 11
10.989854
 21
-31.999996
  0
LINE
  8
0
 10
-38.000137
 20
14.000000
 11
11.499863
 21
14.000000
  0
LINE
  8
0
 10
-7.510146
 20
4.499997
 11
-3.760145
 21
10.999997
  0
LINE
  8
0
 10
3.749861
 20
-2.000001
 11
7.499861
 21
4.500000
  0
LINE
  8
0
 10
-3.760147
 20
11.000000
 11
3.749863
 21
11.000000
  0
LINE
  8
0
 10
-3.760147
 20
-2.000000
 11
3.749863
 21
-2.000000
  0
LINE
  8
0
 10
-3.760138
 20
-2.000000
 11
-7.510138
 21
4.499999
  0
LINE
  8
0
 10
7.499853
 20
4.499994
 11
3.749853
 21
10.999993
  0
LINE
  8
0
  6
CENTER
 62
     2
 10
11.929855
 20
-8.000000
 11
28.839859
 21
-8.000000
  0
LINE
  8
0
  6
CENTER
 62
     2
 10
8.689850
 20
-32.000000
 11
28.379852
 21
-32.000000
  0
LINE
  8
0
  6
CENTER
 62
     2
 10
-10.760147
 20
4.500000
 11
9.619858
 21
4.500000
  0
LINE
  8
0
  6
CENTER
 62
     2
 10
18.499863
 20
-41.759995
 11
18.499863
 21
-0.540009
  0
LINE
  8
0
  6
CENTER
 62
     2
 10
-0.000137
 20
-68.829987
 11
-0.000137
 21
20.000000
  0
LINE
  8
0
  6
CENTER
 62
     2
 10
-43.230137
 20
-20.000000
 11
33.029861
 21
-20.000000
  0
LINE
  8
0
  6
PHANTOM
 62
     3
 10
-114.500137
 20
-63.790985
 11
-114.500137
 21
-56.966049
  0
LINE
  8
0
  6
PHANTOM
 62
     3
 10
-139.500137
 20
-63.426025
 11
-139.500137
 21
-56.966049
  0
LINE
  8
0
  6
PHANTOM
 62
     3
 10
-114.500137
 20
16.735977
 11
-114.500137
 21
25.990509
  0
LINE
  8
0
  6
PHANTOM
 62
     3
 10
-139.500137
 20
16.735977
 11
-139.500137
 21
27.450378
  0
LINE
  8
0
  6
PHANTOM
 62
     3
 10
-210.500137
 20
-63.426025
 11
-210.500137
 21
-56.966049
  0
LINE
  8
0
  6
PHANTOM
 62
     3
 10
-235.500137
 20
-63.790985
 11
-235.500137
 21
-56.966049
  0
LINE
  8
0
  6
PHANTOM
 62
     3
 10
-210.500137
 20
16.735977
 11
-210.500137
 21
27.450378
  0
LINE
  8
0
  6
PHANTOM
 62
     3
 10
-235.500137
 20
16.735977
 11
-235.500137
 21
25.990509
  0
LINE
  8
0
 10
-92.176651
 20
-28.000000
 11
-96.000137
 21
-28.000000
  0
LINE
  8
0
 10
-91.500137
 20
-28.676498
 11
-91.500137
 21
-35.323502
  0
LINE
  8
0
 10
-92.176651
 20
-36.000000
 11
-96.000137
 21
-36.000000
  0
LINE
  8
0
 62
     2
 10
-91.500137
 20
-35.323502
 11
-96.000137
 21
-35.323502
  0
LINE
  8
0
 62
     2
 10
-91.500137
 20
-28.676498
 11
-96.000137
 21
-28.676498
  0
LINE
  8
0
 10
-91.500153
 20
-35.323498
 11
-92.176651
 21
-35.999996
  0
LINE
  8
0
 10
-92.176643
 20
-28.000000
 11
-91.500145
 21
-28.676497
  0
LINE
  8
0
 10
-92.176651
 20
-28.000000
 11
-92.176651
 21
-36.000000
  0
LINE
  8
0
 10
-92.176651
 20
8.500000
 11
-96.000137
 21
8.500000
  0
LINE
  8
0
 10
-91.500137
 20
7.823486
 11
-91.500137
 21
1.176498
  0
LINE
  8
0
 10
-92.176651
 20
0.500000
 11
-96.000137
 21
0.500000
  0
LINE
  8
0
 62
     2
 10
-91.500137
 20
1.176498
 11
-96.000137
 21
1.176498
  0
LINE
  8
0
 62
     2
 10
-91.500137
 20
7.823486
 11
-96.000137
 21
7.823486
  0
LINE
  8
0
 10
-91.500145
 20
1.176497
 11
-92.176643
 21
0.500004
  0
LINE
  8
0
 10
-92.176651
 20
8.499995
 11
-91.500153
 21
7.823500
  0
LINE
  8
0
 10
-92.176651
 20
8.500000
 11
-92.176651
 21
0.500000
  0
LINE
  8
0
 10
-257.823608
 20
-48.500000
 11
-254.000137
 21
-48.500000
  0
LINE
  8
0
 10
-258.500122
 20
-47.823486
 11
-258.500122
 21
-41.176498
  0
LINE
  8
0
 10
-257.823608
 20
-40.500000
 11
-254.000137
 21
-40.500000
  0
LINE
  8
0
 62
     2
 10
-258.500122
 20
-41.176498
 11
-254.000137
 21
-41.176498
  0
LINE
  8
0
 62
     2
 10
-258.500122
 20
-47.823486
 11
-254.000137
 21
-47.823486
  0
LINE
  8
0
 10
-258.500122
 20
-41.176502
 11
-257.823639
 21
-40.500000
  0
LINE
  8
0
 10
-257.823608
 20
-48.500008
 11
-258.500122
 21
-47.823509
  0
LINE
  8
0
 10
-257.823608
 20
-48.500000
 11
-257.823608
 21
-40.500000
  0
LINE
  8
0
 10
-257.823608
 20
-12.000000
 11
-254.000137
 21
-12.000000
  0
LINE
  8
0
 10
-258.500122
 20
-11.323501
 11
-258.500122
 21
-4.676500
  0
LINE
  8
0
 10
-257.823608
 20
-4.000000
 11
-254.000137
 21
-4.000000
  0
LINE
  8
0
 62
     2
 10
-258.500122
 20
-4.676500
 11
-254.000137
 21
-4.676500
  0
LINE
  8
0
 62
     2
 10
-258.500122
 20
-11.323501
 11
-254.000137
 21
-11.323501
  0
LINE
  8
0
 10
-258.500122
 20
-4.676502
 11
-257.823608
 21
-4.000003
  0
LINE
  8
0
 10
-257.823639
 20
-12.000006
 11
-258.500122
 21
-11.323503
  0
LINE
  8
0
 10
-257.823608
 20
-12.000000
 11
-257.823608
 21
-4.000000
  0
LINE
  8
0
  6
CENTER
 62
     2
 10
-258.990112
 20
-20.000000
 11
-91.000137
 21
-20.000000
  0
LINE
  8
0
 10
-102.500137
 20
11.000000
 11
-114.500137
 21
11.000000
  0
LINE
  8
0
 10
-102.500137
 20
-51.000000
 11
-114.500137
 21
-51.000000
  0
LINE
  8
0
 10
-247.500137
 20
11.000000
 11
-235.500137
 21
11.000000
  0
LINE
  8
0
 10
-247.500137
 20
-51.000000
 11
-235.500137
 21
-51.000000
  0
LINE
  8
0
 10
-254.000137
 20
-38.000000
 11
-254.000137
 21
-51.000000
  0
LINE
  8
0
 10
-254.000137
 20
-38.000000
 11
-249.500137
 21
-38.000000
  0
LINE
  8
0
 10
-253.400131
 20
-44.500000
 11
-249.500137
 21
-44.500000
  0
LINE
  8
0
 10
-254.000137
 20
-51.000000
 11
-249.500137
 21
-51.000000
  0
LINE
  8
0
 10
-253.400131
 20
-8.000000
 11
-249.500137
 21
-8.000000
  0
LINE
  8
0
 10
-254.000137
 20
-1.500000
 11
-249.500137
 21
-1.500000
  0
LINE
  8
0
 10
-254.000137
 20
-14.500000
 11
-249.500137
 21
-14.500000
  0
LINE
  8
0
 10
-254.000137
 20
-1.500000
 11
-254.000137
 21
-14.500000
  0
LINE
  8
0
 10
-96.000137
 20
-2.000000
 11
-96.000137
 21
11.000000
  0
LINE
  8
0
 10
-96.000137
 20
-2.000000
 11
-100.500137
 21
-2.000000
  0
LINE
  8
0
 10
-96.600143
 20
4.500000
 11
-100.500137
 21
4.500000
  0
LINE
  8
0
 10
-96.000137
 20
11.000000
 11
-100.500137
 21
11.000000
  0
LINE
  8
0
 10
-96.600143
 20
-32.000000
 11
-100.500137
 21
-32.000000
  0
LINE
  8
0
 10
-96.000137
 20
-38.500000
 11
-100.500137
 21
-38.500000
  0
LINE
  8
0
 10
-96.000137
 20
-25.500000
 11
-100.500137
 21
-25.500000
  0
LINE
  8
0
 10
-114.500137
 20
14.000000
 11
-100.500137
 21
14.000000
  0
LINE
  8
0
 10
-114.500137
 20
14.000000
 11
-114.500137
 21
-54.000000
  0
LINE
  8
0
 10
-114.500137
 20
-54.000000
 11
-100.500137
 21
-54.000000
  0
LINE
  8
0
 10
-100.500137
 20
14.000000
 11
-100.500137
 21
-54.000000
  0
LINE
  8
0
 10
-249.500137
 20
14.000000
 11
-235.500137
 21
14.000000
  0
LINE
  8
0
 10
-235.500137
 20
14.000000
 11
-235.500137
 21
-54.000000
  0
LINE
  8
0
 10
-249.500137
 20
14.000000
 11
-249.500137
 21
-54.000000
  0
LINE
  8
0
 10
-249.500137
 20
-54.000000
 11
-235.500137
 21
-54.000000
  0
LINE
  8
0
  6
CENTER
 62
     2
 10
-175.000137
 20
23.629990
 11
-175.000137
 21
-68.279999
  0
LINE
  8
0
 10
-211.000137
 20
-28.000000
 11
-211.000137
 21
-36.000000
  0
LINE
  8
0
 10
-211.000137
 20
-35.999996
 11
-210.000137
 21
-36.999996
  0
LINE
  8
0
 10
-211.000137
 20
-28.000010
 11
-210.000137
 21
-27.000008
  0
LINE
  8
0
 10
-210.000137
 20
-27.000000
 11
-208.000137
 21
-27.000000
  0
LINE
  8
0
 10
-211.000122
 20
-0.500004
 11
-210.000122
 21
-1.500005
  0
LINE
  8
0
 10
-211.000137
 20
9.499999
 11
-210.000137
 21
10.500000
  0
LINE
  8
0
 10
-210.000137
 20
-37.000000
 11
-208.000137
 21
-37.000000
  0
LINE
  8
0
 10
-210.000137
 20
-1.500000
 11
-208.000137
 21
-1.500000
  0
LINE
  8
0
 10
-211.000137
 20
9.500000
 11
-211.000137
 21
-0.500000
  0
LINE
  8
0
 10
-210.000137
 20
10.500000
 11
-208.000137
 21
10.500000
  0
LINE
  8
0
 10
-96.000137
 20
-38.500000
 11
-96.000137
 21
-25.500000
  0
LINE
  8
0
 10
-139.000153
 20
-12.000002
 11
-140.000153
 21
-12.999998
  0
LINE
  8
0
 10
-140.000137
 20
-3.000000
 11
-139.000137
 21
-4.000001
  0
LINE
  8
0
 10
-142.000137
 20
-37.000000
 11
-114.500137
 21
-37.000000
  0
LINE
  8
0
 10
-142.000137
 20
-27.000000
 11
-114.500137
 21
-27.000000
  0
LINE
  8
0
 10
-142.000137
 20
-13.000000
 11
-140.000137
 21
-13.000000
  0
LINE
  8
0
 10
-142.000137
 20
-3.000000
 11
-140.000137
 21
-3.000000
  0
LINE
  8
0
 10
-210.000137
 20
-27.000000
 11
-210.000137
 21
-37.000000
  0
LINE
  8
0
 10
-140.000137
 20
-3.000000
 11
-140.000137
 21
-13.000000
  0
LINE
  8
0
 10
-139.000137
 20
-4.000000
 11
-139.000137
 21
-12.000000
  0
LINE
  8
0
 10
-235.750137
 20
-13.000000
 11
-208.250137
 21
-13.000000
  0
LINE
  8
0
 10
-235.750137
 20
-3.000000
 11
-208.250137
 21
-3.000000
  0
LINE
  8
0
 10
-139.000137
 20
-49.500000
 11
-140.000137
 21
-50.499996
  0
LINE
  8
0
 10
-140.000153
 20
-38.499992
 11
-139.000153
 21
-39.499992
  0
LINE
  8
0
 10
-142.000137
 20
-50.500000
 11
-140.000137
 21
-50.500000
  0
LINE
  8
0
 10
-142.000137
 20
-38.500000
 11
-140.000137
 21
-38.500000
  0
LINE
  8
0
 10
-142.000137
 20
-1.500000
 11
-114.500137
 21
-1.500000
  0
LINE
  8
0
 10
-142.000137
 20
10.500000
 11
-114.500137
 21
10.500000
  0
LINE
  8
0
 10
-210.000137
 20
10.500000
 11
-210.000137
 21
-1.500000
  0
LINE
  8
0
 10
-140.000137
 20
-38.500000
 11
-140.000137
 21
-50.500000
  0
LINE
  8
0
 10
-139.000137
 20
-39.500000
 11
-139.000137
 21
-49.500000
  0
LINE
  8
0
 10
-235.500137
 20
-39.000000
 11
-208.000137
 21
-39.000000
  0
LINE
  8
0
 10
-235.500137
 20
-51.000000
 11
-208.000137
 21
-51.000000
  0
LINE
  8
0
  6
CENTER
 62
     2
 10
-263.340149
 20
-44.500000
 11
-136.700150
 21
-44.500000
  0
LINE
  8
0
  6
CENTER
 62
     2
 10
-210.800125
 20
-32.000000
 11
-84.240143
 21
-32.000000
  0
LINE
  8
0
  6
CENTER
 62
     2
 10
-263.790131
 20
-8.000000
 11
-134.870148
 21
-8.000000
  0
LINE
  8
0
  6
CENTER
 62
     2
 10
-214.230133
 20
4.500000
 11
-86.300140
 21
4.500000
  0
LINE
  8
0
  6
CENTER
 62
     2
 10
-149.000137
 20
-13.000000
 11
-149.000137
 21
-27.000000
  0
LINE
  8
0
  6
CENTER
 62
     2
 10
-201.000137
 20
-13.000000
 11
-201.000137
 21
-27.000000
  0
LINE
  8
0
 10
-208.000137
 20
-4.500000
 11
-142.000137
 21
-4.500000
  0
LINE
  8
0
 10
-208.000137
 20
-13.000000
 11
-142.000137
 21
-13.000000
  0
LINE
  8
0
 10
-208.000137
 20
-27.000000
 11
-142.000137
 21
-27.000000
  0
LINE
  8
0
 10
-208.000137
 20
-35.500000
 11
-142.000137
 21
-35.500000
  0
LINE
  8
0
 10
-208.000137
 20
-57.500000
 11
-142.000137
 21
-57.500000
  0
LINE
  8
0
 10
-208.000137
 20
14.000000
 11
-142.000137
 21
14.000000
  0
LINE
  8
0
 10
-102.500137
 20
14.000000
 11
-102.500137
 21
-54.000000
  0
LINE
  8
0
 10
-247.500137
 20
14.000000
 11
-247.500137
 21
-54.000000
  0
LINE
  8
0
 10
-142.000137
 20
19.000000
 11
-142.000137
 21
-64.000000
  0
LINE
  8
0
 10
-208.000137
 20
19.000000
 11
-208.000137
 21
-64.000000
  0
LINE
  8
0
 10
-208.000137
 20
-59.500000
 11
-142.000137
 21
-59.500000
  0
LINE
  8
0
 10
-208.000137
 20
-64.000000
 11
-142.000137
 21
-64.000000
  0
LINE
  8
0
 10
-208.000137
 20
19.000000
 11
-142.000137
 21
19.000000
  0
LINE
  8
0
 10
282.099854
 20
195.500000
 11
282.099854
 21
-195.000000
  0
LINE
  8
0
 10
-281.250000
 20
195.500000
 11
282.099854
 21
195.500000
  0
LINE
  8
0
 10
-281.250000
 20
195.500000
 11
-281.250000
 21
-195.000000
  0
LINE
  8
0
 10
-281.250000
 20
-195.000000
 11
282.099854
 21
-195.000000
  0
LINE
  8
0
 10
162.099976
 20
-175.000000
 11
162.099976
 21
-195.000000
  0
LINE
  8
0
 10
162.099976
 20
-175.000000
 11
282.099854
 21
-175.000000
  0
LINE
  8
0
 10
162.099976
 20
175.500000
 11
282.099854
 21
175.500000
  0
LINE
  8
0
 10
-281.250000
 20
175.500000
 11
-161.250000
 21
175.500000
  0
LINE
  8
0
 10
162.099976
 20
195.500000
 11
162.099976
 21
175.500000
  0
LINE
  8
0
 10
-161.250000
 20
195.500000
 11
-161.250000
 21
175.500000
  0
CIRCLE
  8
0
 10
133.999847
 20
-20.000000
 40
4.188000
  0
CIRCLE
  8
0
 10
185.999847
 20
-20.000000
 40
4.188000
  0
ARC
  8
0
 10
90.101624
 20
7.750000
 40
9.101786
 50
159.079437
 51
200.920502
  0
ARC
  8
0
 10
90.101639
 20
1.250000
 40
9.101798
 50
159.079483
 51
200.920502
  0
ARC
  8
0
 10
90.101639
 20
-35.250000
 40
9.101798
 50
159.079483
 51
200.920502
  0
ARC
  8
0
 10
90.101639
 20
-28.750000
 40
9.101798
 50
159.079483
 51
200.920502
  0
ARC
  8
0
 10
229.898026
 20
-47.750000
 40
9.101819
 50
339.079559
 51
20.920454
  0
ARC
  8
0
 10
229.898026
 20
-4.750000
 40
9.101819
 50
339.079559
 51
20.920452
  0
ARC
  8
0
 10
229.898026
 20
-11.250000
 40
9.101819
 50
339.079559
 51
20.920454
  0
ARC
  8
0
 10
229.898026
 20
-41.250000
 40
9.101819
 50
339.079559
 51
20.920454
  0
CIRCLE
  8
0
 62
     2
 10
133.999847
 20
-20.000000
 40
5.000000
  0
CIRCLE
  8
0
 62
     2
 10
185.999847
 20
-20.000000
 40
5.000000
  0
CIRCLE
  8
0
 10
159.999847
 20
-20.000000
 40
9.500000
  0
CIRCLE
  8
0
 10
-194.500137
 20
-133.000000
 40
2.066999
  0
CIRCLE
  8
0
 10
-155.500137
 20
-127.000000
 40
2.066999
  0
ARC
  8
0
 10
-251.148056
 20
-153.750000
 40
2.852077
 50
142.150604
 51
217.849396
  0
ARC
  8
0
 10
-251.148041
 20
-135.250000
 40
2.852077
 50
142.150604
 51
217.849396
  0
ARC
  8
0
 10
-243.491898
 20
-148.500000
 40
10.508240
 50
160.544662
 51
199.455307
  0
ARC
  8
0
 10
-251.148056
 20
-143.250000
 40
2.852077
 50
142.150604
 51
217.849396
  0
ARC
  8
0
 10
-243.491898
 20
-130.000000
 40
10.508242
 50
160.544617
 51
199.455307
  0
ARC
  8
0
 10
-251.148056
 20
-124.750000
 40
2.852077
 50
142.150604
 51
217.849396
  0
ARC
  8
0
 10
-98.852234
 20
-135.250000
 40
2.852083
 50
322.150696
 51
37.849297
  0
ARC
  8
0
 10
-106.508392
 20
-130.000000
 40
10.508261
 50
340.544708
 51
19.455297
  0
ARC
  8
0
 10
-98.852219
 20
-124.750000
 40
2.852083
 50
322.150696
 51
37.849297
  0
ARC
  8
0
 10
-98.852219
 20
-153.750000
 40
2.852083
 50
322.150696
 51
37.849297
  0
ARC
  8
0
 10
-106.508392
 20
-148.500000
 40
10.508261
 50
340.544708
 51
19.455297
  0
ARC
  8
0
 10
-98.852219
 20
-143.250000
 40
2.852083
 50
322.150696
 51
37.849297
  0
CIRCLE
  8
0
 62
     2
 10
-155.500137
 20
-127.000000
 40
2.500000
  0
CIRCLE
  8
0
 10
-155.500137
 20
-127.000000
 40
4.250000
  0
CIRCLE
  8
0
 62
     2
 10
-194.500137
 20
-133.000000
 40
2.500000
  0
CIRCLE
  8
0
 10
-194.500137
 20
-133.000000
 40
4.250000
  0
ARC
  8
0
 10
-98.852219
 20
89.750000
 40
2.852083
 50
322.150696
 51
37.849297
  0
ARC
  8
0
 10
-106.508377
 20
95.000000
 40
10.508246
 50
340.544678
 51
19.455324
  0
ARC
  8
0
 10
-98.852219
 20
108.250000
 40
2.852083
 50
322.150696
 51
37.849297
  0
ARC
  8
0
 10
-106.508377
 20
113.500000
 40
10.508246
 50
340.544678
 51
19.455324
  0
ARC
  8
0
 10
-98.852234
 20
100.250000
 40
2.852083
 50
322.150696
 51
37.849297
  0
ARC
  8
0
 10
-98.852219
 20
118.750000
 40
2.852083
 50
322.150696
 51
37.849297
  0
ARC
  8
0
 10
-251.148056
 20
118.750000
 40
2.852077
 50
142.150604
 51
217.849396
  0
ARC
  8
0
 10
-251.148041
 20
100.250000
 40
2.852077
 50
142.150604
 51
217.849396
  0
ARC
  8
0
 10
-243.491898
 20
113.500000
 40
10.508242
 50
160.544617
 51
199.455276
  0
ARC
  8
0
 10
-251.148056
 20
108.250000
 40
2.852077
 50
142.150604
 51
217.849396
  0
ARC
  8
0
 10
-243.491898
 20
95.000000
 40
10.508242
 50
160.544617
 51
199.455276
  0
ARC
  8
0
 10
-251.148056
 20
89.750000
 40
2.852077
 50
142.150604
 51
217.849396
  0
CIRCLE
  8
0
 10
-155.500137
 20
98.000000
 40
1.000000
  0
CIRCLE
  8
0
 10
-194.500137
 20
92.000000
 40
1.000000
  0
CIRCLE
  8
0
 10
-155.000137
 20
113.000000
 40
3.323500
  0
CIRCLE
  8
0
 10
-195.000137
 20
113.000000
 40
3.323500
  0
CIRCLE
  8
0
 62
     2
 10
-155.000137
 20
113.000000
 40
4.000000
  0
CIRCLE
  8
0
 62
     2
 10
-195.000137
 20
113.000000
 40
4.000000
  0
CIRCLE
  8
0
 62
     2
 10
18.499863
 20
-32.000000
 40
3.323500
  0
CIRCLE
  8
0
 62
     2
 10
-0.000137
 20
4.500000
 40
3.323500
  0
CIRCLE
  8
0
 10
-0.000122
 20
-44.499985
 40
7.000000
  0
CIRCLE
  8
0
 10
-0.000122
 20
-44.499985
 40
5.000000
  0
CIRCLE
  8
0
 10
18.499863
 20
-7.999985
 40
4.000000
  0
CIRCLE
  8
0
 10
18.499863
 20
-7.999985
 40
6.000000
  0
ARC
  8
0
 10
-14.000153
 20
-58.500000
 40
1.999985
 50
179.999557
 51
270.000397
  0
ARC
  8
0
 10
-11.500137
 20
-57.399994
 40
2.099999
 50
0.000000
 51
180.000000
  0
ARC
  8
0
 10
11.499863
 20
-57.399994
 40
2.099999
 50
0.000000
 51
180.000000
  0
ARC
  8
0
 10
-0.005142
 20
4.999985
 40
13.003008
 50
43.800346
 51
136.199600
  0
ARC
  8
0
 10
-0.005142
 20
-44.999969
 40
13.003017
 50
223.800400
 51
316.199615
  0
CIRCLE
  8
0
 10
-31.000137
 20
-34.999985
 40
3.323500
  0
CIRCLE
  8
0
 62
     2
 10
-31.000137
 20
-34.999985
 40
4.000000
  0
CIRCLE
  8
0
 10
-31.000122
 20
-4.999985
 40
3.323500
  0
CIRCLE
  8
0
 62
     2
 10
-31.000122
 20
-4.999985
 40
4.000000
  0
CIRCLE
  8
0
 10
18.499863
 20
-7.999985
 40
5.000000
  0
CIRCLE
  8
0
 10
-0.000122
 20
-44.499985
 40
6.000000
  0
CIRCLE
  8
0
 10
18.499863
 20
-31.999985
 40
8.000000
  0
CIRCLE
  8
0
 10
18.499863
 20
-31.999985
 40
6.500000
  0
CIRCLE
  8
0
 10
18.499863
 20
-31.999985
 40
4.000000
  0
CIRCLE
  8
0
 10
-0.000122
 20
4.500000
 40
8.000000
  0
CIRCLE
  8
0
 10
-0.000122
 20
4.500000
 40
6.500000
  0
CIRCLE
  8
0
 10
-0.000122
 20
4.500000
 40
4.000000
  0
ARC
  8
0
 10
-244.898346
 20
-47.750000
 40
9.101792
 50
159.079453
 51
200.920517
  0
ARC
  8
0
 10
-244.898346
 20
-41.250000
 40
9.101792
 50
159.079453
 51
200.920517
  0
ARC
  8
0
 10
-244.898346
 20
-4.750000
 40
9.101791
 50
159.079468
 51
200.920517
  0
ARC
  8
0
 10
-244.898346
 20
-11.250000
 40
9.101791
 50
159.079468
 51
200.920517
  0
ARC
  8
0
 10
-105.101913
 20
7.750000
 40
9.101784
 50
339.079468
 51
20.920540
  0
ARC
  8
0
 10
-105.101929
 20
1.250000
 40
9.101798
 50
339.079498
 51
20.920506
  0
ARC
  8
0
 10
-105.101929
 20
-35.250000
 40
9.101798
 50
339.079498
 51
20.920506
  0
ARC
  8
0
 10
-105.101929
 20
-28.750000
 40
9.101798
 50
339.079498
 51
20.920506
  0
CIRCLE
  8
0
 10
-149.000137
 20
-20.000000
 40
4.250000
  0
CIRCLE
  8
0
 10
-201.000137
 20
-20.000000
 40
4.250000
  0
TEXT
  8
0
 62
     3
 10
222.282410
 20
-79.286667
 40
3.200000
  1
OPEN
 50
90.000000
 41
1.052632
 51
0.000000
  7
STANDARD
  0
TEXT
  8
0
 62
     3
 10
197.410248
 20
-81.901863
 40
3.200000
  1
CLOSE
 50
90.000000
 41
1.052632
 51
0.000000
  7
STANDARD
  0
TEXT
  8
0
 62
     3
 10
126.248146
 20
-82.529930
 40
3.200000
  1
CLOSE
 50
90.000000
 41
1.052632
 51
0.000000
  7
STANDARD
  0
TEXT
  8
0
 62
     3
 10
101.136330
 20
-79.794266
 40
3.200000
  1
OPEN
 50
90.000000
 41
1.052632
 51
0.000000
  7
STANDARD
  0
TEXT
  8
0
 62
     3
 10
222.654327
 20
29.816483
 40
3.200000
  1
OPEN
 50
90.000000
 41
1.052632
 51
0.000000
  7
STANDARD
  0
TEXT
  8
0
 62
     3
 10
197.511566
 20
29.760336
 40
3.200000
  1
CLOSE
 50
90.000000
 41
1.052632
 51
0.000000
  7
STANDARD
  0
TEXT
  8
0
 62
     3
 10
126.248146
 20
29.760336
 40
3.200000
  1
CLOSE
 50
90.000000
 41
1.052632
 51
0.000000
  7
STANDARD
  0
TEXT
  8
0
 62
     3
 10
101.105385
 20
29.816483
 40
3.200000
  1
OPEN
 50
90.000000
 41
1.052632
 51
0.000000
  7
STANDARD
  0
TEXT
  8
0
 62
     3
 10
-112.753777
 20
-76.669144
 40
3.200000
  1
OPEN
 50
90.000000
 41
1.052632
 51
0.000000
  7
STANDARD
  0
TEXT
  8
0
 62
     3
 10
-137.955399
 20
-79.492531
 40
3.200000
  1
CLOSE
 50
90.000000
 41
1.052632
 51
0.000000
  7
STANDARD
  0
TEXT
  8
0
 62
     3
 10
-112.345680
 20
27.816483
 40
3.200000
  1
OPEN
 50
90.000000
 41
1.052632
 51
0.000000
  7
STANDARD
  0
TEXT
  8
0
 62
     3
 10
-137.488434
 20
27.760336
 40
3.200000
  1
CLOSE
 50
90.000000
 41
1.052632
 51
0.000000
  7
STANDARD
  0
TEXT
  8
0
 62
     3
 10
-209.156097
 20
-79.247856
 40
3.200000
  1
CLOSE
 50
90.000000
 41
1.052632
 51
0.000000
  7
STANDARD
  0
TEXT
  8
0
 62
     3
 10
-233.868362
 20
-76.913818
 40
3.200000
  1
OPEN
 50
90.000000
 41
1.052632
 51
0.000000
  7
STANDARD
  0
TEXT
  8
0
 62
     3
 10
-208.751846
 20
27.760336
 40
3.200000
  1
CLOSE
 50
90.000000
 41
1.052632
 51
0.000000
  7
STANDARD
  0
TEXT
  8
0
 62
     3
 10
-233.894608
 20
27.816483
 40
3.200000
  1
OPEN
 50
90.000000
 41
1.052632
 51
0.000000
  7
STANDARD
  0
TEXT
  8
0
 10
196.250259
 20
180.830002
 40
6.300000
  1
Ｖｅｒ．　１．０
 50
0.000000
 41
0.833333
 51
0.000000
  7
STANDARD
  0
TEXT
  8
0
 10
167.564651
 20
-192.100006
 40
9.000000
  1
KOGANEI CORP.
 50
0.000000
 41
1.052632
 51
0.000000
  7
STANDARD
  0
TEXT
  8
0
 10
-278.599731
 20
180.830002
 40
6.300000
  1
WIDE TYPE AIR HAND
 50
0.000000
 41
1.052632
 51
0.000000
  7
STANDARD
  0
TEXT
  8
0
 10
-270.049713
 20
155.830002
 40
6.300000
  1
MODEL:WHDP-25
 50
0.000000
 41
1.052632
 51
0.000000
  7
STANDARD
  0
ENDSEC
  0
EOF
