  0
SECTION
  2
HEADER
  0
ENDSEC
  0
SECTION
  2
TABLES
  0
TABLE
  2
LTYPE
 70
     4
  0
LTYPE
  2
CONTINUOUS
 70
    64
  3
Solid line
 72
    65
 73
     0
 40
0.000000
  0
LTYPE
  2
DASHED
 70
    64
  3
__ __ __ __ __ __ __ __ __ __ __ __ __ __ __
 72
    65
 73
     2
 40
3.500000
 49
2.000000
 49
-1.500000
  0
LTYPE
  2
CENTER
 70
    64
  3
____ _ ____ _ ____ _ ____ _ ____ _ ____ _ ____
 72
    65
 73
     4
 40
17.500000
 49
13.000000
 49
-1.500000
 49
1.500000
 49
-1.500000
  0
LTYPE
  2
PHANTOM
 70
    64
  3
_____ _ _ _____ _ _ _____ _ _ _____ _ _ ____  
 72
    65
 73
     6
 40
15.500000
 49
8.000000
 49
-1.500000
 49
1.500000
 49
-1.500000
 49
1.500000
 49
-1.500000
  0
LTYPE
  2
DASHED1
 70
    64
  3
__ __ __ __ __ __ __ __ __ __ __ __ __ __ __
 72
    65
 73
     2
 40
1.500000
 49
1.000000
 49
-0.500000
  0
LTYPE
  2
DASHED2
 70
    64
  3
__ __ __ __ __ __ __ __ __ __ __ __ __ __ __
 72
    65
 73
     2
 40
3.500000
 49
2.500000
 49
-1.000000
  0
LTYPE
  2
DASHED3
 70
    64
  3
__ __ __ __ __ __ __ __ __ __ __ __ __ __ __
 72
    65
 73
     2
 40
6.000000
 49
4.000000
 49
-2.000000
  0
LTYPE
  2
DASHED4
 70
    64
  3
__ __ __ __ __ __ __ __ __ __ __ __ __ __ __
 72
    65
 73
     2
 40
12.000000
 49
10.000000
 49
-2.000000
  0
LTYPE
  2
DASHED5
 70
    64
  3
__ __ __ __ __ __ __ __ __ __ __ __ __ __ __
 72
    65
 73
     2
 40
17.000000
 49
15.000000
 49
-2.000000
  0
LTYPE
  2
DASHED6
 70
    64
  3
__ __ __ __ __ __ __ __ __ __ __ __ __ __ __
 72
    65
 73
     2
 40
29.000000
 49
27.000000
 49
-2.000000
  0
LTYPE
  2
PHANTOM1
 70
    64
  3
_____ _ _ _____ _ _ _____ _ _ _____ _ _ ____  
 72
    65
 73
     6
 40
31.000000
 49
25.000000
 49
-1.500000
 49
1.000000
 49
-1.000000
 49
1.000000
 49
-1.500000
  0
LTYPE
  2
PHANTOM2
 70
    64
  3
_____ _ _ _____ _ _ _____ _ _ _____ _ _ ____  
 72
    65
 73
     6
 40
36.000000
 49
27.000000
 49
-1.500000
 49
2.500000
 49
-1.000000
 49
2.500000
 49
-1.500000
  0
LTYPE
  2
PHANTOM3
 70
    64
  3
_____ _ _ _____ _ _ _____ _ _ _____ _ _ ____  
 72
    65
 73
     6
 40
78.000000
 49
64.000000
 49
-2.000000
 49
4.000000
 49
-2.000000
 49
4.000000
 49
-2.000000
  0
LTYPE
  2
CENTER1
 70
    64
  3
____ _ ____ _ ____ _ ____ _ ____ _ ____ _ ____
 72
    65
 73
     4
 40
19.000000
 49
14.000000
 49
-1.000000
 49
3.000000
 49
-1.000000
  0
LTYPE
  2
CENTER2
 70
    64
  3
____ _ ____ _ ____ _ ____ _ ____ _ ____ _ ____
 72
    65
 73
     4
 40
28.500000
 49
25.000000
 49
-1.000000
 49
1.500000
 49
-1.000000
  0
LTYPE
  2
CENTER3
 70
    64
  3
____ _ ____ _ ____ _ ____ _ ____ _ ____ _ ____
 72
    65
 73
     4
 40
31.500000
 49
27.000000
 49
-1.000000
 49
2.500000
 49
-1.000000
  0
LTYPE
  2
CENTER4
 70
    64
  3
____ _ ____ _ ____ _ ____ _ ____ _ ____ _ ____
 72
    65
 73
     4
 40
50.000000
 49
45.000000
 49
-1.000000
 49
3.000000
 49
-1.000000
  0
LTYPE
  2
CENTER5
 70
    64
  3
____ _ ____ _ ____ _ ____ _ ____ _ ____ _ ____
 72
    65
 73
     4
 40
100.000000
 49
92.000000
 49
-2.000000
 49
4.000000
 49
-2.000000
  0
LTYPE
  2
SBK1
 70
    64
  3
______ _ _ _ ______ _ _ _ ______ _ _ _ _____  
 72
    65
 73
     8
 40
60.500000
 49
45.000000
 49
-2.000000
 49
2.500000
 49
-2.000000
 49
2.500000
 49
-2.000000
 49
2.500000
 49
-2.000000
  0
LTYPE
  2
SBK2
 70
    64
  3
______ _ _ _ ______ _ _ _ ______ _ _ _ _____  
 72
    65
 73
     8
 40
84.000000
 49
64.000000
 49
-2.000000
 49
4.000000
 49
-2.000000
 49
4.000000
 49
-2.000000
 49
4.000000
 49
-2.000000
  0
LTYPE
  2
STCH
 70
    64
  3
__ __ __ __ __ __ __ __ __ __ __ __ __ __ __
 72
    65
 73
     2
 40
3.000000
 49
1.000000
 49
-2.000000
  0
LTYPE
  2
MTCH
 70
    64
  3
_____ _ _ _____ _ _ _____ _ _ _____ _ _ ____  
 72
    65
 73
     6
 40
80.000000
 49
66.000000
 49
-2.000000
 49
4.000000
 49
-2.000000
 49
4.000000
 49
-2.000000
  0
ENDTAB
  0
TABLE
  2
LAYER
 70
     1
  0
LAYER
  2
0
 70
     0
 62
     7
  6
CONTINUOUS
  0
ENDTAB
  0
TABLE
  2
STYLE
 70
     1
  0
STYLE
  2
STANDARD
 70
     0
 40
0.000000
 41
1.000000
 50
0.000000
 71
     0
 42
0.200000
  3
txt
  4
BIGFONT
  0
ENDTAB
  0
TABLE
  2
VIEW
 70
     0
  0
ENDTAB
  0
ENDSEC
  0
SECTION
  2
BLOCKS
  0
ENDSEC
  0
SECTION
  2
ENTITIES
  0
POINT
  8
0
 10
107.800003
 20
-15.190525
  0
LINE
  8
0
  6
PHANTOM
 62
     3
 10
151.000000
 20
-45.802174
 11
151.000000
 21
-39.580509
  0
LINE
  8
0
  6
PHANTOM
 62
     3
 10
135.000000
 20
-45.802174
 11
135.000000
 21
-39.580509
  0
LINE
  8
0
  6
PHANTOM
 62
     3
 10
80.600006
 20
-45.802174
 11
80.600006
 21
-39.580509
  0
LINE
  8
0
  6
PHANTOM
 62
     3
 10
64.600006
 20
-45.802174
 11
64.600006
 21
-39.580509
  0
LINE
  8
0
  6
PHANTOM
 62
     3
 10
151.000000
 20
9.009136
 11
151.000000
 21
17.325924
  0
LINE
  8
0
  6
PHANTOM
 62
     3
 10
135.000000
 20
10.078182
 11
135.000000
 21
17.325924
  0
LINE
  8
0
  6
PHANTOM
 62
     3
 10
80.600006
 20
8.509136
 11
80.600006
 21
17.325924
  0
LINE
  8
0
  6
PHANTOM
 62
     3
 10
64.600006
 20
8.509136
 11
64.600006
 21
17.325924
  0
LINE
  8
0
 10
49.141510
 20
-28.190525
 11
49.141510
 21
-22.190525
  0
LINE
  8
0
 10
48.600018
 20
-27.649017
 11
49.141518
 21
-28.190517
  0
LINE
  8
0
 10
48.600018
 20
-22.732031
 11
49.141518
 21
-22.190533
  0
LINE
  8
0
 62
     2
 10
49.600006
 20
-27.649025
 11
48.600006
 21
-27.649025
  0
LINE
  8
0
 62
     2
 10
49.600006
 20
-22.732025
 11
48.600006
 21
-22.732025
  0
LINE
  8
0
 10
48.600006
 20
-27.649025
 11
48.600006
 21
-22.732025
  0
LINE
  8
0
 10
49.600006
 20
-28.190525
 11
49.141510
 21
-28.190525
  0
LINE
  8
0
 10
49.600006
 20
-22.190525
 11
49.141510
 21
-22.190525
  0
LINE
  8
0
 10
49.141510
 20
-1.190525
 11
49.141510
 21
4.809475
  0
LINE
  8
0
 10
48.600010
 20
-0.649024
 11
49.141518
 21
-1.190532
  0
LINE
  8
0
 10
48.600018
 20
4.267977
 11
49.141521
 21
4.809475
  0
LINE
  8
0
 62
     2
 10
49.600006
 20
-0.649026
 11
48.600006
 21
-0.649026
  0
LINE
  8
0
 62
     2
 10
49.600006
 20
4.267971
 11
48.600006
 21
4.267971
  0
LINE
  8
0
 10
48.600006
 20
-0.649026
 11
48.600006
 21
4.267971
  0
LINE
  8
0
 10
49.600006
 20
-1.190525
 11
49.141510
 21
-1.190525
  0
LINE
  8
0
 10
49.600006
 20
4.809475
 11
49.141510
 21
4.809475
  0
LINE
  8
0
 10
166.458496
 20
-29.190525
 11
166.458496
 21
-35.190525
  0
LINE
  8
0
 10
167.000000
 20
-29.732033
 11
166.458496
 21
-29.190523
  0
LINE
  8
0
 10
166.999985
 20
-34.649033
 11
166.458496
 21
-35.190529
  0
LINE
  8
0
 62
     2
 10
166.000000
 20
-29.732025
 11
167.000000
 21
-29.732025
  0
LINE
  8
0
 62
     2
 10
166.000000
 20
-34.649021
 11
167.000000
 21
-34.649021
  0
LINE
  8
0
 10
167.000000
 20
-29.732025
 11
167.000000
 21
-34.649021
  0
LINE
  8
0
 10
166.000000
 20
-29.190525
 11
166.458496
 21
-29.190525
  0
LINE
  8
0
 10
166.000000
 20
-35.190525
 11
166.458496
 21
-35.190525
  0
LINE
  8
0
 10
166.458496
 20
-2.190525
 11
166.458496
 21
-8.190525
  0
LINE
  8
0
 10
166.999985
 20
-2.732029
 11
166.458496
 21
-2.190533
  0
LINE
  8
0
 10
166.999985
 20
-7.649022
 11
166.458496
 21
-8.190517
  0
LINE
  8
0
 62
     2
 10
166.000000
 20
-2.732025
 11
167.000000
 21
-2.732025
  0
LINE
  8
0
 62
     2
 10
166.000000
 20
-7.649026
 11
167.000000
 21
-7.649026
  0
LINE
  8
0
 10
167.000000
 20
-2.732025
 11
167.000000
 21
-7.649026
  0
LINE
  8
0
 10
166.000000
 20
-2.190525
 11
166.458496
 21
-2.190525
  0
LINE
  8
0
 10
166.000000
 20
-8.190525
 11
166.458496
 21
-8.190525
  0
LINE
  8
0
 10
80.200012
 20
-2.190525
 11
80.200012
 21
-8.190525
  0
LINE
  8
0
 10
80.200012
 20
-8.190534
 11
81.200012
 21
-9.190536
  0
LINE
  8
0
 10
81.200012
 20
-2.190525
 11
81.200012
 21
-9.190525
  0
LINE
  8
0
 10
81.200012
 20
-9.190525
 11
82.800003
 21
-9.190525
  0
LINE
  8
0
 10
80.200005
 20
-35.190517
 11
81.200005
 21
-36.190521
  0
LINE
  8
0
 10
80.200012
 20
-35.190525
 11
80.200012
 21
-29.190525
  0
LINE
  8
0
 10
81.200012
 20
-36.190525
 11
82.800003
 21
-36.190525
  0
LINE
  8
0
 10
81.200012
 20
-28.190525
 11
82.800003
 21
-28.190525
  0
LINE
  8
0
 10
134.399994
 20
-28.190525
 11
134.399994
 21
-21.190525
  0
LINE
  8
0
 10
80.200005
 20
-29.190517
 11
81.200012
 21
-28.190517
  0
LINE
  8
0
 10
135.399994
 20
-22.190514
 11
134.399994
 21
-21.190512
  0
LINE
  8
0
 10
134.399994
 20
-21.190525
 11
132.800003
 21
-21.190525
  0
LINE
  8
0
 10
135.399994
 20
-28.190525
 11
135.399994
 21
-22.190525
  0
LINE
  8
0
 10
81.200012
 20
-36.190525
 11
81.200012
 21
-28.190525
  0
LINE
  8
0
 10
135.399994
 20
4.809474
 11
134.399994
 21
5.809474
  0
LINE
  8
0
 10
134.399994
 20
5.809475
 11
134.399994
 21
-2.190525
  0
LINE
  8
0
 10
134.399994
 20
-2.190525
 11
132.800003
 21
-2.190525
  0
LINE
  8
0
 10
134.399994
 20
5.809475
 11
132.800003
 21
5.809475
  0
LINE
  8
0
 10
135.399994
 20
-1.190531
 11
134.399994
 21
-2.190532
  0
LINE
  8
0
 10
135.399994
 20
4.809475
 11
135.399994
 21
-1.190525
  0
LINE
  8
0
 10
151.000000
 20
-29.490524
 11
161.000000
 21
-29.490524
  0
LINE
  8
0
 10
151.000000
 20
-0.890526
 11
161.000000
 21
-0.890526
  0
LINE
  8
0
 10
64.600006
 20
-0.890526
 11
54.600006
 21
-0.890526
  0
LINE
  8
0
 10
64.600006
 20
-29.490524
 11
54.600006
 21
-29.490524
  0
LINE
  8
0
 10
132.800003
 20
8.309475
 11
82.800003
 21
8.309475
  0
LINE
  8
0
 10
50.600006
 20
1.809475
 11
54.600006
 21
1.809475
  0
LINE
  8
0
 10
49.600006
 20
-3.190525
 11
49.600006
 21
6.809475
  0
LINE
  8
0
 10
49.600006
 20
6.809475
 11
54.600006
 21
6.809475
  0
LINE
  8
0
 10
49.600006
 20
-3.190525
 11
54.600006
 21
-3.190525
  0
LINE
  8
0
 10
49.600006
 20
-30.190525
 11
49.600006
 21
-20.190525
  0
LINE
  8
0
 10
50.600006
 20
-25.190525
 11
54.600006
 21
-25.190525
  0
LINE
  8
0
 10
49.600006
 20
-20.190525
 11
54.600006
 21
-20.190525
  0
LINE
  8
0
 10
49.600006
 20
-30.190525
 11
54.600006
 21
-30.190525
  0
LINE
  8
0
 10
54.600006
 20
7.809475
 11
54.600006
 21
-38.190525
  0
LINE
  8
0
 10
82.800003
 20
-21.190525
 11
64.600006
 21
-21.190525
  0
LINE
  8
0
 10
80.300003
 20
-29.190525
 11
64.600006
 21
-29.190525
  0
LINE
  8
0
 10
82.800003
 20
-2.190525
 11
64.600006
 21
-2.190525
  0
LINE
  8
0
 10
82.800003
 20
5.809475
 11
64.600006
 21
5.809475
  0
LINE
  8
0
 10
64.600006
 20
7.809475
 11
64.600006
 21
-38.190525
  0
LINE
  8
0
 10
64.600006
 20
-38.190525
 11
54.600006
 21
-38.190525
  0
LINE
  8
0
 10
64.600006
 20
7.809475
 11
54.600006
 21
7.809475
  0
LINE
  8
0
 10
165.000000
 20
-32.190525
 11
161.000000
 21
-32.190525
  0
LINE
  8
0
 10
165.000000
 20
-5.190525
 11
161.000000
 21
-5.190525
  0
LINE
  8
0
 10
166.000000
 20
-27.190525
 11
166.000000
 21
-37.190525
  0
LINE
  8
0
 10
166.000000
 20
-0.190525
 11
166.000000
 21
-10.190525
  0
LINE
  8
0
 10
166.000000
 20
-27.190525
 11
161.000000
 21
-27.190525
  0
LINE
  8
0
 10
166.000000
 20
-37.190525
 11
161.000000
 21
-37.190525
  0
LINE
  8
0
 10
166.000000
 20
-0.190525
 11
161.000000
 21
-0.190525
  0
LINE
  8
0
 10
166.000000
 20
-10.190525
 11
161.000000
 21
-10.190525
  0
LINE
  8
0
 10
161.000000
 20
7.809475
 11
161.000000
 21
-38.190525
  0
LINE
  8
0
  6
CENTER
 62
     2
 10
168.839996
 20
-5.190525
 11
77.070007
 21
-5.190525
  0
LINE
  8
0
 10
151.000000
 20
-1.190525
 11
135.300003
 21
-1.190525
  0
LINE
  8
0
 10
151.000000
 20
-9.190525
 11
132.800003
 21
-9.190525
  0
LINE
  8
0
  6
CENTER
 62
     2
 10
169.360001
 20
-32.190525
 11
77.410004
 21
-32.190525
  0
LINE
  8
0
 10
151.000000
 20
-36.190525
 11
132.800003
 21
-36.190525
  0
LINE
  8
0
 10
151.000000
 20
-28.190525
 11
132.800003
 21
-28.190525
  0
LINE
  8
0
  6
CENTER
 62
     2
 10
162.739990
 20
-15.190525
 11
53.710007
 21
-15.190525
  0
LINE
  8
0
 10
151.000000
 20
7.809475
 11
151.000000
 21
-38.190525
  0
LINE
  8
0
 10
151.000000
 20
-38.190525
 11
161.000000
 21
-38.190525
  0
LINE
  8
0
 10
151.000000
 20
7.809475
 11
161.000000
 21
7.809475
  0
LINE
  8
0
 10
82.800003
 20
-42.690525
 11
132.800003
 21
-42.690525
  0
LINE
  8
0
 10
82.800003
 20
-38.690525
 11
132.800003
 21
-38.690525
  0
LINE
  8
0
  6
CENTER
 62
     2
 10
88.800003
 20
-10.600526
 11
88.800003
 21
-19.290524
  0
LINE
  8
0
  6
CENTER
 62
     2
 10
126.799988
 20
-10.600526
 11
126.799988
 21
-19.290524
  0
LINE
  8
0
  6
CENTER
 62
     2
 10
107.800003
 20
14.669460
 11
107.800003
 21
-50.010517
  0
LINE
  8
0
 10
132.800003
 20
12.309475
 11
132.800003
 21
-47.690525
  0
LINE
  8
0
 10
82.800003
 20
12.309475
 11
82.800003
 21
-47.690525
  0
LINE
  8
0
 10
132.800003
 20
-47.690525
 11
82.800003
 21
-47.690525
  0
LINE
  8
0
 10
132.800003
 20
12.309475
 11
82.800003
 21
12.309475
  0
LINE
  8
0
  6
CENTER
 62
     2
 10
138.250000
 20
1.809475
 11
45.780014
 21
1.809475
  0
LINE
  8
0
  6
CENTER
 62
     2
 10
137.909988
 20
-25.190525
 11
46.320007
 21
-25.190525
  0
LINE
  8
0
  6
PHANTOM
 62
     3
 10
-169.376892
 20
-56.037064
 11
-169.376892
 21
-64.070862
  0
LINE
  8
0
  6
PHANTOM
 62
     3
 10
-82.976913
 20
-57.220810
 11
-82.976913
 21
-64.070862
  0
LINE
  8
0
  6
PHANTOM
 62
     3
 10
-98.953812
 20
-58.286179
 11
-98.953812
 21
-64.070862
  0
LINE
  8
0
  6
PHANTOM
 62
     3
 10
-153.399994
 20
-58.878036
 11
-153.399994
 21
-64.070862
  0
LINE
  8
0
 10
-67.541504
 20
-100.000000
 11
-67.541504
 21
-106.000000
  0
LINE
  8
0
 10
-67.000015
 20
-100.541496
 11
-67.541512
 21
-100.000000
  0
LINE
  8
0
 10
-67.000000
 20
-105.458496
 11
-67.541512
 21
-106.000008
  0
LINE
  8
0
 62
     2
 10
-68.000000
 20
-100.541504
 11
-67.000000
 21
-100.541504
  0
LINE
  8
0
 62
     2
 10
-68.000000
 20
-105.458504
 11
-67.000000
 21
-105.458504
  0
LINE
  8
0
 10
-67.000000
 20
-100.541504
 11
-67.000000
 21
-105.458504
  0
LINE
  8
0
 10
-68.000000
 20
-100.000000
 11
-67.541504
 21
-100.000000
  0
LINE
  8
0
 10
-68.000000
 20
-106.000000
 11
-67.541504
 21
-106.000000
  0
LINE
  8
0
 10
-67.541504
 20
-86.000000
 11
-67.541504
 21
-92.000000
  0
LINE
  8
0
 10
-67.000015
 20
-86.541504
 11
-67.541512
 21
-86.000008
  0
LINE
  8
0
 10
-67.000000
 20
-91.458504
 11
-67.541496
 21
-92.000000
  0
LINE
  8
0
 62
     2
 10
-68.000000
 20
-86.541504
 11
-67.000000
 21
-86.541504
  0
LINE
  8
0
 62
     2
 10
-68.000000
 20
-91.458511
 11
-67.000000
 21
-91.458511
  0
LINE
  8
0
 10
-67.000000
 20
-86.541504
 11
-67.000000
 21
-91.458511
  0
LINE
  8
0
 10
-68.000000
 20
-86.000000
 11
-67.541504
 21
-86.000000
  0
LINE
  8
0
 10
-68.000000
 20
-92.000000
 11
-67.541504
 21
-92.000000
  0
LINE
  8
0
 10
-184.858490
 20
-106.000000
 11
-184.858490
 21
-100.000000
  0
LINE
  8
0
 10
-185.399994
 20
-105.458504
 11
-184.858490
 21
-106.000015
  0
LINE
  8
0
 10
-185.399979
 20
-100.541496
 11
-184.858490
 21
-100.000000
  0
LINE
  8
0
 62
     2
 10
-184.399994
 20
-105.458504
 11
-185.399994
 21
-105.458504
  0
LINE
  8
0
 62
     2
 10
-184.399994
 20
-100.541504
 11
-185.399994
 21
-100.541504
  0
LINE
  8
0
 10
-185.399994
 20
-105.458504
 11
-185.399994
 21
-100.541504
  0
LINE
  8
0
 10
-184.399994
 20
-106.000000
 11
-184.858490
 21
-106.000000
  0
LINE
  8
0
 10
-184.399994
 20
-100.000000
 11
-184.858490
 21
-100.000000
  0
LINE
  8
0
 10
-184.858490
 20
-92.000000
 11
-184.858490
 21
-86.000000
  0
LINE
  8
0
 10
-185.399994
 20
-91.458504
 11
-184.858490
 21
-92.000000
  0
LINE
  8
0
 10
-185.399979
 20
-86.541496
 11
-184.858505
 21
-86.000008
  0
LINE
  8
0
 62
     2
 10
-184.399994
 20
-91.458511
 11
-185.399994
 21
-91.458511
  0
LINE
  8
0
 62
     2
 10
-184.399994
 20
-86.541504
 11
-185.399994
 21
-86.541504
  0
LINE
  8
0
 10
-185.399994
 20
-91.458511
 11
-185.399994
 21
-86.541504
  0
LINE
  8
0
 10
-184.399994
 20
-92.000000
 11
-184.858490
 21
-92.000000
  0
LINE
  8
0
 10
-184.399994
 20
-86.000000
 11
-184.858490
 21
-86.000000
  0
LINE
  8
0
 10
-151.199997
 20
-102.000000
 11
-101.199997
 21
-102.000000
  0
LINE
  8
0
 10
-99.600006
 20
-86.000008
 11
-100.600006
 21
-85.000008
  0
LINE
  8
0
 10
-100.600006
 20
-93.000000
 11
-100.600006
 21
-85.000000
  0
LINE
  8
0
 10
-99.600006
 20
-92.000000
 11
-99.600006
 21
-86.000000
  0
LINE
  8
0
 10
-99.600006
 20
-92.000008
 11
-100.600006
 21
-93.000008
  0
LINE
  8
0
 10
-152.799988
 20
-100.000000
 11
-151.799988
 21
-99.000000
  0
LINE
  8
0
 10
-152.799988
 20
-100.000000
 11
-152.799988
 21
-106.000000
  0
LINE
  8
0
 10
-151.799988
 20
-99.000000
 11
-151.799988
 21
-107.000000
  0
LINE
  8
0
 10
-152.799988
 20
-106.000008
 11
-151.799988
 21
-107.000008
  0
LINE
  8
0
 10
-179.399994
 20
-94.000000
 11
-169.399994
 21
-94.000000
  0
LINE
  8
0
 10
-73.000000
 20
-94.000000
 11
-83.000000
 21
-94.000000
  0
LINE
  8
0
 10
-75.000000
 20
-66.500000
 11
-83.000000
 21
-66.500000
  0
LINE
  8
0
 10
-177.399994
 20
-66.500000
 11
-169.399994
 21
-66.500000
  0
LINE
  8
0
  6
CENTER
 62
     2
 10
-112.199997
 20
-93.960007
 11
-112.199997
 21
-80.221130
  0
LINE
  8
0
 10
-68.000000
 20
-98.620003
 11
-68.000000
 21
-107.370003
  0
LINE
  8
0
 10
-73.000000
 20
-108.750000
 11
-68.750000
 21
-108.750000
  0
LINE
  8
0
 10
-73.000000
 20
-92.000000
 11
-68.750000
 21
-92.000000
  0
LINE
  8
0
 10
-73.000000
 20
-86.000000
 11
-68.750000
 21
-86.000000
  0
LINE
  8
0
 10
-73.000000
 20
-83.250000
 11
-68.750000
 21
-83.250000
  0
LINE
  8
0
 10
-73.000000
 20
-94.750000
 11
-68.750000
 21
-94.750000
  0
LINE
  8
0
 10
-68.000000
 20
-84.620010
 11
-68.000000
 21
-93.370010
  0
LINE
  8
0
 10
-73.000000
 20
-100.000000
 11
-68.750000
 21
-100.000000
  0
LINE
  8
0
 10
-73.000000
 20
-97.250000
 11
-68.750000
 21
-97.250000
  0
LINE
  8
0
 10
-73.000000
 20
-106.000000
 11
-68.750000
 21
-106.000000
  0
LINE
  8
0
 10
-83.000000
 20
-99.000000
 11
-101.199997
 21
-99.000000
  0
LINE
  8
0
 10
-83.000000
 20
-107.000000
 11
-101.199997
 21
-107.000000
  0
LINE
  8
0
 10
-83.000000
 20
-85.000000
 11
-101.199997
 21
-85.000000
  0
LINE
  8
0
 10
-83.000000
 20
-93.000000
 11
-101.199997
 21
-93.000000
  0
LINE
  8
0
 10
-73.000000
 20
-79.000000
 11
-75.000000
 21
-79.000000
  0
LINE
  8
0
 10
-73.000000
 20
-109.000000
 11
-83.000000
 21
-109.000000
  0
LINE
  8
0
 10
-75.000000
 20
-65.500000
 11
-83.000000
 21
-65.500000
  0
LINE
  8
0
 10
-83.000000
 20
-65.500000
 11
-83.000000
 21
-109.000000
  0
LINE
  8
0
 10
-75.000000
 20
-65.500000
 11
-75.000000
 21
-79.000000
  0
LINE
  8
0
 10
-73.000000
 20
-79.000000
 11
-73.000000
 21
-109.000000
  0
LINE
  8
0
  6
CENTER
 62
     2
 10
-151.199997
 20
-99.500000
 11
-102.199997
 21
-99.500000
  0
LINE
  8
0
 10
-184.399994
 20
-98.620003
 11
-184.399994
 21
-107.370003
  0
LINE
  8
0
 10
-179.399994
 20
-108.750000
 11
-183.649994
 21
-108.750000
  0
LINE
  8
0
 10
-179.399994
 20
-92.000000
 11
-183.649994
 21
-92.000000
  0
LINE
  8
0
 10
-179.399994
 20
-86.000000
 11
-183.649994
 21
-86.000000
  0
LINE
  8
0
 10
-179.399994
 20
-83.250000
 11
-183.649994
 21
-83.250000
  0
LINE
  8
0
 10
-179.399994
 20
-94.750000
 11
-183.649994
 21
-94.750000
  0
LINE
  8
0
 10
-184.399994
 20
-84.620010
 11
-184.399994
 21
-93.370010
  0
LINE
  8
0
 10
-179.399994
 20
-100.000000
 11
-183.649994
 21
-100.000000
  0
LINE
  8
0
 10
-179.399994
 20
-97.250000
 11
-183.649994
 21
-97.250000
  0
LINE
  8
0
 10
-179.399994
 20
-106.000000
 11
-183.649994
 21
-106.000000
  0
LINE
  8
0
  6
CENTER
 62
     2
 10
-188.239990
 20
-103.000000
 11
-64.360001
 21
-103.000000
  0
LINE
  8
0
 10
-169.399994
 20
-99.000000
 11
-151.199997
 21
-99.000000
  0
LINE
  8
0
 10
-169.399994
 20
-107.000000
 11
-151.199997
 21
-107.000000
  0
LINE
  8
0
 10
-169.399994
 20
-85.000000
 11
-151.199997
 21
-85.000000
  0
LINE
  8
0
 10
-169.399994
 20
-93.000000
 11
-151.199997
 21
-93.000000
  0
LINE
  8
0
  6
CENTER
 62
     2
 10
-188.739990
 20
-89.000000
 11
-63.279999
 21
-89.000000
  0
LINE
  8
0
 10
-179.399994
 20
-79.000000
 11
-177.399994
 21
-79.000000
  0
LINE
  8
0
 10
-179.399994
 20
-109.000000
 11
-169.399994
 21
-109.000000
  0
LINE
  8
0
 10
-177.399994
 20
-65.500000
 11
-169.399994
 21
-65.500000
  0
LINE
  8
0
 10
-169.399994
 20
-65.500000
 11
-169.399994
 21
-109.000000
  0
LINE
  8
0
 10
-177.399994
 20
-65.500000
 11
-177.399994
 21
-79.000000
  0
LINE
  8
0
 10
-179.399994
 20
-79.000000
 11
-179.399994
 21
-109.000000
  0
LINE
  8
0
 10
-151.199997
 20
-106.500000
 11
-101.199997
 21
-106.500000
  0
LINE
  8
0
 10
-151.199997
 20
-81.500000
 11
-101.199997
 21
-81.500000
  0
LINE
  8
0
 10
-151.199997
 20
-97.000000
 11
-101.199997
 21
-97.000000
  0
LINE
  8
0
 10
-151.199997
 20
-101.099998
 11
-101.199997
 21
-101.099998
  0
LINE
  8
0
 10
-151.199997
 20
-97.900002
 11
-101.199997
 21
-97.900002
  0
LINE
  8
0
 10
-151.199997
 20
-110.500000
 11
-101.199997
 21
-110.500000
  0
LINE
  8
0
  6
CENTER
 62
     2
 10
-140.199997
 20
-96.610001
 11
-140.199997
 21
-83.900009
  0
LINE
  8
0
  6
CENTER
 62
     2
 10
-146.189987
 20
-91.000000
 11
-133.769989
 21
-91.000000
  0
LINE
  8
0
  6
CENTER
 62
     2
 10
-118.299995
 20
-87.000000
 11
-103.340012
 21
-87.000000
  0
LINE
  8
0
  6
CENTER
 62
     2
 10
-126.199997
 20
-75.900009
 11
-126.199997
 21
-114.900002
  0
LINE
  8
0
 10
-151.199997
 20
-78.500000
 11
-101.199997
 21
-78.500000
  0
LINE
  8
0
 10
-101.199997
 20
-78.500000
 11
-101.199997
 21
-110.500000
  0
LINE
  8
0
 10
-151.199997
 20
-78.500000
 11
-151.199997
 21
-110.500000
  0
LINE
  8
0
  6
PHANTOM
 62
     3
 10
-82.976898
 20
29.029236
 11
-82.976898
 21
37.519501
  0
LINE
  8
0
  6
PHANTOM
 62
     3
 10
-98.953812
 20
31.151794
 11
-98.953812
 21
37.519501
  0
LINE
  8
0
  6
PHANTOM
 62
     3
 10
-153.399979
 20
31.151794
 11
-153.399979
 21
37.519501
  0
LINE
  8
0
  6
PHANTOM
 62
     3
 10
-169.376892
 20
29.029236
 11
-169.376892
 21
37.519501
  0
LINE
  8
0
 10
-67.518402
 20
64.959991
 11
-67.518402
 21
58.959991
  0
LINE
  8
0
 10
-66.976898
 20
64.418495
 11
-67.518394
 21
64.959991
  0
LINE
  8
0
 10
-66.976913
 20
59.501492
 11
-67.518410
 21
58.959995
  0
LINE
  8
0
 62
     2
 10
-67.976898
 20
64.418503
 11
-66.976898
 21
64.418503
  0
LINE
  8
0
 62
     2
 10
-67.976898
 20
59.501495
 11
-66.976898
 21
59.501495
  0
LINE
  8
0
 10
-66.976898
 20
64.418503
 11
-66.976898
 21
59.501495
  0
LINE
  8
0
 10
-67.976898
 20
64.959991
 11
-67.518402
 21
64.959991
  0
LINE
  8
0
 10
-67.976898
 20
58.959991
 11
-67.518402
 21
58.959991
  0
LINE
  8
0
 10
-67.518402
 20
78.959991
 11
-67.518402
 21
72.959991
  0
LINE
  8
0
 10
-66.976898
 20
78.418488
 11
-67.518410
 21
78.959999
  0
LINE
  8
0
 10
-66.976913
 20
73.501488
 11
-67.518410
 21
72.959991
  0
LINE
  8
0
 62
     2
 10
-67.976898
 20
78.418495
 11
-66.976898
 21
78.418495
  0
LINE
  8
0
 62
     2
 10
-67.976898
 20
73.501495
 11
-66.976898
 21
73.501495
  0
LINE
  8
0
 10
-66.976898
 20
78.418495
 11
-66.976898
 21
73.501495
  0
LINE
  8
0
 10
-67.976898
 20
78.959991
 11
-67.518402
 21
78.959991
  0
LINE
  8
0
 10
-67.976898
 20
72.959991
 11
-67.518402
 21
72.959991
  0
LINE
  8
0
 10
-184.835388
 20
58.959991
 11
-184.835388
 21
64.959991
  0
LINE
  8
0
 10
-185.376877
 20
59.501495
 11
-184.835388
 21
58.960003
  0
LINE
  8
0
 10
-185.376892
 20
64.418495
 11
-184.835388
 21
64.959991
  0
LINE
  8
0
 62
     2
 10
-184.376892
 20
59.501495
 11
-185.376892
 21
59.501495
  0
LINE
  8
0
 62
     2
 10
-184.376892
 20
64.418503
 11
-185.376892
 21
64.418503
  0
LINE
  8
0
 10
-185.376892
 20
59.501495
 11
-185.376892
 21
64.418503
  0
LINE
  8
0
 10
-184.376892
 20
58.959991
 11
-184.835388
 21
58.959991
  0
LINE
  8
0
 10
-184.376892
 20
64.959991
 11
-184.835388
 21
64.959991
  0
LINE
  8
0
 10
-184.835388
 20
72.959991
 11
-184.835388
 21
78.959991
  0
LINE
  8
0
 10
-185.376892
 20
73.501488
 11
-184.835388
 21
72.959984
  0
LINE
  8
0
 10
-185.376892
 20
78.418488
 11
-184.835388
 21
78.959999
  0
LINE
  8
0
 62
     2
 10
-184.376892
 20
73.501495
 11
-185.376892
 21
73.501495
  0
LINE
  8
0
 62
     2
 10
-184.376892
 20
78.418495
 11
-185.376892
 21
78.418495
  0
LINE
  8
0
 10
-151.176895
 20
74.959991
 11
-101.176895
 21
74.959991
  0
LINE
  8
0
 10
-151.176895
 20
69.959991
 11
-101.176895
 21
69.959991
  0
LINE
  8
0
 10
-98.576912
 20
78.959984
 11
-99.576912
 21
79.959984
  0
LINE
  8
0
 10
-99.576904
 20
71.959991
 11
-99.576904
 21
79.959991
  0
LINE
  8
0
 10
-98.576904
 20
72.959991
 11
-98.576904
 21
78.959991
  0
LINE
  8
0
 10
-98.576897
 20
72.959991
 11
-99.576897
 21
71.959991
  0
LINE
  8
0
 10
-153.776886
 20
64.959999
 11
-152.776886
 21
65.959999
  0
LINE
  8
0
 10
-153.776886
 20
64.959991
 11
-153.776886
 21
58.959991
  0
LINE
  8
0
 10
-152.776886
 20
65.959991
 11
-152.776886
 21
57.959991
  0
LINE
  8
0
 10
-153.776886
 20
58.959991
 11
-152.776886
 21
57.959988
  0
LINE
  8
0
 10
-179.376892
 20
66.959991
 11
-169.376892
 21
66.959991
  0
LINE
  8
0
 10
-72.976898
 20
66.959991
 11
-82.976898
 21
66.959991
  0
LINE
  8
0
 10
-177.376892
 20
39.459991
 11
-169.376892
 21
39.459991
  0
LINE
  8
0
 10
-74.976898
 20
39.459991
 11
-82.976898
 21
39.459991
  0
LINE
  8
0
  6
CENTER
 62
     2
 10
-151.176895
 20
72.459991
 11
-101.176895
 21
72.459991
  0
LINE
  8
0
 10
-67.976898
 20
71.579994
 11
-67.976898
 21
80.329994
  0
LINE
  8
0
 10
-72.976898
 20
81.709991
 11
-68.726898
 21
81.709991
  0
LINE
  8
0
 10
-72.976898
 20
64.959991
 11
-68.726898
 21
64.959991
  0
LINE
  8
0
 10
-72.976898
 20
58.959991
 11
-68.726898
 21
58.959991
  0
LINE
  8
0
 10
-72.976898
 20
56.209991
 11
-68.726898
 21
56.209991
  0
LINE
  8
0
 10
-72.976898
 20
67.709991
 11
-68.726898
 21
67.709991
  0
LINE
  8
0
 10
-67.976898
 20
57.580002
 11
-67.976898
 21
66.330002
  0
LINE
  8
0
 10
-72.976898
 20
72.959991
 11
-68.726898
 21
72.959991
  0
LINE
  8
0
 10
-72.976898
 20
70.209991
 11
-68.726898
 21
70.209991
  0
LINE
  8
0
 10
-72.976898
 20
78.959991
 11
-68.726898
 21
78.959991
  0
LINE
  8
0
 10
-82.976898
 20
71.959991
 11
-101.176895
 21
71.959991
  0
LINE
  8
0
 10
-82.976898
 20
79.959991
 11
-101.176895
 21
79.959991
  0
LINE
  8
0
 10
-82.976898
 20
57.959991
 11
-101.176895
 21
57.959991
  0
LINE
  8
0
 10
-82.976898
 20
65.959991
 11
-101.176895
 21
65.959991
  0
LINE
  8
0
 10
-72.976898
 20
51.959991
 11
-74.976898
 21
51.959991
  0
LINE
  8
0
 10
-72.976898
 20
81.959991
 11
-82.976898
 21
81.959991
  0
LINE
  8
0
 10
-74.976898
 20
38.459991
 11
-82.976898
 21
38.459991
  0
LINE
  8
0
 10
-82.976898
 20
38.459991
 11
-82.976898
 21
81.959991
  0
LINE
  8
0
 10
-74.976898
 20
38.459991
 11
-74.976898
 21
51.959991
  0
LINE
  8
0
 10
-72.976898
 20
51.959991
 11
-72.976898
 21
81.959991
  0
LINE
  8
0
 10
-185.376892
 20
73.501495
 11
-185.376892
 21
78.418495
  0
LINE
  8
0
 10
-184.376892
 20
72.959991
 11
-184.835388
 21
72.959991
  0
LINE
  8
0
 10
-184.376892
 20
71.579994
 11
-184.376892
 21
80.329994
  0
LINE
  8
0
 10
-179.376892
 20
81.709991
 11
-183.626892
 21
81.709991
  0
LINE
  8
0
 10
-179.376892
 20
64.959991
 11
-183.626892
 21
64.959991
  0
LINE
  8
0
 10
-179.376892
 20
58.959991
 11
-183.626892
 21
58.959991
  0
LINE
  8
0
 10
-179.376892
 20
56.209991
 11
-183.626892
 21
56.209991
  0
LINE
  8
0
 10
-179.376892
 20
67.709991
 11
-183.626892
 21
67.709991
  0
LINE
  8
0
 10
-184.376892
 20
57.580002
 11
-184.376892
 21
66.330002
  0
LINE
  8
0
 10
-179.376892
 20
72.959991
 11
-183.626892
 21
72.959991
  0
LINE
  8
0
 10
-179.376892
 20
70.209991
 11
-183.626892
 21
70.209991
  0
LINE
  8
0
 10
-184.376892
 20
78.959991
 11
-184.835388
 21
78.959991
  0
LINE
  8
0
 10
-179.376892
 20
78.959991
 11
-183.626892
 21
78.959991
  0
LINE
  8
0
 10
-151.176895
 20
70.859993
 11
-101.176895
 21
70.859993
  0
LINE
  8
0
 10
-151.176895
 20
74.059990
 11
-101.176895
 21
74.059990
  0
LINE
  8
0
 10
-151.176895
 20
54.459991
 11
-101.176895
 21
54.459991
  0
LINE
  8
0
 10
-151.176895
 20
79.459991
 11
-101.176895
 21
79.459991
  0
LINE
  8
0
  6
CENTER
 62
     2
 10
-187.716888
 20
75.959991
 11
-64.996902
 21
75.959991
  0
LINE
  8
0
 10
-151.176895
 20
83.459991
 11
-101.176895
 21
83.459991
  0
LINE
  8
0
 10
-169.376892
 20
71.959991
 11
-151.176895
 21
71.959991
  0
LINE
  8
0
 10
-169.376892
 20
79.959991
 11
-151.176895
 21
79.959991
  0
LINE
  8
0
 10
-169.376892
 20
57.959991
 11
-151.176895
 21
57.959991
  0
LINE
  8
0
 10
-169.376892
 20
65.959991
 11
-151.176895
 21
65.959991
  0
LINE
  8
0
  6
CENTER
 62
     2
 10
-188.216888
 20
61.959991
 11
-64.706909
 21
61.959991
  0
LINE
  8
0
 10
-179.376892
 20
51.959991
 11
-177.376892
 21
51.959991
  0
LINE
  8
0
 10
-179.376892
 20
81.959991
 11
-169.376892
 21
81.959991
  0
LINE
  8
0
 10
-177.376892
 20
38.459991
 11
-169.376892
 21
38.459991
  0
LINE
  8
0
  6
CENTER
 62
     2
 10
-126.176895
 20
48.860001
 11
-126.176895
 21
85.339989
  0
LINE
  8
0
 10
-151.176895
 20
51.459991
 11
-101.176895
 21
51.459991
  0
LINE
  8
0
 10
-169.376892
 20
38.459991
 11
-169.376892
 21
81.959991
  0
LINE
  8
0
 10
-177.376892
 20
38.459991
 11
-177.376892
 21
51.959991
  0
LINE
  8
0
 10
-179.376892
 20
51.959991
 11
-179.376892
 21
81.959991
  0
LINE
  8
0
 10
-101.176895
 20
51.459991
 11
-101.176895
 21
83.459991
  0
LINE
  8
0
 10
-151.176895
 20
51.459991
 11
-151.176895
 21
83.459991
  0
LINE
  8
0
 10
14.240013
 20
12.499999
 11
17.740013
 21
8.999999
  0
LINE
  8
0
 10
14.240012
 20
-42.499996
 11
17.740011
 21
-39.000000
  0
LINE
  8
0
  6
CENTER
 62
     2
 10
3.770004
 20
-38.899994
 11
10.230011
 21
-38.899994
  0
LINE
  8
0
  6
CENTER
 62
     2
 10
3.770004
 20
8.899994
 11
10.230011
 21
8.899994
  0
LINE
  8
0
  6
DASHED
 62
     2
 10
-14.259985
 20
-24.750000
 11
-14.259985
 21
-38.000000
  0
LINE
  8
0
  6
DASHED
 62
     2
 10
-9.259995
 20
-10.250000
 11
-9.259995
 21
-19.750000
  0
LINE
  8
0
  6
DASHED
 62
     2
 10
-14.259988
 20
-5.250001
 11
-9.259988
 21
-10.250002
  0
LINE
  8
0
  6
DASHED
 62
     2
 10
-14.259987
 20
-24.749996
 11
-9.259987
 21
-19.749996
  0
LINE
  8
0
  6
DASHED
 62
     2
 10
-14.259985
 20
8.000000
 11
-14.259985
 21
-5.250000
  0
LINE
  8
0
 10
-14.259985
 20
-43.500000
 11
-10.259991
 21
-47.499996
  0
LINE
  8
0
 10
-14.259988
 20
8.499997
 11
-10.259994
 21
12.499990
  0
LINE
  8
0
 10
-14.259985
 20
-38.000000
 11
-14.259985
 21
-43.500000
  0
LINE
  8
0
 10
-13.759985
 20
8.000000
 11
-13.759985
 21
-38.000000
  0
LINE
  8
0
 10
-27.249983
 20
-37.000000
 11
-26.249990
 21
-37.999992
  0
LINE
  8
0
 10
-27.249987
 20
7.000000
 11
-26.249994
 21
7.999990
  0
LINE
  8
0
 10
8.340009
 20
-41.499992
 11
9.340009
 21
-42.499996
  0
LINE
  8
0
 10
4.640013
 20
-40.500004
 11
5.140013
 21
-41.000000
  0
LINE
  8
0
 10
8.340011
 20
11.029997
 11
8.840011
 21
10.529997
  0
LINE
  8
0
 10
4.170007
 20
12.499992
 11
5.140007
 21
11.529992
  0
LINE
  8
0
 10
8.340013
 20
-40.999996
 11
8.840012
 21
-40.500000
  0
LINE
  8
0
 10
4.240006
 20
-42.399994
 11
5.140008
 21
-41.499989
  0
LINE
  8
0
 10
8.340007
 20
11.529991
 11
9.310013
 21
12.499997
  0
LINE
  8
0
 10
4.640012
 20
10.529996
 11
5.140012
 21
11.029997
  0
LINE
  8
0
 10
8.340012
 20
-41.500000
 11
8.340012
 21
-41.000000
  0
LINE
  8
0
 10
5.140015
 20
-41.500000
 11
5.140015
 21
-41.000000
  0
LINE
  8
0
 10
8.340012
 20
11.529999
 11
8.340012
 21
11.029999
  0
LINE
  8
0
 10
5.140015
 20
11.529999
 11
5.140015
 21
11.029999
  0
LINE
  8
0
 10
4.640015
 20
-40.500000
 11
4.640015
 21
-38.899994
  0
LINE
  8
0
 10
8.840012
 20
-40.500000
 11
8.840012
 21
-38.899994
  0
LINE
  8
0
 10
4.640015
 20
10.529999
 11
4.640015
 21
8.899994
  0
LINE
  8
0
 10
8.840012
 20
10.529999
 11
8.840012
 21
8.899994
  0
LINE
  8
0
 10
1.240009
 20
-37.999992
 11
16.239998
 21
-29.339996
  0
LINE
  8
0
 10
1.240009
 20
7.999991
 11
16.240000
 21
-0.660003
  0
LINE
  8
0
 10
9.310013
 20
12.500000
 11
14.240005
 21
12.500000
  0
LINE
  8
0
  6
CENTER
 62
     2
 10
6.740005
 20
13.739990
 11
6.740005
 21
6.250000
  0
LINE
  8
0
 10
9.340012
 20
-42.500000
 11
14.240005
 21
-42.500000
  0
LINE
  8
0
 10
4.240005
 20
-47.500000
 11
4.240005
 21
-42.500000
  0
LINE
  8
0
  6
CENTER
 62
     2
 10
6.740005
 20
-48.149994
 11
6.740005
 21
-36.479996
  0
LINE
  8
0
 10
-10.259995
 20
-47.500000
 11
4.240005
 21
-47.500000
  0
LINE
  8
0
 10
17.740005
 20
9.000000
 11
17.740005
 21
-39.000000
  0
LINE
  8
0
 10
-10.259995
 20
12.500000
 11
4.170013
 21
12.500000
  0
LINE
  8
0
 10
-3.759994
 20
-3.780005
 11
1.240009
 21
-0.890003
  0
LINE
  8
0
 10
1.240005
 20
4.879990
 11
1.240005
 21
-0.890000
  0
LINE
  8
0
 10
-3.759990
 20
7.769993
 11
1.240010
 21
4.879993
  0
LINE
  8
0
 10
-8.759993
 20
4.879995
 11
-3.759990
 21
7.769996
  0
LINE
  8
0
 10
-8.759986
 20
-0.890000
 11
-3.759986
 21
-3.780000
  0
LINE
  8
0
 10
-8.759995
 20
4.879990
 11
-8.759995
 21
-0.890000
  0
LINE
  8
0
 10
10.240009
 20
-19.219997
 11
15.240012
 21
-22.109999
  0
LINE
  8
0
 10
5.240011
 20
-27.879997
 11
10.240014
 21
-30.769999
  0
LINE
  8
0
 10
15.240005
 20
-22.110001
 11
15.240005
 21
-27.879999
  0
LINE
  8
0
 10
5.240005
 20
-22.110001
 11
5.240005
 21
-27.879999
  0
LINE
  8
0
 10
5.240002
 20
-22.109989
 11
10.240005
 21
-19.219988
  0
LINE
  8
0
 10
10.240005
 20
-30.769997
 11
15.240007
 21
-27.879995
  0
LINE
  8
0
 10
-14.259985
 20
8.500000
 11
-14.259985
 21
8.000000
  0
LINE
  8
0
  6
CENTER
 62
     2
 10
-22.249985
 20
-28.330000
 11
-22.249985
 21
-21.809999
  0
LINE
  8
0
  6
CENTER
 62
     2
 10
-25.619986
 20
-25.000000
 11
16.950012
 21
-25.000000
  0
LINE
  8
0
  6
CENTER
 62
     2
 10
-22.249985
 20
-1.670000
 11
-22.249985
 21
-8.190001
  0
LINE
  8
0
  6
CENTER
 62
     2
 10
-25.619986
 20
-5.000000
 11
17.150009
 21
-5.000000
  0
LINE
  8
0
 10
16.240005
 20
-29.340000
 11
16.240005
 21
-0.660001
  0
LINE
  8
0
 10
-26.249985
 20
-38.000000
 11
1.240005
 21
-38.000000
  0
LINE
  8
0
 10
-26.249985
 20
8.000000
 11
1.240005
 21
8.000000
  0
LINE
  8
0
 10
-27.249985
 20
7.000000
 11
-27.249985
 21
-37.000000
  0
LINE
  8
0
  6
CENTER
 62
     2
 10
-3.759995
 20
13.909988
 11
-3.759995
 21
-41.909988
  0
LINE
  8
0
  6
CENTER
 62
     2
 10
-11.399985
 20
-32.000000
 11
2.640015
 21
-32.000000
  0
LINE
  8
0
  6
CENTER
 62
     2
 10
-28.929985
 20
-15.000000
 11
18.830002
 21
-15.000000
  0
LINE
  8
0
  6
CENTER
 62
     2
 10
10.240005
 20
0.620000
 11
10.240005
 21
-32.079987
  0
LINE
  8
0
  6
CENTER
 62
     2
 10
-10.559998
 20
2.000000
 11
2.640015
 21
2.000000
  0
LINE
  8
0
  6
PHANTOM
 62
     3
 10
-153.399994
 20
-45.611649
 11
-153.399994
 21
-39.389984
  0
LINE
  8
0
  6
PHANTOM
 62
     3
 10
-169.399994
 20
8.699661
 11
-169.399994
 21
17.516449
  0
LINE
  8
0
  6
PHANTOM
 62
     3
 10
-99.000000
 20
-45.611649
 11
-99.000000
 21
-39.389984
  0
LINE
  8
0
  6
PHANTOM
 62
     3
 10
-83.000000
 20
-45.611649
 11
-83.000000
 21
-39.389984
  0
LINE
  8
0
  6
PHANTOM
 62
     3
 10
-153.399994
 20
8.699661
 11
-153.399994
 21
17.516449
  0
LINE
  8
0
  6
PHANTOM
 62
     3
 10
-83.000000
 20
9.199661
 11
-83.000000
 21
17.516449
  0
LINE
  8
0
  6
PHANTOM
 62
     3
 10
-99.000000
 20
10.268707
 11
-99.000000
 21
17.516449
  0
LINE
  8
0
  6
PHANTOM
 62
     3
 10
-169.399994
 20
-45.611649
 11
-169.399994
 21
-39.389984
  0
LINE
  8
0
 10
-184.858490
 20
-35.000000
 11
-184.858490
 21
-29.000000
  0
LINE
  8
0
 10
-185.399979
 20
-34.458504
 11
-184.858490
 21
-35.000000
  0
LINE
  8
0
 10
-185.399994
 20
-29.541510
 11
-184.858490
 21
-29.000000
  0
LINE
  8
0
 62
     2
 10
-184.399994
 20
-34.458496
 11
-185.399994
 21
-34.458496
  0
LINE
  8
0
 62
     2
 10
-184.399994
 20
-29.541500
 11
-185.399994
 21
-29.541500
  0
LINE
  8
0
 10
-185.399994
 20
-34.458496
 11
-185.399994
 21
-29.541500
  0
LINE
  8
0
 10
-184.399994
 20
-35.000000
 11
-184.858490
 21
-35.000000
  0
LINE
  8
0
 10
-184.399994
 20
-29.000000
 11
-184.858490
 21
-29.000000
  0
LINE
  8
0
 10
-184.858490
 20
-8.000000
 11
-184.858490
 21
-2.000000
  0
LINE
  8
0
 10
-185.399979
 20
-7.458493
 11
-184.858490
 21
-7.999990
  0
LINE
  8
0
 10
-185.399979
 20
-2.541512
 11
-184.858475
 21
-2.000010
  0
LINE
  8
0
 62
     2
 10
-184.399994
 20
-7.458501
 11
-185.399994
 21
-7.458501
  0
LINE
  8
0
 62
     2
 10
-184.399994
 20
-2.541500
 11
-185.399994
 21
-2.541500
  0
LINE
  8
0
 10
-185.399994
 20
-7.458501
 11
-185.399994
 21
-2.541500
  0
LINE
  8
0
 10
-184.399994
 20
-8.000000
 11
-184.858490
 21
-8.000000
  0
LINE
  8
0
 10
-184.399994
 20
-2.000000
 11
-184.858490
 21
-2.000000
  0
LINE
  8
0
 10
-67.541504
 20
-22.000000
 11
-67.541504
 21
-28.000000
  0
LINE
  8
0
 10
-67.000015
 20
-22.541504
 11
-67.541512
 21
-22.000006
  0
LINE
  8
0
 10
-67.000015
 20
-27.458496
 11
-67.541512
 21
-27.999994
  0
LINE
  8
0
 62
     2
 10
-68.000000
 20
-22.541500
 11
-67.000000
 21
-22.541500
  0
LINE
  8
0
 62
     2
 10
-68.000000
 20
-27.458500
 11
-67.000000
 21
-27.458500
  0
LINE
  8
0
 10
-67.000000
 20
-22.541500
 11
-67.000000
 21
-27.458500
  0
LINE
  8
0
 10
-68.000000
 20
-22.000000
 11
-67.541504
 21
-22.000000
  0
LINE
  8
0
 10
-68.000000
 20
-28.000000
 11
-67.541504
 21
-28.000000
  0
LINE
  8
0
 10
-67.541504
 20
5.000000
 11
-67.541504
 21
-1.000000
  0
LINE
  8
0
 10
-67.000015
 20
4.458503
 11
-67.541512
 21
5.000000
  0
LINE
  8
0
 10
-67.000000
 20
-0.458497
 11
-67.541512
 21
-1.000006
  0
LINE
  8
0
 62
     2
 10
-68.000000
 20
4.458496
 11
-67.000000
 21
4.458496
  0
LINE
  8
0
 62
     2
 10
-68.000000
 20
-0.458501
 11
-67.000000
 21
-0.458501
  0
LINE
  8
0
 10
-67.000000
 20
4.458496
 11
-67.000000
 21
-0.458501
  0
LINE
  8
0
 10
-68.000000
 20
5.000000
 11
-67.541504
 21
5.000000
  0
LINE
  8
0
 10
-68.000000
 20
-1.000000
 11
-67.541504
 21
-1.000000
  0
LINE
  8
0
 10
-153.799988
 20
5.000000
 11
-153.799988
 21
-1.000000
  0
LINE
  8
0
 10
-152.799988
 20
6.000000
 11
-151.199997
 21
6.000000
  0
LINE
  8
0
 10
-152.799988
 20
-2.000000
 11
-151.199997
 21
-2.000000
  0
LINE
  8
0
 10
-152.799988
 20
6.000000
 11
-152.799988
 21
-2.000000
  0
LINE
  8
0
 10
-153.799988
 20
-1.000003
 11
-152.799988
 21
-2.000005
  0
LINE
  8
0
 10
-153.799988
 20
-28.000000
 11
-153.799988
 21
-22.000000
  0
LINE
  8
0
 10
-152.799988
 20
-21.000000
 11
-151.199997
 21
-21.000000
  0
LINE
  8
0
 10
-152.799988
 20
-28.000000
 11
-152.799988
 21
-21.000000
  0
LINE
  8
0
 10
-153.799988
 20
-21.999990
 11
-152.799988
 21
-20.999990
  0
LINE
  8
0
 10
-153.799988
 20
5.000001
 11
-152.799988
 21
5.999997
  0
LINE
  8
0
 10
-98.600006
 20
-2.000000
 11
-98.600006
 21
-8.000000
  0
LINE
  8
0
 10
-99.600006
 20
-9.000000
 11
-101.199997
 21
-9.000000
  0
LINE
  8
0
 10
-99.600006
 20
-2.000000
 11
-99.600006
 21
-9.000000
  0
LINE
  8
0
 10
-98.600014
 20
-8.000006
 11
-99.600014
 21
-9.000008
  0
LINE
  8
0
 10
-99.600006
 20
-36.000000
 11
-99.600006
 21
-28.000000
  0
LINE
  8
0
 10
-98.600006
 20
-28.999990
 11
-99.599998
 21
-27.999992
  0
LINE
  8
0
 10
-98.599991
 20
-34.999992
 11
-99.599998
 21
-35.999996
  0
LINE
  8
0
 10
-169.399994
 20
8.000000
 11
-179.399994
 21
8.000000
  0
LINE
  8
0
 10
-169.399994
 20
-38.000000
 11
-179.399994
 21
-38.000000
  0
LINE
  8
0
 10
-169.399994
 20
8.000000
 11
-169.399994
 21
-38.000000
  0
LINE
  8
0
 10
-179.399994
 20
8.000000
 11
-179.399994
 21
-38.000000
  0
LINE
  8
0
 10
-98.600006
 20
-35.000000
 11
-98.600006
 21
-29.000000
  0
LINE
  8
0
 10
-99.600006
 20
-36.000000
 11
-101.199997
 21
-36.000000
  0
LINE
  8
0
 10
-99.600006
 20
-28.000000
 11
-101.199997
 21
-28.000000
  0
LINE
  8
0
 10
-151.199997
 20
8.500000
 11
-101.199997
 21
8.500000
  0
LINE
  8
0
 10
-151.199997
 20
-43.500000
 11
-101.199997
 21
-43.500000
  0
LINE
  8
0
 10
-83.000000
 20
7.000000
 11
-75.000000
 21
7.000000
  0
LINE
  8
0
 10
-83.000000
 20
-37.000000
 11
-75.000000
 21
-37.000000
  0
LINE
  8
0
 10
-169.399994
 20
7.000000
 11
-177.399994
 21
7.000000
  0
LINE
  8
0
 10
-169.399994
 20
-37.000000
 11
-177.399994
 21
-37.000000
  0
LINE
  8
0
 10
-69.000000
 20
2.000000
 11
-73.000000
 21
2.000000
  0
LINE
  8
0
 10
-68.000000
 20
-3.000000
 11
-68.000000
 21
7.000000
  0
LINE
  8
0
 10
-68.000000
 20
7.000000
 11
-73.000000
 21
7.000000
  0
LINE
  8
0
 10
-68.000000
 20
-3.000000
 11
-73.000000
 21
-3.000000
  0
LINE
  8
0
 10
-68.000000
 20
-30.000000
 11
-68.000000
 21
-20.000000
  0
LINE
  8
0
 10
-69.000000
 20
-25.000000
 11
-73.000000
 21
-25.000000
  0
LINE
  8
0
 10
-68.000000
 20
-20.000000
 11
-73.000000
 21
-20.000000
  0
LINE
  8
0
 10
-68.000000
 20
-30.000000
 11
-73.000000
 21
-30.000000
  0
LINE
  8
0
 10
-183.399994
 20
-32.000000
 11
-179.399994
 21
-32.000000
  0
LINE
  8
0
 10
-183.399994
 20
-5.000000
 11
-179.399994
 21
-5.000000
  0
LINE
  8
0
 10
-184.399994
 20
-27.000000
 11
-184.399994
 21
-37.000000
  0
LINE
  8
0
 10
-184.399994
 20
0.000000
 11
-184.399994
 21
-10.000000
  0
LINE
  8
0
 10
-184.399994
 20
-27.000000
 11
-179.399994
 21
-27.000000
  0
LINE
  8
0
 10
-184.399994
 20
-37.000000
 11
-179.399994
 21
-37.000000
  0
LINE
  8
0
 10
-184.399994
 20
0.000000
 11
-179.399994
 21
0.000000
  0
LINE
  8
0
 10
-184.399994
 20
-10.000000
 11
-179.399994
 21
-10.000000
  0
LINE
  8
0
 10
-73.000000
 20
8.000000
 11
-73.000000
 21
-38.000000
  0
LINE
  8
0
 10
-151.199997
 20
-5.250000
 11
-101.199997
 21
-5.250000
  0
LINE
  8
0
 10
-151.199997
 20
-10.250000
 11
-101.199997
 21
-10.250000
  0
LINE
  8
0
 10
-151.199997
 20
-19.750000
 11
-101.199997
 21
-19.750000
  0
LINE
  8
0
 10
-151.199997
 20
-24.750000
 11
-101.199997
 21
-24.750000
  0
LINE
  8
0
  6
CENTER
 62
     2
 10
-107.199997
 20
-8.140000
 11
-107.199997
 21
-22.719999
  0
LINE
  8
0
  6
CENTER
 62
     2
 10
-145.199997
 20
-8.140000
 11
-145.199997
 21
-21.459999
  0
LINE
  8
0
  6
CENTER
 62
     2
 10
-155.609985
 20
-25.000000
 11
-64.710007
 21
-25.000000
  0
LINE
  8
0
  6
CENTER
 62
     2
 10
-187.239990
 20
-5.000000
 11
-95.970001
 21
-5.000000
  0
LINE
  8
0
 10
-101.199997
 20
-21.000000
 11
-83.000000
 21
-21.000000
  0
LINE
  8
0
 10
-98.600006
 20
-29.000000
 11
-83.000000
 21
-29.000000
  0
LINE
  8
0
 10
-169.399994
 20
-1.000000
 11
-153.799988
 21
-1.000000
  0
LINE
  8
0
 10
-169.399994
 20
-9.000000
 11
-151.199997
 21
-9.000000
  0
LINE
  8
0
  6
CENTER
 62
     2
 10
-187.749985
 20
-32.000000
 11
-95.809998
 21
-32.000000
  0
LINE
  8
0
  6
CENTER
 62
     2
 10
-155.949997
 20
2.000000
 11
-64.180008
 21
2.000000
  0
LINE
  8
0
 10
-101.199997
 20
-2.000000
 11
-83.000000
 21
-2.000000
  0
LINE
  8
0
 10
-101.199997
 20
6.000000
 11
-83.000000
 21
6.000000
  0
LINE
  8
0
 10
-169.399994
 20
-36.000000
 11
-151.199997
 21
-36.000000
  0
LINE
  8
0
 10
-169.399994
 20
-28.000000
 11
-151.199997
 21
-28.000000
  0
LINE
  8
0
  6
CENTER
 62
     2
 10
-181.129990
 20
-15.000000
 11
-72.100006
 21
-15.000000
  0
LINE
  8
0
 10
-177.399994
 20
8.000000
 11
-177.399994
 21
-38.000000
  0
LINE
  8
0
  6
CENTER
 62
     2
 10
-126.199997
 20
15.059998
 11
-126.199997
 21
-49.859985
  0
LINE
  8
0
 10
-151.199997
 20
12.500000
 11
-151.199997
 21
-47.500000
  0
LINE
  8
0
 10
-101.199997
 20
12.500000
 11
-101.199997
 21
-47.500000
  0
LINE
  8
0
 10
-75.000000
 20
8.000000
 11
-75.000000
 21
-38.000000
  0
LINE
  8
0
 10
-83.000000
 20
8.000000
 11
-83.000000
 21
-38.000000
  0
LINE
  8
0
 10
-151.199997
 20
-47.500000
 11
-101.199997
 21
-47.500000
  0
LINE
  8
0
 10
-151.199997
 20
12.500000
 11
-101.199997
 21
12.500000
  0
LINE
  8
0
 10
-83.000000
 20
-38.000000
 11
-73.000000
 21
-38.000000
  0
LINE
  8
0
 10
-83.000000
 20
8.000000
 11
-73.000000
 21
8.000000
  0
LINE
  8
0
 10
-194.250000
 20
132.600006
 11
194.800003
 21
132.600006
  0
LINE
  8
0
 10
194.800003
 20
132.600006
 11
194.800003
 21
-133.500000
  0
LINE
  8
0
 10
-194.250000
 20
132.600006
 11
-194.250000
 21
-133.500000
  0
LINE
  8
0
 10
-194.250000
 20
-133.500000
 11
194.800003
 21
-133.500000
  0
LINE
  8
0
 10
109.800003
 20
-118.500000
 11
109.800003
 21
-133.500000
  0
LINE
  8
0
 10
109.800003
 20
-118.500000
 11
194.800003
 21
-118.500000
  0
LINE
  8
0
 10
109.800003
 20
132.600006
 11
109.800003
 21
117.600006
  0
LINE
  8
0
 10
109.800003
 20
117.600006
 11
194.800003
 21
117.600006
  0
LINE
  8
0
 10
-194.250000
 20
117.600006
 11
-109.250000
 21
117.600006
  0
LINE
  8
0
 10
-109.250000
 20
132.600006
 11
-109.250000
 21
117.600006
  0
CIRCLE
  8
0
 10
88.805664
 20
-15.190517
 40
2.458500
  0
CIRCLE
  8
0
 10
88.805664
 20
-15.190517
 40
2.066999
  0
ARC
  8
0
 10
53.230652
 20
-22.690525
 40
3.629090
 50
136.458649
 51
223.541290
  0
ARC
  8
0
 10
162.380661
 20
-34.690525
 40
3.620892
 50
316.335236
 51
43.664764
  0
ARC
  8
0
 10
162.380661
 20
-29.690525
 40
3.620892
 50
316.335236
 51
43.664764
  0
ARC
  8
0
 10
162.380661
 20
-7.690525
 40
3.620891
 50
316.335236
 51
43.664757
  0
ARC
  8
0
 10
162.380661
 20
-2.690525
 40
3.620891
 50
316.335236
 51
43.664757
  0
ARC
  8
0
 10
53.230652
 20
-0.690525
 40
3.629091
 50
136.458649
 51
223.541275
  0
ARC
  8
0
 10
53.230652
 20
-27.690525
 40
3.629090
 50
136.458649
 51
223.541290
  0
ARC
  8
0
 10
53.230652
 20
4.309475
 40
3.629091
 50
136.458649
 51
223.541275
  0
CIRCLE
  8
0
 10
107.805664
 20
-15.190517
 40
15.000000
  0
CIRCLE
  8
0
 62
     2
 10
126.805649
 20
-15.190517
 40
3.000000
  0
CIRCLE
  8
0
 62
     2
 10
88.805664
 20
-15.190517
 40
3.000000
  0
CIRCLE
  8
0
 10
88.805664
 20
-15.190517
 40
2.066999
  0
CIRCLE
  8
0
 10
126.805649
 20
-15.190517
 40
2.458500
  0
CIRCLE
  8
0
 10
-140.199997
 20
-90.999969
 40
2.066999
  0
ARC
  8
0
 10
-74.375000
 20
-89.000000
 40
6.374987
 50
331.927460
 51
28.072552
  0
ARC
  8
0
 10
-69.635406
 20
-107.375000
 40
1.635403
 50
302.778320
 51
57.221668
  0
ARC
  8
0
 10
-69.635406
 20
-98.625000
 40
1.635403
 50
302.778320
 51
57.221668
  0
ARC
  8
0
 10
-69.635406
 20
-84.625000
 40
1.635403
 50
302.778320
 51
57.221668
  0
ARC
  8
0
 10
-69.635406
 20
-93.375000
 40
1.635403
 50
302.778320
 51
57.221668
  0
ARC
  8
0
 10
-182.764587
 20
-98.625000
 40
1.635403
 50
122.778328
 51
237.221664
  0
ARC
  8
0
 10
-178.024994
 20
-103.000000
 40
6.374987
 50
151.927444
 51
208.072556
  0
ARC
  8
0
 10
-182.764587
 20
-107.375000
 40
1.635403
 50
122.778328
 51
237.221664
  0
ARC
  8
0
 10
-182.764587
 20
-84.625000
 40
1.635403
 50
122.778328
 51
237.221664
  0
ARC
  8
0
 10
-178.024994
 20
-89.000000
 40
6.374987
 50
151.927444
 51
208.072556
  0
ARC
  8
0
 10
-182.764587
 20
-93.375000
 40
1.635403
 50
122.778328
 51
237.221664
  0
ARC
  8
0
 10
-74.375000
 20
-103.000000
 40
6.374987
 50
331.927460
 51
28.072552
  0
CIRCLE
  8
0
 62
     2
 10
-140.199997
 20
-90.999969
 40
2.500000
  0
CIRCLE
  8
0
 10
-140.199997
 20
-90.999969
 40
4.250000
  0
CIRCLE
  8
0
 10
-112.199982
 20
-86.999969
 40
4.250000
  0
CIRCLE
  8
0
 62
     2
 10
-112.199982
 20
-86.999969
 40
2.500000
  0
CIRCLE
  8
0
 10
-112.199982
 20
-86.999969
 40
2.066999
  0
ARC
  8
0
 10
-69.612289
 20
57.584991
 40
1.635403
 50
302.778320
 51
57.221668
  0
ARC
  8
0
 10
-74.351883
 20
61.959991
 40
6.374987
 50
331.927460
 51
28.072552
  0
ARC
  8
0
 10
-69.612289
 20
66.334991
 40
1.635403
 50
302.778320
 51
57.221668
  0
ARC
  8
0
 10
-69.612289
 20
71.584991
 40
1.635403
 50
302.778320
 51
57.221668
  0
ARC
  8
0
 10
-69.612289
 20
80.334991
 40
1.635403
 50
302.778320
 51
57.221668
  0
ARC
  8
0
 10
-74.351883
 20
75.959991
 40
6.374987
 50
331.927460
 51
28.072552
  0
ARC
  8
0
 10
-182.741501
 20
71.584991
 40
1.635403
 50
122.778328
 51
237.221664
  0
ARC
  8
0
 10
-178.001907
 20
75.959991
 40
6.374987
 50
151.927444
 51
208.072556
  0
ARC
  8
0
 10
-182.741501
 20
80.334991
 40
1.635403
 50
122.778328
 51
237.221664
  0
ARC
  8
0
 10
-182.741501
 20
57.584991
 40
1.635403
 50
122.778328
 51
237.221664
  0
ARC
  8
0
 10
-178.001907
 20
61.959991
 40
6.374987
 50
151.927444
 51
208.072556
  0
ARC
  8
0
 10
-182.741501
 20
66.334991
 40
1.635403
 50
122.778328
 51
237.221664
  0
CIRCLE
  8
0
 10
-112.176880
 20
63.959991
 40
1.000000
  0
CIRCLE
  8
0
 10
-140.176895
 20
59.959991
 40
1.000000
  0
CIRCLE
  8
0
 10
-22.252934
 20
-4.999992
 40
2.066999
  0
CIRCLE
  8
0
 62
     2
 10
10.247055
 20
-24.999992
 40
2.458492
  0
CIRCLE
  8
0
 62
     2
 10
-3.752945
 20
2.000000
 40
2.458492
  0
CIRCLE
  8
0
 10
10.247055
 20
-4.999992
 40
3.000000
  0
CIRCLE
  8
0
 10
10.247055
 20
-4.999992
 40
4.000000
  0
CIRCLE
  8
0
 10
-3.752945
 20
-31.999985
 40
3.000000
  0
CIRCLE
  8
0
 10
-3.752945
 20
2.000000
 40
6.000000
  0
CIRCLE
  8
0
 10
10.247055
 20
-24.999992
 40
6.000000
  0
ARC
  8
0
 10
6.740005
 20
8.899994
 40
2.099999
 50
180.000031
 51
0.000000
  0
ARC
  8
0
 10
6.740005
 20
-38.899994
 40
2.099999
 50
0.000000
 51
180.000000
  0
ARC
  8
0
 10
-3.759995
 20
-31.999969
 40
8.499448
 50
224.904770
 51
325.110138
  0
CIRCLE
  8
0
 10
-3.752945
 20
-31.999985
 40
4.000000
  0
CIRCLE
  8
0
 10
-3.752945
 20
-31.999985
 40
5.000000
  0
CIRCLE
  8
0
 10
-3.752945
 20
2.000000
 40
5.000000
  0
CIRCLE
  8
0
 10
-3.752945
 20
2.000000
 40
3.000000
  0
CIRCLE
  8
0
 10
10.247055
 20
-4.999992
 40
5.000000
  0
CIRCLE
  8
0
 10
10.247055
 20
-24.999992
 40
5.000000
  0
CIRCLE
  8
0
 10
10.247055
 20
-24.999992
 40
3.000000
  0
ARC
  8
0
 10
-3.759995
 20
2.000000
 40
8.499431
 50
34.889778
 51
135.095352
  0
CIRCLE
  8
0
 10
-22.252934
 20
-24.999992
 40
2.066999
  0
CIRCLE
  8
0
 62
     2
 10
-22.252934
 20
-24.999992
 40
2.500000
  0
CIRCLE
  8
0
 62
     2
 10
-22.252934
 20
-4.999992
 40
2.500000
  0
ARC
  8
0
 10
-71.625000
 20
4.500000
 40
3.624989
 50
316.397034
 51
43.602982
  0
ARC
  8
0
 10
-71.625000
 20
-0.500000
 40
3.624989
 50
316.397034
 51
43.602982
  0
ARC
  8
0
 10
-71.625000
 20
-22.500000
 40
3.624989
 50
316.397003
 51
43.602985
  0
ARC
  8
0
 10
-71.625000
 20
-27.500000
 40
3.624989
 50
316.397003
 51
43.602985
  0
ARC
  8
0
 10
-180.774994
 20
-34.500000
 40
3.624989
 50
136.397018
 51
223.602936
  0
ARC
  8
0
 10
-180.774994
 20
-29.500000
 40
3.624989
 50
136.397018
 51
223.602966
  0
ARC
  8
0
 10
-180.774994
 20
-7.500000
 40
3.624990
 50
136.397003
 51
223.602951
  0
ARC
  8
0
 10
-180.774994
 20
-2.500000
 40
3.624990
 50
136.397003
 51
223.602951
  0
CIRCLE
  8
0
 10
-107.199982
 20
-14.999992
 40
2.650000
  0
CIRCLE
  8
0
 10
-145.199997
 20
-14.999992
 40
2.650000
  0
TEXT
  8
0
 62
     3
 10
152.026138
 20
-56.292023
 40
2.500000
  1
OPEN
 50
90.000000
 41
1.052632
 51
0.000000
  7
STANDARD
  0
TEXT
  8
0
 62
     3
 10
136.332275
 20
-58.071014
 40
2.500000
  1
CLOSE
 50
90.000000
 41
1.052632
 51
0.000000
  7
STANDARD
  0
TEXT
  8
0
 62
     3
 10
81.668274
 20
-58.423691
 40
2.500000
  1
CLOSE
 50
90.000000
 41
1.052632
 51
0.000000
  7
STANDARD
  0
TEXT
  8
0
 62
     3
 10
65.621750
 20
-55.939346
 40
2.500000
  1
OPEN
 50
90.000000
 41
1.052632
 51
0.000000
  7
STANDARD
  0
TEXT
  8
0
 62
     3
 10
152.026138
 20
19.003235
 40
2.500000
  1
OPEN
 50
90.000000
 41
1.052632
 51
0.000000
  7
STANDARD
  0
TEXT
  8
0
 62
     3
 10
136.155945
 20
18.458572
 40
2.500000
  1
CLOSE
 50
90.000000
 41
1.052632
 51
0.000000
  7
STANDARD
  0
TEXT
  8
0
 62
     3
 10
81.668274
 20
18.105896
 40
2.500000
  1
CLOSE
 50
90.000000
 41
1.052632
 51
0.000000
  7
STANDARD
  0
TEXT
  8
0
 62
     3
 10
65.798080
 20
18.474228
 40
2.500000
  1
OPEN
 50
90.000000
 41
1.052632
 51
0.000000
  7
STANDARD
  0
TEXT
  8
0
 62
     3
 10
-81.973862
 20
-56.101486
 40
2.500000
  1
OPEN
 50
90.000000
 41
1.052632
 51
0.000000
  7
STANDARD
  0
TEXT
  8
0
 62
     3
 10
-97.667709
 20
-57.880493
 40
2.500000
  1
CLOSE
 50
90.000000
 41
1.052632
 51
0.000000
  7
STANDARD
  0
TEXT
  8
0
 62
     3
 10
-152.331726
 20
-58.233170
 40
2.500000
  1
CLOSE
 50
90.000000
 41
1.052632
 51
0.000000
  7
STANDARD
  0
TEXT
  8
0
 62
     3
 10
-168.378250
 20
-55.748825
 40
2.500000
  1
OPEN
 50
90.000000
 41
1.052632
 51
0.000000
  7
STANDARD
  0
TEXT
  8
0
 62
     3
 10
-81.973862
 20
19.193756
 40
2.500000
  1
OPEN
 50
90.000000
 41
1.052632
 51
0.000000
  7
STANDARD
  0
TEXT
  8
0
 62
     3
 10
-97.844055
 20
18.649094
 40
2.500000
  1
CLOSE
 50
90.000000
 41
1.052632
 51
0.000000
  7
STANDARD
  0
TEXT
  8
0
 62
     3
 10
-152.331726
 20
18.296432
 40
2.500000
  1
CLOSE
 50
90.000000
 41
1.052632
 51
0.000000
  7
STANDARD
  0
TEXT
  8
0
 62
     3
 10
-168.201920
 20
18.664749
 40
2.500000
  1
OPEN
 50
90.000000
 41
1.052632
 51
0.000000
  7
STANDARD
  0
TEXT
  8
0
 10
-186.892654
 20
104.550003
 40
4.500000
  1
MODEL:WHDP-16
 50
0.000000
 41
1.052632
 51
0.000000
  7
STANDARD
  0
TEXT
  8
0
 10
133.907150
 20
122.050003
 40
4.500000
  1
Ｖｅｒ．　１．０
 50
0.000000
 41
0.833333
 51
0.000000
  7
STANDARD
  0
TEXT
  8
0
 10
113.700279
 20
-130.669998
 40
6.300000
  1
KOGANEI CORP.
 50
0.000000
 41
1.052632
 51
0.000000
  7
STANDARD
  0
TEXT
  8
0
 10
-192.642654
 20
122.050003
 40
4.500000
  1
WIDE TYPE AIR HAND
 50
0.000000
 41
1.052632
 51
0.000000
  7
STANDARD
  0
ENDSEC
  0
EOF
