  0
SECTION
  2
HEADER
  0
ENDSEC
  0
SECTION
  2
TABLES
  0
TABLE
  2
LTYPE
 70
     4
  0
LTYPE
  2
CONTINUOUS
 70
    64
  3
Solid line
 72
    65
 73
     0
 40
0.000000
  0
LTYPE
  2
DASHED
 70
    64
  3
__ __ __ __ __ __ __ __ __ __ __ __ __ __ __
 72
    65
 73
     2
 40
3.500000
 49
2.000000
 49
-1.500000
  0
LTYPE
  2
CENTER
 70
    64
  3
____ _ ____ _ ____ _ ____ _ ____ _ ____ _ ____
 72
    65
 73
     4
 40
17.500000
 49
13.000000
 49
-1.500000
 49
1.500000
 49
-1.500000
  0
LTYPE
  2
PHANTOM
 70
    64
  3
_____ _ _ _____ _ _ _____ _ _ _____ _ _ ____  
 72
    65
 73
     6
 40
15.500000
 49
8.000000
 49
-1.500000
 49
1.500000
 49
-1.500000
 49
1.500000
 49
-1.500000
  0
LTYPE
  2
DASHED1
 70
    64
  3
__ __ __ __ __ __ __ __ __ __ __ __ __ __ __
 72
    65
 73
     2
 40
1.500000
 49
1.000000
 49
-0.500000
  0
LTYPE
  2
DASHED2
 70
    64
  3
__ __ __ __ __ __ __ __ __ __ __ __ __ __ __
 72
    65
 73
     2
 40
3.500000
 49
2.500000
 49
-1.000000
  0
LTYPE
  2
DASHED3
 70
    64
  3
__ __ __ __ __ __ __ __ __ __ __ __ __ __ __
 72
    65
 73
     2
 40
6.000000
 49
4.000000
 49
-2.000000
  0
LTYPE
  2
DASHED4
 70
    64
  3
__ __ __ __ __ __ __ __ __ __ __ __ __ __ __
 72
    65
 73
     2
 40
12.000000
 49
10.000000
 49
-2.000000
  0
LTYPE
  2
DASHED5
 70
    64
  3
__ __ __ __ __ __ __ __ __ __ __ __ __ __ __
 72
    65
 73
     2
 40
17.000000
 49
15.000000
 49
-2.000000
  0
LTYPE
  2
DASHED6
 70
    64
  3
__ __ __ __ __ __ __ __ __ __ __ __ __ __ __
 72
    65
 73
     2
 40
29.000000
 49
27.000000
 49
-2.000000
  0
LTYPE
  2
PHANTOM1
 70
    64
  3
_____ _ _ _____ _ _ _____ _ _ _____ _ _ ____  
 72
    65
 73
     6
 40
31.000000
 49
25.000000
 49
-1.500000
 49
1.000000
 49
-1.000000
 49
1.000000
 49
-1.500000
  0
LTYPE
  2
PHANTOM2
 70
    64
  3
_____ _ _ _____ _ _ _____ _ _ _____ _ _ ____  
 72
    65
 73
     6
 40
36.000000
 49
27.000000
 49
-1.500000
 49
2.500000
 49
-1.000000
 49
2.500000
 49
-1.500000
  0
LTYPE
  2
PHANTOM3
 70
    64
  3
_____ _ _ _____ _ _ _____ _ _ _____ _ _ ____  
 72
    65
 73
     6
 40
78.000000
 49
64.000000
 49
-2.000000
 49
4.000000
 49
-2.000000
 49
4.000000
 49
-2.000000
  0
LTYPE
  2
CENTER1
 70
    64
  3
____ _ ____ _ ____ _ ____ _ ____ _ ____ _ ____
 72
    65
 73
     4
 40
19.000000
 49
14.000000
 49
-1.000000
 49
3.000000
 49
-1.000000
  0
LTYPE
  2
CENTER2
 70
    64
  3
____ _ ____ _ ____ _ ____ _ ____ _ ____ _ ____
 72
    65
 73
     4
 40
28.500000
 49
25.000000
 49
-1.000000
 49
1.500000
 49
-1.000000
  0
LTYPE
  2
CENTER3
 70
    64
  3
____ _ ____ _ ____ _ ____ _ ____ _ ____ _ ____
 72
    65
 73
     4
 40
31.500000
 49
27.000000
 49
-1.000000
 49
2.500000
 49
-1.000000
  0
LTYPE
  2
CENTER4
 70
    64
  3
____ _ ____ _ ____ _ ____ _ ____ _ ____ _ ____
 72
    65
 73
     4
 40
50.000000
 49
45.000000
 49
-1.000000
 49
3.000000
 49
-1.000000
  0
LTYPE
  2
CENTER5
 70
    64
  3
____ _ ____ _ ____ _ ____ _ ____ _ ____ _ ____
 72
    65
 73
     4
 40
100.000000
 49
92.000000
 49
-2.000000
 49
4.000000
 49
-2.000000
  0
LTYPE
  2
SBK1
 70
    64
  3
______ _ _ _ ______ _ _ _ ______ _ _ _ _____  
 72
    65
 73
     8
 40
60.500000
 49
45.000000
 49
-2.000000
 49
2.500000
 49
-2.000000
 49
2.500000
 49
-2.000000
 49
2.500000
 49
-2.000000
  0
LTYPE
  2
SBK2
 70
    64
  3
______ _ _ _ ______ _ _ _ ______ _ _ _ _____  
 72
    65
 73
     8
 40
84.000000
 49
64.000000
 49
-2.000000
 49
4.000000
 49
-2.000000
 49
4.000000
 49
-2.000000
 49
4.000000
 49
-2.000000
  0
LTYPE
  2
STCH
 70
    64
  3
__ __ __ __ __ __ __ __ __ __ __ __ __ __ __
 72
    65
 73
     2
 40
3.000000
 49
1.000000
 49
-2.000000
  0
LTYPE
  2
MTCH
 70
    64
  3
_____ _ _ _____ _ _ _____ _ _ _____ _ _ ____  
 72
    65
 73
     6
 40
80.000000
 49
66.000000
 49
-2.000000
 49
4.000000
 49
-2.000000
 49
4.000000
 49
-2.000000
  0
ENDTAB
  0
TABLE
  2
LAYER
 70
     1
  0
LAYER
  2
0
 70
     0
 62
     7
  6
CONTINUOUS
  0
ENDTAB
  0
TABLE
  2
STYLE
 70
     1
  0
STYLE
  2
STANDARD
 70
     0
 40
0.000000
 41
1.000000
 50
0.000000
 71
     0
 42
0.200000
  3
txt
  4
BIGFONT
  0
ENDTAB
  0
TABLE
  2
VIEW
 70
     0
  0
ENDTAB
  0
ENDSEC
  0
SECTION
  2
BLOCKS
  0
ENDSEC
  0
SECTION
  2
ENTITIES
  0
LINE
  8
0
 10
-281.250000
 20
195.500000
 11
282.099976
 21
195.500000
  0
LINE
  8
0
 10
-281.250000
 20
195.500000
 11
-281.250000
 21
-195.000000
  0
LINE
  8
0
 10
282.099976
 20
195.500000
 11
282.099976
 21
-195.000000
  0
LINE
  8
0
 10
-281.250000
 20
-195.000000
 11
282.099976
 21
-195.000000
  0
LINE
  8
0
 10
162.099976
 20
-175.000000
 11
162.099976
 21
-195.000000
  0
LINE
  8
0
 10
162.099976
 20
-175.000000
 11
282.099976
 21
-175.000000
  0
LINE
  8
0
 10
162.099976
 20
175.500000
 11
282.099976
 21
175.500000
  0
LINE
  8
0
 10
-281.250000
 20
175.500000
 11
-161.250000
 21
175.500000
  0
LINE
  8
0
 10
162.099976
 20
195.500000
 11
162.099976
 21
175.500000
  0
LINE
  8
0
 10
-161.250000
 20
195.500000
 11
-161.250000
 21
175.500000
  0
LINE
  8
0
 10
-24.675049
 20
9.250000
 11
-1.675049
 21
9.250000
  0
LINE
  8
0
 10
-24.675049
 20
62.249985
 11
-1.675049
 21
62.249985
  0
LINE
  8
0
 10
-24.675049
 20
79.750000
 11
-1.675049
 21
79.750000
  0
LINE
  8
0
 10
-24.675049
 20
0.250000
 11
-1.675049
 21
0.250000
  0
LINE
  8
0
  6
CENTER
 62
     2
 10
-16.675049
 20
76.250000
 11
-9.675049
 21
76.250000
  0
LINE
  8
0
 10
-24.675049
 20
79.749985
 11
-24.675049
 21
0.250000
  0
LINE
  8
0
 10
-1.675049
 20
79.749985
 11
-1.675049
 21
0.250000
  0
LINE
  8
0
 10
-1.675049
 20
5.750000
 11
9.324951
 21
5.750000
  0
LINE
  8
0
 10
-1.675049
 20
74.250000
 11
-1.175034
 21
74.250000
  0
LINE
  8
0
  6
CENTER
 62
     2
 10
4.824951
 20
72.750000
 11
4.824951
 21
64.750000
  0
LINE
  8
0
  6
CENTER
 62
     2
 10
0.824951
 20
68.750000
 11
8.824951
 21
68.750000
  0
LINE
  8
0
 10
0.824966
 20
73.250000
 11
9.324951
 21
73.250000
  0
LINE
  8
0
 10
9.324951
 20
73.250000
 11
9.324951
 21
5.750000
  0
LINE
  8
0
 10
-1.175049
 20
62.250000
 11
-1.175049
 21
9.250000
  0
LINE
  8
0
 10
-1.675049
 20
9.250000
 11
-1.175049
 21
9.250000
  0
LINE
  8
0
 10
-1.675049
 20
62.250000
 11
-1.175049
 21
62.250000
  0
LINE
  8
0
 10
3.324951
 20
64.750000
 11
3.324951
 21
5.750000
  0
LINE
  8
0
 10
1.824966
 20
64.750000
 11
9.324951
 21
64.750000
  0
LINE
  8
0
 10
-1.675049
 20
74.250000
 11
0.824966
 21
74.250000
  0
LINE
  8
0
 10
0.824966
 20
74.250000
 11
0.824966
 21
65.750000
  0
LINE
  8
0
 10
-33.675049
 20
5.750000
 11
-24.675049
 21
5.750000
  0
LINE
  8
0
  6
CENTER
 62
     2
 10
-29.175049
 20
14.250000
 11
-29.175049
 21
6.250000
  0
LINE
  8
0
  6
CENTER
 62
     2
 10
-33.175049
 20
10.250000
 11
-25.175049
 21
10.250000
  0
LINE
  8
0
 10
-33.675049
 20
73.250000
 11
-27.175018
 21
73.250000
  0
LINE
  8
0
 10
-33.675049
 20
73.250000
 11
-33.675049
 21
5.750000
  0
LINE
  8
0
 10
-25.175049
 20
62.250000
 11
-25.175049
 21
5.750000
  0
LINE
  8
0
 10
-25.175049
 20
62.250000
 11
-24.675049
 21
62.250000
  0
LINE
  8
0
 10
-25.175049
 20
9.250000
 11
-24.675049
 21
9.250000
  0
LINE
  8
0
 10
-27.675049
 20
73.250000
 11
-27.675049
 21
14.750000
  0
LINE
  8
0
 10
-33.675049
 20
14.750000
 11
-26.175049
 21
14.750000
  0
LINE
  8
0
 10
-27.175018
 20
74.250000
 11
-24.675049
 21
74.250000
  0
LINE
  8
0
 10
-27.175018
 20
73.250000
 11
-27.175018
 21
74.250000
  0
LINE
  8
0
  6
CENTER
 62
     2
 10
-13.175049
 20
135.192963
 11
-13.175049
 21
-2.958771
  0
LINE
  8
0
 10
-22.175049
 20
25.750000
 11
-24.675049
 21
25.750000
  0
LINE
  8
0
 10
-22.175049
 20
19.750000
 11
-24.675049
 21
19.750000
  0
LINE
  8
0
 10
-4.675049
 20
13.250000
 11
-1.675049
 21
13.250000
  0
LINE
  8
0
 10
-4.675049
 20
18.250000
 11
-1.675049
 21
18.250000
  0
LINE
  8
0
 10
-4.175049
 20
37.750000
 11
-1.675049
 21
37.750000
  0
LINE
  8
0
 10
-4.175049
 20
43.750000
 11
-1.675049
 21
43.750000
  0
LINE
  8
0
 10
-21.675049
 20
58.249985
 11
-24.675049
 21
58.249985
  0
LINE
  8
0
 10
-21.675049
 20
53.249985
 11
-24.675049
 21
53.249985
  0
LINE
  8
0
 10
-22.175049
 20
51.749985
 11
-24.675049
 21
51.749985
  0
LINE
  8
0
 10
-22.175049
 20
45.750000
 11
-24.675049
 21
45.750000
  0
LINE
  8
0
 10
-23.175049
 20
60.749985
 11
-23.175049
 21
58.249985
  0
LINE
  8
0
 10
-3.175049
 20
60.749985
 11
-3.175049
 21
43.749992
  0
LINE
  8
0
 10
-23.175049
 20
60.749985
 11
-3.175049
 21
60.749985
  0
LINE
  8
0
 10
-23.175049
 20
10.750000
 11
-3.175049
 21
10.750000
  0
LINE
  8
0
 10
-23.175049
 20
19.749992
 11
-23.175049
 21
10.750000
  0
LINE
  8
0
 10
-23.175049
 20
45.749992
 11
-23.175049
 21
25.749992
  0
LINE
  8
0
 10
-23.175049
 20
53.249985
 11
-23.175049
 21
51.749985
  0
LINE
  8
0
 10
-3.175049
 20
37.749992
 11
-3.175049
 21
18.250000
  0
LINE
  8
0
 10
-3.175049
 20
13.250000
 11
-3.175049
 21
10.750000
  0
LINE
  8
0
 10
-24.675039
 20
9.249930
 11
-23.175028
 21
10.749943
  0
LINE
  8
0
 10
-3.174984
 20
10.750071
 11
-1.674971
 21
9.250058
  0
LINE
  8
0
 10
-1.674974
 20
62.249908
 11
-3.174964
 21
60.749916
  0
LINE
  8
0
 10
-24.674978
 20
62.250019
 11
-23.174988
 21
60.750027
  0
LINE
  8
0
 10
-5.735878
 20
14.689474
 11
-3.614552
 21
16.810801
  0
LINE
  8
0
 10
-22.735828
 20
54.689419
 11
-20.614508
 21
56.810738
  0
LINE
  8
0
 10
-22.735800
 20
56.810616
 11
-20.614479
 21
54.689293
  0
LINE
  8
0
 10
-5.735869
 20
16.810600
 11
-3.614548
 21
14.689280
  0
LINE
  8
0
 10
-23.235840
 20
47.689457
 11
-21.114519
 21
49.810776
  0
LINE
  8
0
 10
-23.235809
 20
49.810608
 11
-21.114489
 21
47.689289
  0
LINE
  8
0
 10
-5.235810
 20
39.689438
 11
-3.114490
 21
41.810757
  0
LINE
  8
0
 10
-5.235800
 20
41.810627
 11
-3.114479
 21
39.689304
  0
LINE
  8
0
 10
-23.235809
 20
21.689438
 11
-21.114489
 21
23.810759
  0
LINE
  8
0
 10
-23.235807
 20
23.810560
 11
-21.114487
 21
21.689240
  0
LINE
  8
0
 62
     4
 10
-24.675049
 20
100.750000
 11
-24.675049
 21
79.750000
  0
LINE
  8
0
 62
     4
 10
-1.675049
 20
100.750000
 11
-1.675049
 21
79.750000
  0
LINE
  8
0
 62
     4
 10
-24.675049
 20
99.750000
 11
-1.675049
 21
99.750000
  0
LINE
  8
0
 62
     4
 10
-24.675049
 20
100.750000
 11
-1.675049
 21
100.750000
  0
LINE
  8
0
 62
     4
 10
-2.675062
 20
102.750008
 11
-1.675055
 21
100.749992
  0
LINE
  8
0
 62
     4
 10
-17.175049
 20
102.750000
 11
-17.175049
 21
100.750000
  0
LINE
  8
0
 62
     4
 10
-23.925049
 20
101.450012
 11
-18.425049
 21
101.450012
  0
LINE
  8
0
 62
     4
 10
-18.425049
 20
101.450012
 11
-18.425049
 21
100.750000
  0
LINE
  8
0
 62
     4
 10
-23.925049
 20
101.450012
 11
-23.925049
 21
100.750000
  0
LINE
  8
0
 62
     4
 10
-23.675018
 20
102.750000
 11
-23.444916
 21
102.750000
  0
LINE
  8
0
 62
     4
 10
-21.925049
 20
103.450012
 11
-20.425049
 21
103.450012
  0
LINE
  8
0
 62
     4
 10
-5.925049
 20
103.450012
 11
-4.425049
 21
103.450012
  0
LINE
  8
0
 62
     4
 10
-18.905182
 20
102.750000
 11
-2.675079
 21
102.750000
  0
LINE
  8
0
 62
     4
 10
-24.675049
 20
98.750000
 11
-1.675049
 21
98.750000
  0
LINE
  8
0
 62
     4
 10
-23.674900
 20
102.749947
 11
-24.674910
 21
100.749939
  0
LINE
  8
0
  6
CENTER
 62
     2
 10
-26.764008
 20
126.750000
 11
6.192612
 21
126.750000
  0
LINE
  8
0
 10
-26.925018
 20
75.250000
 11
-24.675049
 21
75.250000
  0
LINE
  8
0
 10
0.574982
 20
126.750000
 11
0.574982
 21
74.249992
  0
LINE
  8
0
 10
-26.925018
 20
121.750000
 11
-26.925018
 21
74.249992
  0
LINE
  8
0
  6
CENTER
 62
     2
 10
-11.325012
 20
142.573990
 11
-11.325012
 21
112.214890
  0
LINE
  8
0
 10
-26.925018
 20
121.750000
 11
-22.175018
 21
121.750000
  0
LINE
  8
0
 10
-24.175018
 20
132.250000
 11
-24.175018
 21
121.750000
  0
LINE
  8
0
 10
-24.175018
 20
132.250000
 11
-22.175018
 21
132.250000
  0
LINE
  8
0
 10
-11.325004
 20
114.221497
 11
-13.718915
 21
115.603622
  0
LINE
  8
0
 10
-19.098074
 20
119.286644
 11
-13.901923
 21
116.286644
  0
LINE
  8
0
 10
-8.748055
 20
137.213379
 11
-3.551903
 21
134.213364
  0
LINE
  8
0
 10
-13.901838
 20
137.213226
 11
-19.097992
 21
134.213226
  0
LINE
  8
0
 10
-3.551888
 20
119.286484
 11
-8.748047
 21
116.286484
  0
LINE
  8
0
 10
-21.675018
 20
129.750000
 11
-21.675018
 21
123.750000
  0
LINE
  8
0
 10
-0.975006
 20
129.749985
 11
-0.975006
 21
123.749985
  0
LINE
  8
0
 10
-13.902202
 20
116.286575
 11
-13.719189
 21
115.603561
  0
LINE
  8
0
 10
-19.098061
 20
119.286598
 11
-19.781073
 21
119.103584
  0
LINE
  8
0
 10
-19.781092
 20
119.103622
 11
-22.175003
 21
120.485756
  0
LINE
  8
0
 10
-0.474965
 20
120.485634
 11
-2.868864
 21
119.103516
  0
LINE
  8
0
 10
-3.551978
 20
119.286514
 11
-2.868978
 21
119.103508
  0
LINE
  8
0
 10
-8.747940
 20
116.286583
 11
-8.930953
 21
115.603569
  0
LINE
  8
0
 10
-8.931055
 20
115.603508
 11
-11.324974
 21
114.221375
  0
LINE
  8
0
 10
-0.475006
 20
133.014236
 11
-0.475006
 21
130.250000
  0
LINE
  8
0
 10
-0.974896
 20
129.749863
 11
-0.474899
 21
130.249878
  0
LINE
  8
0
 10
-0.975030
 20
123.750015
 11
-0.475040
 21
123.250023
  0
LINE
  8
0
 10
-0.475006
 20
123.249985
 11
-0.475006
 21
120.485733
  0
LINE
  8
0
 10
-11.325004
 20
139.278549
 11
-8.931092
 21
137.896423
  0
LINE
  8
0
 10
-8.748191
 20
137.213318
 11
-8.931204
 21
137.896332
  0
LINE
  8
0
 10
-3.551944
 20
134.213303
 11
-2.868932
 21
134.396301
  0
LINE
  8
0
 10
-2.868916
 20
134.396408
 11
-0.475004
 21
133.014282
  0
LINE
  8
0
 10
-22.174925
 20
133.014114
 11
-19.781027
 21
134.396225
  0
LINE
  8
0
 10
-19.098059
 20
134.213303
 11
-19.781088
 21
134.396317
  0
LINE
  8
0
 10
-13.901918
 20
137.213333
 11
-13.718905
 21
137.896347
  0
LINE
  8
0
 10
-13.718836
 20
137.896240
 11
-11.324917
 21
139.278366
  0
LINE
  8
0
 10
-22.175018
 20
120.485764
 11
-22.175018
 21
123.250000
  0
LINE
  8
0
 10
-21.675087
 20
123.750099
 11
-22.175083
 21
123.250099
  0
LINE
  8
0
 10
-21.675032
 20
129.750031
 11
-22.175020
 21
130.250015
  0
LINE
  8
0
 10
-22.175018
 20
130.250015
 11
-22.175018
 21
133.014267
  0
LINE
  8
0
 10
-26.925018
 20
82.750000
 11
-24.675049
 21
82.750000
  0
LINE
  8
0
 10
-1.675049
 20
82.750000
 11
0.574982
 21
82.750000
  0
LINE
  8
0
 10
-1.675049
 20
75.250000
 11
0.574982
 21
75.250000
  0
LINE
  8
0
 10
-129.675049
 20
0.250000
 11
-94.675049
 21
0.250000
  0
LINE
  8
0
 10
-99.175049
 20
3.750000
 11
-99.175049
 21
0.250000
  0
LINE
  8
0
 10
-105.175049
 20
3.750000
 11
-105.175049
 21
0.250000
  0
LINE
  8
0
 10
-105.175049
 20
3.750000
 11
-99.175049
 21
3.750000
  0
LINE
  8
0
 10
-129.675049
 20
79.750000
 11
-129.675049
 21
0.250000
  0
LINE
  8
0
 10
-99.411835
 20
2.078209
 11
-99.411835
 21
3.750000
  0
LINE
  8
0
 10
-104.911835
 20
2.078297
 11
-104.911835
 21
3.750000
  0
LINE
  8
0
 10
-104.911835
 20
3.046478
 11
-99.411835
 21
3.046478
  0
LINE
  8
0
 10
-103.161835
 20
1.046448
 11
-101.161835
 21
1.046448
  0
LINE
  8
0
 10
-129.675049
 20
79.750000
 11
-94.675049
 21
79.750000
  0
LINE
  8
0
 10
-94.675049
 20
62.250000
 11
-129.675049
 21
62.250000
  0
LINE
  8
0
 10
-94.675049
 20
9.250000
 11
-129.675049
 21
9.250000
  0
LINE
  8
0
 10
-94.675049
 20
79.750000
 11
-94.675049
 21
0.250000
  0
LINE
  8
0
 10
-173.675018
 20
73.250000
 11
-173.675018
 21
5.750000
  0
LINE
  8
0
 10
-130.675018
 20
62.250000
 11
-130.675018
 21
9.250000
  0
LINE
  8
0
 10
-171.675018
 20
74.250000
 11
-131.675018
 21
74.250000
  0
LINE
  8
0
  6
CENTER
 62
     2
 10
-163.675018
 20
66.750000
 11
-163.675018
 21
54.750000
  0
LINE
  8
0
  6
CENTER
 62
     2
 10
-169.675018
 20
60.750000
 11
-157.675018
 21
60.750000
  0
LINE
  8
0
  6
CENTER
 62
     2
 10
-152.675018
 20
53.750000
 11
-152.675018
 21
38.750000
  0
LINE
  8
0
  6
CENTER
 62
     2
 10
-160.175018
 20
46.250000
 11
-145.175018
 21
46.250000
  0
LINE
  8
0
  6
CENTER
 62
     2
 10
-152.675018
 20
32.750000
 11
-152.675018
 21
17.750000
  0
LINE
  8
0
  6
CENTER
 62
     2
 10
-160.175018
 20
25.250000
 11
-145.175018
 21
25.250000
  0
LINE
  8
0
 10
-137.675018
 20
73.250000
 11
-137.675018
 21
14.750000
  0
LINE
  8
0
 10
-131.675018
 20
74.250000
 11
-131.675018
 21
5.750000
  0
LINE
  8
0
 10
-129.675049
 20
62.250000
 11
-131.675018
 21
62.250000
  0
LINE
  8
0
 10
-129.675049
 20
9.250000
 11
-131.675018
 21
9.250000
  0
LINE
  8
0
 10
-165.675018
 20
14.750000
 11
-165.675018
 21
5.750000
  0
LINE
  8
0
 10
-171.675018
 20
74.250000
 11
-171.675018
 21
73.250000
  0
LINE
  8
0
  6
CENTER
 62
     2
 10
-177.675018
 20
10.250000
 11
-160.637726
 21
10.250000
  0
LINE
  8
0
  6
CENTER
 62
     2
 10
-177.675018
 20
68.750000
 11
-160.637726
 21
68.750000
  0
LINE
  8
0
 62
     4
 10
-129.675049
 20
100.750000
 11
-129.675049
 21
79.750000
  0
LINE
  8
0
 62
     4
 10
-98.175049
 20
99.750000
 11
-129.675049
 21
99.750000
  0
LINE
  8
0
 62
     4
 10
-98.175049
 20
99.750000
 11
-98.175049
 21
79.750000
  0
LINE
  8
0
 62
     4
 10
-95.175049
 20
98.750000
 11
-98.175049
 21
98.750000
  0
LINE
  8
0
 62
     4
 10
-98.675049
 20
100.750000
 11
-129.675049
 21
100.750000
  0
LINE
  8
0
 62
     4
 10
-98.675049
 20
100.750000
 11
-98.675049
 21
99.750000
  0
LINE
  8
0
 62
     4
 10
-98.675064
 20
100.750015
 11
-99.675056
 21
102.750000
  0
LINE
  8
0
 62
     4
 10
-106.175049
 20
102.750000
 11
-106.175049
 21
100.750000
  0
LINE
  8
0
 62
     4
 10
-128.674911
 20
102.749969
 11
-129.674927
 21
100.749924
  0
LINE
  8
0
 62
     4
 10
-104.925049
 20
101.450012
 11
-99.425049
 21
101.450012
  0
LINE
  8
0
 62
     4
 10
-99.425049
 20
101.450012
 11
-99.425049
 21
100.750000
  0
LINE
  8
0
 62
     4
 10
-104.925049
 20
101.450012
 11
-104.925049
 21
100.750000
  0
LINE
  8
0
 62
     4
 10
-102.925049
 20
103.450012
 11
-101.425049
 21
103.450012
  0
LINE
  8
0
 62
     4
 10
-122.925049
 20
103.450012
 11
-121.425049
 21
103.450012
  0
LINE
  8
0
 62
     4
 10
-104.444916
 20
102.750000
 11
-128.674957
 21
102.750000
  0
LINE
  8
0
 62
     4
 10
-94.175049
 20
97.750000
 11
-94.175049
 21
80.750000
  0
LINE
  8
0
 62
     4
 10
-99.675079
 20
102.750000
 11
-99.905182
 21
102.750000
  0
LINE
  8
0
 10
-171.675018
 20
75.250000
 11
-131.675018
 21
75.250000
  0
LINE
  8
0
 10
-171.675018
 20
121.750000
 11
-171.675018
 21
74.250000
  0
LINE
  8
0
  6
CENTER
 62
     2
 10
-162.508362
 20
126.750000
 11
-93.679474
 21
126.750000
  0
LINE
  8
0
 10
-131.674988
 20
121.750015
 11
-131.674988
 21
74.250000
  0
LINE
  8
0
 10
-113.675018
 20
114.850006
 11
-131.675018
 21
114.850006
  0
LINE
  8
0
 10
-113.674988
 20
138.650024
 11
-113.674988
 21
114.850021
  0
LINE
  8
0
 10
-113.675049
 20
138.650009
 11
-143.675049
 21
138.650009
  0
LINE
  8
0
 10
-143.675018
 20
138.650024
 11
-143.675018
 21
121.750031
  0
LINE
  8
0
 10
-131.675018
 20
121.750000
 11
-171.675018
 21
121.750000
  0
LINE
  8
0
 10
-155.575012
 20
126.750031
 11
-155.575012
 21
121.750015
  0
LINE
  8
0
  6
CENTER
 62
     2
 10
-134.675018
 20
151.215393
 11
-134.675018
 21
99.014618
  0
LINE
  8
0
 10
-110.875000
 20
116.394379
 11
-110.875000
 21
137.105667
  0
LINE
  8
0
 10
-131.758514
 20
132.250000
 11
-137.591522
 21
132.250000
  0
LINE
  8
0
 10
-131.675095
 20
133.427429
 11
-131.758591
 21
132.250031
  0
LINE
  8
0
 10
-137.675064
 20
133.427399
 11
-137.591568
 21
132.250000
  0
LINE
  8
0
 10
-110.874985
 20
116.394379
 11
-113.674980
 21
116.481880
  0
LINE
  8
0
 10
-109.675026
 20
117.518898
 11
-110.875038
 21
117.556396
  0
LINE
  8
0
 10
-109.675003
 20
135.980988
 11
-110.875008
 21
135.943497
  0
LINE
  8
0
 10
-110.874947
 20
137.105667
 11
-113.674973
 21
137.018173
  0
LINE
  8
0
 10
-136.865051
 20
126.750000
 11
-136.865051
 21
121.750000
  0
LINE
  8
0
 10
-132.485016
 20
126.750015
 11
-132.485016
 21
121.750000
  0
LINE
  8
0
 62
     2
 10
-110.875038
 20
117.556396
 11
-113.675056
 21
117.643898
  0
LINE
  8
0
 62
     2
 10
-110.875008
 20
135.943497
 11
-113.675003
 21
135.855988
  0
LINE
  8
0
 10
-171.675018
 20
82.750000
 11
-131.675018
 21
82.750000
  0
LINE
  8
0
 10
-104.674988
 20
114.221481
 11
-109.674988
 21
114.221481
  0
LINE
  8
0
 10
-104.674988
 20
139.278503
 11
-109.674988
 21
139.278503
  0
LINE
  8
0
 10
-104.674988
 20
114.221497
 11
-104.674988
 21
139.278519
  0
LINE
  8
0
 10
-109.674988
 20
114.221497
 11
-109.674988
 21
139.278519
  0
LINE
  8
0
 10
-104.674988
 20
116.286652
 11
-109.674988
 21
116.286652
  0
LINE
  8
0
 10
-104.674988
 20
119.103622
 11
-109.674988
 21
119.103622
  0
LINE
  8
0
 10
-104.674988
 20
120.485748
 11
-109.674988
 21
120.485748
  0
LINE
  8
0
 10
-104.674988
 20
123.250000
 11
-109.674988
 21
123.250000
  0
LINE
  8
0
 10
-104.674988
 20
123.750000
 11
-109.674988
 21
123.750000
  0
LINE
  8
0
 10
-104.674988
 20
129.750000
 11
-109.674988
 21
129.750000
  0
LINE
  8
0
 10
-104.674988
 20
130.250000
 11
-109.674988
 21
130.250000
  0
LINE
  8
0
 10
-104.674988
 20
133.014252
 11
-109.674988
 21
133.014252
  0
LINE
  8
0
 10
-104.674988
 20
134.396362
 11
-109.674988
 21
134.396362
  0
LINE
  8
0
 10
-104.674988
 20
137.213348
 11
-109.674988
 21
137.213348
  0
LINE
  8
0
 10
-104.674988
 20
137.896362
 11
-109.674988
 21
137.896362
  0
LINE
  8
0
 10
-104.674988
 20
115.603607
 11
-109.674988
 21
115.603607
  0
LINE
  8
0
 10
-91.175018
 20
60.749985
 11
-91.175018
 21
57.349976
  0
LINE
  8
0
 10
-92.675018
 20
62.249985
 11
-92.675018
 21
51.749985
  0
LINE
  8
0
 10
-94.675049
 20
62.249985
 11
-92.675018
 21
62.249985
  0
LINE
  8
0
 10
-92.675018
 20
58.249985
 11
-91.175018
 21
58.249985
  0
LINE
  8
0
 10
-92.675018
 20
53.249985
 11
-91.175018
 21
53.249985
  0
LINE
  8
0
 10
-94.675049
 20
51.749985
 11
-91.175018
 21
51.749985
  0
LINE
  8
0
 10
-94.675049
 20
45.750000
 11
-91.175018
 21
45.750000
  0
LINE
  8
0
 10
-94.675049
 20
25.750000
 11
-91.175018
 21
25.750000
  0
LINE
  8
0
 10
-94.675049
 20
19.750000
 11
-91.175018
 21
19.750000
  0
LINE
  8
0
 10
-94.675049
 20
9.250000
 11
-92.675018
 21
9.250000
  0
LINE
  8
0
 10
-92.675201
 20
9.250106
 11
-91.175186
 21
10.750116
  0
LINE
  8
0
 10
-92.674805
 20
62.250244
 11
-91.174850
 21
60.750263
  0
LINE
  8
0
 10
-92.675018
 20
19.749992
 11
-92.675018
 21
9.250000
  0
LINE
  8
0
 10
-92.675018
 20
45.749992
 11
-92.675018
 21
25.749992
  0
LINE
  8
0
 10
-93.006805
 20
46.000000
 11
-94.675049
 21
46.000000
  0
LINE
  8
0
 10
-93.975067
 20
51.499985
 11
-93.975067
 21
46.000000
  0
LINE
  8
0
 10
-91.975037
 20
49.750000
 11
-91.975037
 21
47.749985
  0
LINE
  8
0
 10
-93.006805
 20
51.499985
 11
-94.675049
 21
51.499985
  0
LINE
  8
0
 10
-93.006805
 20
20.000000
 11
-94.675049
 21
20.000000
  0
LINE
  8
0
 10
-93.975067
 20
25.499992
 11
-93.975067
 21
20.000000
  0
LINE
  8
0
 10
-91.975037
 20
23.750000
 11
-91.975037
 21
21.749992
  0
LINE
  8
0
 10
-93.006805
 20
25.500000
 11
-94.675049
 21
25.500000
  0
LINE
  8
0
 10
-92.675018
 20
57.999985
 11
-92.675018
 21
53.499992
  0
LINE
  8
0
 10
-91.787628
 20
57.999985
 11
-92.675018
 21
57.999985
  0
LINE
  8
0
 10
-91.787598
 20
53.500000
 11
-92.675018
 21
53.500000
  0
LINE
  8
0
 10
-90.975037
 20
56.549988
 11
-90.975037
 21
54.949989
  0
LINE
  8
0
 10
-91.175018
 20
54.149994
 11
-91.175018
 21
10.750004
  0
LINE
  8
0
 10
-173.675018
 20
5.750000
 11
-131.675018
 21
5.750000
  0
LINE
  8
0
 10
-165.675018
 20
14.750000
 11
-131.675018
 21
14.750000
  0
LINE
  8
0
 10
-173.675018
 20
73.250000
 11
-131.675018
 21
73.250000
  0
LINE
  8
0
 10
108.324951
 20
0.250000
 11
73.324951
 21
0.250000
  0
LINE
  8
0
 10
77.824951
 20
3.750000
 11
77.824951
 21
0.250000
  0
LINE
  8
0
 10
83.824951
 20
3.750000
 11
83.824951
 21
0.250000
  0
LINE
  8
0
 10
83.824951
 20
3.750000
 11
77.824951
 21
3.750000
  0
LINE
  8
0
 10
108.324951
 20
79.750000
 11
108.324951
 21
0.250000
  0
LINE
  8
0
 10
78.061737
 20
2.078209
 11
78.061737
 21
3.750000
  0
LINE
  8
0
 10
83.561737
 20
2.078297
 11
83.561737
 21
3.750000
  0
LINE
  8
0
 10
83.561737
 20
3.046478
 11
78.061737
 21
3.046478
  0
LINE
  8
0
 10
81.811737
 20
1.046448
 11
79.811737
 21
1.046448
  0
LINE
  8
0
 10
108.324951
 20
79.750000
 11
73.324951
 21
79.750000
  0
LINE
  8
0
 10
73.324951
 20
62.250000
 11
108.324951
 21
62.250000
  0
LINE
  8
0
 10
73.324951
 20
9.250000
 11
108.324951
 21
9.250000
  0
LINE
  8
0
 10
73.324951
 20
79.750000
 11
73.324951
 21
0.250000
  0
LINE
  8
0
 10
110.324951
 20
74.250000
 11
150.324951
 21
74.250000
  0
LINE
  8
0
 10
109.324951
 20
62.250000
 11
109.324951
 21
9.250000
  0
LINE
  8
0
 10
152.324951
 20
73.250000
 11
152.324951
 21
5.750000
  0
LINE
  8
0
  6
CENTER
 62
     2
 10
123.824951
 20
55.750000
 11
138.824951
 21
55.750000
  0
LINE
  8
0
  6
CENTER
 62
     2
 10
131.324951
 20
63.250000
 11
131.324951
 21
48.250000
  0
LINE
  8
0
  6
CENTER
 62
     2
 10
131.324951
 20
23.250000
 11
131.324951
 21
8.250000
  0
LINE
  8
0
  6
CENTER
 62
     2
 10
123.824951
 20
15.750000
 11
138.824951
 21
15.750000
  0
LINE
  8
0
  6
CENTER
 62
     2
 10
124.824951
 20
43.250000
 11
124.824951
 21
28.250000
  0
LINE
  8
0
  6
CENTER
 62
     2
 10
117.324951
 20
35.750000
 11
132.324951
 21
35.750000
  0
LINE
  8
0
 10
110.324951
 20
74.250000
 11
110.324951
 21
5.750000
  0
LINE
  8
0
 10
116.324951
 20
64.750000
 11
116.324951
 21
5.750000
  0
LINE
  8
0
 10
144.324951
 20
73.250000
 11
144.324951
 21
64.750000
  0
LINE
  8
0
 10
150.324951
 20
74.250000
 11
150.324951
 21
73.250000
  0
LINE
  8
0
 10
108.324951
 20
62.250000
 11
110.324951
 21
62.250000
  0
LINE
  8
0
 10
108.324951
 20
9.250000
 11
110.324951
 21
9.250000
  0
LINE
  8
0
  6
CENTER
 62
     2
 10
140.394287
 20
68.750000
 11
156.324951
 21
68.750000
  0
LINE
  8
0
  6
CENTER
 62
     2
 10
140.107574
 20
10.250000
 11
156.324951
 21
10.250000
  0
LINE
  8
0
 62
     4
 10
108.324951
 20
100.750000
 11
108.324951
 21
79.750000
  0
LINE
  8
0
 62
     4
 10
76.824951
 20
99.750000
 11
108.324951
 21
99.750000
  0
LINE
  8
0
 62
     4
 10
76.824951
 20
99.750000
 11
76.824951
 21
79.750000
  0
LINE
  8
0
 62
     4
 10
73.824951
 20
98.750000
 11
76.824951
 21
98.750000
  0
LINE
  8
0
 62
     4
 10
77.324951
 20
100.750000
 11
108.324951
 21
100.750000
  0
LINE
  8
0
 62
     4
 10
77.324951
 20
100.750000
 11
77.324951
 21
99.750000
  0
LINE
  8
0
 62
     4
 10
77.324867
 20
100.750061
 11
78.324867
 21
102.750061
  0
LINE
  8
0
 62
     4
 10
107.324844
 20
102.750015
 11
108.324890
 21
100.749947
  0
LINE
  8
0
 62
     4
 10
103.574951
 20
101.450012
 11
98.074951
 21
101.450012
  0
LINE
  8
0
 62
     4
 10
98.074951
 20
101.450012
 11
98.074951
 21
100.750000
  0
LINE
  8
0
 62
     4
 10
103.574951
 20
101.450012
 11
103.574951
 21
100.750000
  0
LINE
  8
0
 62
     4
 10
101.574951
 20
103.450012
 11
100.074951
 21
103.450012
  0
LINE
  8
0
 62
     4
 10
78.324982
 20
102.750000
 11
98.555069
 21
102.750000
  0
LINE
  8
0
 62
     4
 10
72.824951
 20
97.750000
 11
72.824951
 21
80.750000
  0
LINE
  8
0
 62
     4
 10
96.824951
 20
102.750000
 11
96.824951
 21
100.750000
  0
LINE
  8
0
 62
     4
 10
104.824951
 20
102.750000
 11
104.824951
 21
100.750000
  0
LINE
  8
0
 62
     4
 10
81.574951
 20
103.450012
 11
80.074951
 21
103.450012
  0
LINE
  8
0
 62
     4
 10
103.094833
 20
102.750000
 11
107.324860
 21
102.750000
  0
LINE
  8
0
 10
110.324951
 20
75.250000
 11
150.324966
 21
75.250000
  0
LINE
  8
0
 10
150.324966
 20
121.749985
 11
150.324966
 21
74.249977
  0
LINE
  8
0
 10
92.324951
 20
138.649994
 11
92.324951
 21
114.849976
  0
LINE
  8
0
 10
134.224960
 20
126.749985
 11
134.224960
 21
121.749985
  0
LINE
  8
0
 10
122.324951
 20
121.750000
 11
150.324951
 21
121.750000
  0
LINE
  8
0
 10
92.324951
 20
114.849991
 11
110.324951
 21
114.849991
  0
LINE
  8
0
 10
92.324951
 20
138.649994
 11
122.324951
 21
138.649994
  0
LINE
  8
0
 10
110.324951
 20
126.749969
 11
110.324951
 21
74.249977
  0
LINE
  8
0
 10
122.324951
 20
138.649979
 11
122.324951
 21
121.749985
  0
LINE
  8
0
  6
CENTER
 62
     2
 10
80.959900
 20
126.749985
 11
140.081909
 21
126.749985
  0
LINE
  8
0
 10
83.324951
 20
139.278503
 11
88.324951
 21
139.278503
  0
LINE
  8
0
 10
83.324951
 20
114.221481
 11
88.324951
 21
114.221481
  0
LINE
  8
0
 10
83.324951
 20
139.278473
 11
83.324951
 21
114.221466
  0
LINE
  8
0
 10
88.324936
 20
139.278473
 11
88.324936
 21
114.221466
  0
LINE
  8
0
 10
83.324951
 20
137.213348
 11
88.324951
 21
137.213348
  0
LINE
  8
0
 10
83.324951
 20
134.396362
 11
88.324951
 21
134.396362
  0
LINE
  8
0
 10
83.324951
 20
133.014221
 11
88.324951
 21
133.014221
  0
LINE
  8
0
 10
83.324951
 20
130.250000
 11
88.324951
 21
130.250000
  0
LINE
  8
0
 10
83.324951
 20
129.749985
 11
88.324951
 21
129.749985
  0
LINE
  8
0
 10
83.324951
 20
123.749985
 11
88.324951
 21
123.749985
  0
LINE
  8
0
 10
83.324951
 20
123.249985
 11
88.324951
 21
123.249985
  0
LINE
  8
0
 10
83.324951
 20
120.485748
 11
88.324951
 21
120.485748
  0
LINE
  8
0
 10
83.324951
 20
119.103622
 11
88.324951
 21
119.103622
  0
LINE
  8
0
 10
83.324951
 20
116.286621
 11
88.324951
 21
116.286621
  0
LINE
  8
0
 10
83.324951
 20
115.603607
 11
88.324951
 21
115.603607
  0
LINE
  8
0
 10
83.324951
 20
137.896362
 11
88.324951
 21
137.896362
  0
LINE
  8
0
 10
89.524948
 20
116.394348
 11
89.524948
 21
137.105652
  0
LINE
  8
0
 10
89.524948
 20
116.394394
 11
92.324944
 21
116.481895
  0
LINE
  8
0
 10
88.324959
 20
117.518883
 11
89.524948
 21
117.556381
  0
LINE
  8
0
 10
88.324944
 20
135.981033
 11
89.524933
 21
135.943527
  0
LINE
  8
0
 10
89.524979
 20
137.105637
 11
92.324989
 21
137.018143
  0
LINE
  8
0
 62
     2
 10
89.524933
 20
135.943527
 11
92.324928
 21
135.856033
  0
LINE
  8
0
 62
     2
 10
89.524948
 20
117.556381
 11
92.324959
 21
117.643883
  0
LINE
  8
0
 10
110.324951
 20
82.750000
 11
150.324966
 21
82.750000
  0
LINE
  8
0
 10
69.824921
 20
60.749985
 11
69.824921
 21
21.349995
  0
LINE
  8
0
 10
71.324921
 20
62.249985
 11
71.324921
 21
43.749992
  0
LINE
  8
0
 10
73.324951
 20
62.249985
 11
71.324921
 21
62.249985
  0
LINE
  8
0
 10
71.324921
 20
17.250000
 11
69.824921
 21
17.250000
  0
LINE
  8
0
 10
71.324921
 20
22.250000
 11
69.824921
 21
22.250000
  0
LINE
  8
0
 10
73.324951
 20
43.750000
 11
69.824921
 21
43.750000
  0
LINE
  8
0
 10
73.324951
 20
37.750000
 11
69.824921
 21
37.750000
  0
LINE
  8
0
 10
73.324951
 20
9.250000
 11
71.324921
 21
9.250000
  0
LINE
  8
0
 10
71.325027
 20
9.250064
 11
69.825005
 21
10.750067
  0
LINE
  8
0
 10
71.324814
 20
62.250099
 11
69.824844
 21
60.750126
  0
LINE
  8
0
 10
71.324921
 20
37.749992
 11
71.324921
 21
9.250000
  0
LINE
  8
0
 10
71.656708
 20
43.499985
 11
73.324951
 21
43.499985
  0
LINE
  8
0
 10
72.624969
 20
37.999992
 11
72.624969
 21
43.499985
  0
LINE
  8
0
 10
70.624939
 20
39.749985
 11
70.624939
 21
41.749992
  0
LINE
  8
0
 10
71.656708
 20
38.000000
 11
73.324951
 21
38.000000
  0
LINE
  8
0
 10
71.324921
 20
17.500000
 11
71.324921
 21
21.999992
  0
LINE
  8
0
 10
70.437531
 20
17.500000
 11
71.324921
 21
17.500000
  0
LINE
  8
0
 10
70.437500
 20
22.000000
 11
71.324921
 21
22.000000
  0
LINE
  8
0
 10
69.624939
 20
18.949997
 11
69.624939
 21
20.549995
  0
LINE
  8
0
 10
69.824921
 20
18.150005
 11
69.824921
 21
10.750004
  0
LINE
  8
0
 10
152.324951
 20
5.750000
 11
110.324951
 21
5.750000
  0
LINE
  8
0
 10
144.324951
 20
64.750000
 11
110.324951
 21
64.750000
  0
LINE
  8
0
 10
152.324951
 20
73.250000
 11
144.324951
 21
73.250000
  0
LINE
  8
0
 10
-24.675018
 20
-104.750000
 11
-1.675018
 21
-104.750000
  0
LINE
  8
0
 10
-24.675018
 20
-94.250000
 11
-21.175018
 21
-94.250000
  0
LINE
  8
0
 10
-24.675018
 20
-100.250000
 11
-21.175018
 21
-100.250000
  0
LINE
  8
0
 10
-22.263748
 20
-98.338600
 11
-20.208029
 21
-96.282875
  0
LINE
  8
0
 10
-22.336042
 20
-96.089478
 11
-20.144331
 21
-98.281189
  0
LINE
  8
0
 10
-1.675018
 20
-67.749992
 11
-1.675018
 21
-105.750000
  0
LINE
  8
0
 10
-24.675018
 20
-69.749992
 11
-1.675018
 21
-69.749992
  0
LINE
  8
0
 10
-24.675018
 20
-67.749992
 11
-24.675018
 21
-105.750000
  0
LINE
  8
0
 10
-5.175018
 20
-74.249992
 11
-1.675018
 21
-74.249992
  0
LINE
  8
0
 10
-5.175018
 20
-80.249992
 11
-1.675018
 21
-80.249992
  0
LINE
  8
0
 10
-24.675018
 20
-67.749992
 11
-1.674988
 21
-67.749992
  0
LINE
  8
0
 10
-3.175242
 20
-66.250252
 11
-1.675246
 21
-67.750244
  0
LINE
  8
0
 10
-24.675140
 20
-67.749954
 11
-23.175106
 21
-66.249916
  0
LINE
  8
0
 10
-6.263694
 20
-78.338593
 11
-4.207931
 21
-76.282829
  0
LINE
  8
0
 10
-6.335997
 20
-76.089424
 11
-4.144285
 21
-78.281136
  0
LINE
  8
0
 10
-23.174957
 20
-66.249992
 11
-3.174988
 21
-66.249992
  0
LINE
  8
0
 10
-33.675049
 20
-148.750000
 11
9.324966
 21
-148.750000
  0
LINE
  8
0
 10
-24.675018
 20
-104.750000
 11
-1.675018
 21
-104.750000
  0
LINE
  8
0
 10
-27.675049
 20
-106.750000
 11
3.324951
 21
-106.750000
  0
LINE
  8
0
  6
CENTER
 62
     2
 10
-13.175018
 20
-57.299698
 11
-13.175018
 21
-161.471436
  0
LINE
  8
0
 10
-1.175034
 20
-105.750031
 11
-1.175034
 21
-106.750031
  0
LINE
  8
0
 10
-25.175018
 20
-105.750031
 11
-25.175018
 21
-106.750031
  0
LINE
  8
0
 10
-33.675049
 20
-140.750000
 11
-25.175049
 21
-140.750000
  0
LINE
  8
0
 10
-25.175049
 20
-105.750000
 11
-1.175049
 21
-105.750000
  0
LINE
  8
0
  6
CENTER
 62
     2
 10
-20.175018
 20
-71.749992
 11
-20.175018
 21
-79.749992
  0
LINE
  8
0
  6
CENTER
 62
     2
 10
-6.175018
 20
-94.750000
 11
-6.175018
 21
-102.750000
  0
LINE
  8
0
  6
CENTER
 62
     2
 10
-24.175018
 20
-75.749992
 11
-16.175018
 21
-75.749992
  0
LINE
  8
0
  6
CENTER
 62
     2
 10
-10.175018
 20
-98.750000
 11
-2.175018
 21
-98.750000
  0
LINE
  8
0
  6
CENTER
 62
     2
 10
-29.175049
 20
-136.635010
 11
-29.175049
 21
-152.811783
  0
LINE
  8
0
  6
CENTER
 62
     2
 10
4.824951
 20
-136.635010
 11
4.824951
 21
-152.982056
  0
LINE
  8
0
 10
-33.675049
 20
-112.750000
 11
-33.675049
 21
-148.750000
  0
LINE
  8
0
 10
9.324966
 20
-112.750000
 11
9.324966
 21
-148.750000
  0
LINE
  8
0
 10
-25.175049
 20
-140.750000
 11
-25.175049
 21
-106.750000
  0
LINE
  8
0
 10
-33.675125
 20
-112.749992
 11
-27.675127
 21
-106.749992
  0
LINE
  8
0
 10
9.324788
 20
-112.750214
 11
3.324786
 21
-106.750206
  0
LINE
  8
0
 10
69.304474
 20
-105.750000
 11
69.304474
 21
-174.250000
  0
LINE
  8
0
 10
112.304474
 20
-105.750000
 11
112.304474
 21
-174.250000
  0
LINE
  8
0
 10
69.304474
 20
-174.250000
 11
112.304474
 21
-174.250000
  0
LINE
  8
0
 10
69.304474
 20
-105.750000
 11
112.304474
 21
-105.750000
  0
LINE
  8
0
  6
CENTER
 62
     2
 10
72.304474
 20
-164.250000
 11
87.304474
 21
-164.250000
  0
LINE
  8
0
  6
CENTER
 62
     2
 10
79.804474
 20
-156.750000
 11
79.804474
 21
-171.750000
  0
LINE
  8
0
  6
CENTER
 62
     2
 10
103.804474
 20
-148.250000
 11
103.804474
 21
-163.250000
  0
LINE
  8
0
  6
CENTER
 62
     2
 10
96.304474
 20
-155.750000
 11
111.304474
 21
-155.750000
  0
LINE
  8
0
  6
CENTER
 62
     2
 10
103.804474
 20
-125.250000
 11
103.804474
 21
-140.250000
  0
LINE
  8
0
  6
CENTER
 62
     2
 10
96.304474
 20
-132.750000
 11
111.304474
 21
-132.750000
  0
LINE
  8
0
  6
CENTER
 62
     2
 10
79.804474
 20
-116.750000
 11
79.804474
 21
-131.750000
  0
LINE
  8
0
  6
CENTER
 62
     2
 10
72.304474
 20
-124.250000
 11
87.304474
 21
-124.250000
  0
LINE
  8
0
  6
CENTER
 62
     2
 10
79.804474
 20
-136.750000
 11
79.804474
 21
-151.750000
  0
LINE
  8
0
  6
CENTER
 62
     2
 10
72.304474
 20
-144.250000
 11
87.304474
 21
-144.250000
  0
LINE
  8
0
  6
CENTER
 62
     2
 10
94.304474
 20
-115.750000
 11
94.304474
 21
-122.750000
  0
LINE
  8
0
  6
CENTER
 62
     2
 10
90.804474
 20
-119.250000
 11
97.804474
 21
-119.250000
  0
LINE
  8
0
 10
69.304474
 20
-106.750000
 11
112.304474
 21
-106.750000
  0
LINE
  8
0
  6
CENTER
 62
     2
 10
69.804474
 20
-111.250000
 11
77.804474
 21
-111.250000
  0
LINE
  8
0
  6
CENTER
 62
     2
 10
103.804474
 20
-169.750000
 11
111.804474
 21
-169.750000
  0
LINE
  8
0
  6
CENTER
 62
     2
 10
107.804474
 20
-165.750000
 11
107.804474
 21
-173.750000
  0
LINE
  8
0
  6
CENTER
 62
     2
 10
73.804474
 20
-107.250000
 11
73.804474
 21
-115.250000
  0
LINE
  8
0
 10
105.554474
 20
-105.750000
 11
78.054474
 21
-105.750000
  0
LINE
  8
0
  6
CENTER
 62
     2
 10
111.161285
 20
-53.250000
 11
72.436829
 21
-53.250000
  0
LINE
  8
0
 10
105.554474
 20
-104.750000
 11
78.054474
 21
-104.750000
  0
LINE
  8
0
 10
78.054474
 20
-53.250000
 11
78.054474
 21
-105.750008
  0
LINE
  8
0
 10
105.554474
 20
-58.250000
 11
105.554474
 21
-105.750008
  0
LINE
  8
0
  6
CENTER
 62
     2
 10
89.954483
 20
-30.770264
 11
89.954483
 21
-67.785110
  0
LINE
  8
0
 10
105.554459
 20
-58.250000
 11
78.054474
 21
-58.250000
  0
LINE
  8
0
 10
102.804474
 20
-47.750000
 11
102.804474
 21
-58.250000
  0
LINE
  8
0
 10
102.804474
 20
-47.750000
 11
100.804474
 21
-47.750000
  0
LINE
  8
0
 10
79.104462
 20
-46.985764
 11
79.104462
 21
-48.362526
  0
LINE
  8
0
 10
89.954498
 20
-40.721420
 11
88.762184
 21
-41.409805
  0
LINE
  8
0
 10
80.296791
 20
-46.297379
 11
79.104477
 21
-46.985767
  0
LINE
  8
0
 10
100.804428
 20
-46.985813
 11
99.612061
 21
-46.297401
  0
LINE
  8
0
 10
91.146767
 20
-41.409973
 11
89.954422
 21
-40.721569
  0
LINE
  8
0
 10
100.804474
 20
-48.362526
 11
100.804474
 21
-46.985733
  0
LINE
  8
0
 10
105.554474
 20
-97.250000
 11
78.054474
 21
-97.250000
  0
LINE
  8
0
 10
101.854462
 20
-53.250000
 11
101.854462
 21
-58.250000
  0
LINE
  8
0
 10
78.054474
 20
-53.250000
 11
101.854462
 21
-53.250000
  0
CIRCLE
  8
0
 10
-13.175049
 20
76.250000
 40
2.299999
  0
CIRCLE
  8
0
 10
-13.175049
 20
76.250000
 40
1.500000
  0
ARC
  8
0
 10
-4.175049
 20
41.249985
 40
3.000000
 50
0.000000
 51
0.399688
  0
ARC
  8
0
 10
-4.175049
 20
41.750000
 40
3.000000
 50
0.000000
 51
2.505128
  0
ARC
  8
0
 10
-4.175049
 20
40.249985
 40
3.000000
 50
0.000000
 51
0.399688
  0
ARC
  8
0
 10
-4.175049
 20
40.749985
 40
3.000000
 50
0.000000
 51
2.505128
  0
ARC
  8
0
 10
-4.175049
 20
40.749985
 40
3.000000
 50
0.000000
 51
2.440372
  0
CIRCLE
  8
0
 10
4.824951
 20
68.750000
 40
2.250000
  0
ARC
  8
0
 10
1.824966
 20
65.750000
 40
1.000000
 50
180.000000
 51
270.000031
  0
CIRCLE
  8
0
 10
-29.175049
 20
10.250000
 40
2.250000
  0
ARC
  8
0
 10
-26.175049
 20
13.750000
 40
1.000000
 50
0.000000
 51
90.000000
  0
ARC
  8
0
 10
-22.175049
 20
48.750000
 40
3.000000
 50
0.000000
 51
90.000000
  0
ARC
  8
0
 10
-22.175049
 20
22.750000
 40
3.000000
 50
0.000000
 51
90.000000
  0
ARC
  8
0
 10
-4.675049
 20
15.750000
 40
2.500000
 50
89.999977
 51
270.000000
  0
ARC
  8
0
 10
-21.675049
 20
55.749985
 40
2.500000
 50
0.000000
 51
90.000000
  0
ARC
  8
0
 10
-22.175049
 20
22.750000
 40
3.000000
 50
270.000000
 51
0.000000
  0
ARC
  8
0
 10
-22.175049
 20
48.750000
 40
3.000000
 50
270.000000
 51
0.000000
  0
ARC
  8
0
 10
-4.175049
 20
40.750000
 40
3.000000
 50
89.999985
 51
270.000000
  0
ARC
  8
0
 10
-21.675049
 20
55.749985
 40
2.500000
 50
270.000000
 51
0.000000
  0
CIRCLE
  8
0
 10
-22.175049
 20
22.750000
 40
2.500000
  0
CIRCLE
  8
0
 10
-22.175049
 20
48.750000
 40
2.500000
  0
CIRCLE
  8
0
 10
-4.175049
 20
40.750000
 40
2.500000
  0
CIRCLE
  8
0
 10
-4.675049
 20
15.750000
 40
2.250000
  0
CIRCLE
  8
0
 10
-21.675049
 20
55.749985
 40
2.250000
  0
ARC
  8
0
 62
     4
 10
-21.925049
 20
101.450012
 40
2.000000
 50
90.000000
 51
180.000000
  0
ARC
  8
0
 62
     4
 10
-20.425049
 20
101.450012
 40
2.000000
 50
0.000000
 51
90.000000
  0
ARC
  8
0
 62
     4
 10
-5.925049
 20
101.450012
 40
2.000000
 50
89.999985
 51
139.458344
  0
ARC
  8
0
 62
     4
 10
-4.425049
 20
101.450012
 40
2.000000
 50
89.999985
 51
95.183655
  0
ARC
  8
0
 62
     4
 10
-4.425049
 20
101.450012
 40
2.000002
 50
40.541664
 51
89.999985
  0
ARC
  8
0
 10
-11.325012
 20
126.750000
 40
11.900003
 50
35.750561
 51
84.249496
  0
ARC
  8
0
 10
-11.325012
 20
126.750000
 40
10.477500
 50
351.052155
 51
8.947940
  0
CIRCLE
  8
0
 10
-11.325012
 20
126.750000
 40
5.000000
  0
CIRCLE
  8
0
 10
-11.325012
 20
126.750000
 40
7.500000
  0
ARC
  8
0
 10
-11.325012
 20
126.750000
 40
10.477503
 50
231.052460
 51
248.947556
  0
ARC
  8
0
 10
-11.325012
 20
126.750000
 40
10.477501
 50
291.052368
 51
308.947662
  0
ARC
  8
0
 10
-11.325012
 20
126.750000
 40
10.477503
 50
111.052414
 51
128.947617
  0
ARC
  8
0
 10
-11.325012
 20
126.750000
 40
10.477500
 50
171.052658
 51
188.947311
  0
ARC
  8
0
 10
-11.325012
 20
126.750000
 40
10.477505
 50
51.053043
 51
68.946991
  0
ARC
  8
0
 10
-11.325012
 20
126.750000
 40
11.900003
 50
95.750496
 51
144.249527
  0
ARC
  8
0
 10
-11.325012
 20
126.750000
 40
11.900001
 50
155.750549
 51
204.249374
  0
ARC
  8
0
 10
-11.325012
 20
126.750000
 40
11.900001
 50
215.750381
 51
264.249634
  0
ARC
  8
0
 10
-11.325012
 20
126.750000
 40
11.900001
 50
275.750397
 51
324.249664
  0
ARC
  8
0
 10
-11.325012
 20
126.750000
 40
11.900000
 50
335.750275
 51
24.249771
  0
ARC
  8
0
 10
-103.161804
 20
3.046494
 40
1.999998
 50
208.953568
 51
270.000000
  0
ARC
  8
0
 10
-101.161835
 20
3.046494
 40
2.000000
 50
270.000000
 51
331.043762
  0
CIRCLE
  8
0
 62
     2
 10
-152.675018
 20
25.250000
 40
6.578500
  0
CIRCLE
  8
0
 10
-152.675018
 20
25.250000
 40
5.722500
  0
CIRCLE
  8
0
 62
     2
 10
-152.675018
 20
46.250000
 40
6.578500
  0
CIRCLE
  8
0
 10
-152.675018
 20
46.250000
 40
5.722500
  0
CIRCLE
  8
0
 62
     2
 10
-163.675018
 20
60.750000
 40
4.864000
  0
CIRCLE
  8
0
 10
-163.675018
 20
60.750000
 40
4.278000
  0
ARC
  8
0
 62
     4
 10
-102.925049
 20
101.450012
 40
2.000000
 50
90.000000
 51
180.000000
  0
ARC
  8
0
 62
     4
 10
-101.425049
 20
101.450012
 40
2.000000
 50
0.000000
 51
90.000000
  0
ARC
  8
0
 62
     4
 10
-122.925049
 20
101.450012
 40
2.000000
 50
90.000000
 51
139.458298
  0
ARC
  8
0
 62
     4
 10
-121.425049
 20
101.450012
 40
1.999998
 50
40.788128
 51
90.000000
  0
ARC
  8
0
 62
     4
 10
-95.175049
 20
97.750000
 40
1.000000
 50
0.000000
 51
90.000000
  0
ARC
  8
0
 62
     4
 10
-95.175049
 20
80.750000
 40
1.000000
 50
270.000000
 51
0.000000
  0
ARC
  8
0
 10
-143.675018
 20
126.750031
 40
11.899994
 50
90.000000
 51
179.999969
  0
ARC
  8
0
 10
-134.675049
 20
133.480301
 40
3.000466
 50
358.990326
 51
181.009964
  0
ARC
  8
0
 10
-111.302826
 20
126.750015
 40
21.182205
 50
164.950592
 51
180.000015
  0
ARC
  8
0
 10
-158.047241
 20
126.750000
 40
21.182205
 50
359.999969
 51
15.049409
  0
ARC
  8
0
 10
-93.975067
 20
49.750000
 40
2.000000
 50
0.000000
 51
61.044472
  0
ARC
  8
0
 10
-93.975067
 20
47.749985
 40
2.000001
 50
298.955536
 51
0.000000
  0
ARC
  8
0
 10
-93.059906
 20
46.199997
 40
0.200001
 50
270.000000
 51
300.556305
  0
ARC
  8
0
 10
-93.975067
 20
23.750000
 40
2.000000
 50
0.000000
 51
61.044472
  0
ARC
  8
0
 10
-93.975067
 20
21.750000
 40
2.000001
 50
298.955536
 51
0.000000
  0
ARC
  8
0
 10
-93.059906
 20
20.200012
 40
0.200001
 50
270.000000
 51
300.556580
  0
ARC
  8
0
 10
-92.675018
 20
56.549988
 40
1.699997
 50
0.000000
 51
58.533295
  0
ARC
  8
0
 10
-92.675018
 20
54.949982
 40
1.699998
 50
301.467072
 51
0.000000
  0
ARC
  8
0
 10
81.811707
 20
3.046494
 40
2.000000
 50
270.000000
 51
331.046417
  0
ARC
  8
0
 10
79.811737
 20
3.046494
 40
2.000003
 50
208.956100
 51
270.000000
  0
CIRCLE
  8
0
 62
     2
 10
131.324951
 20
15.750000
 40
6.578500
  0
CIRCLE
  8
0
 10
131.324951
 20
15.750000
 40
5.722500
  0
CIRCLE
  8
0
 62
     2
 10
124.824951
 20
35.750000
 40
6.578500
  0
CIRCLE
  8
0
 10
124.824951
 20
35.750000
 40
5.722500
  0
CIRCLE
  8
0
 62
     2
 10
131.324951
 20
55.750000
 40
6.578500
  0
CIRCLE
  8
0
 10
131.324951
 20
55.750000
 40
5.722500
  0
ARC
  8
0
 62
     4
 10
101.574951
 20
101.450012
 40
2.000000
 50
0.000000
 51
90.000000
  0
ARC
  8
0
 62
     4
 10
100.074951
 20
101.450012
 40
2.000000
 50
90.000000
 51
180.000000
  0
ARC
  8
0
 62
     4
 10
73.824951
 20
97.750000
 40
1.000000
 50
90.000000
 51
180.000000
  0
ARC
  8
0
 62
     4
 10
73.824951
 20
80.750000
 40
1.000000
 50
180.000000
 51
270.000000
  0
ARC
  8
0
 62
     4
 10
81.574951
 20
101.450012
 40
2.000003
 50
40.541080
 51
90.000000
  0
ARC
  8
0
 62
     4
 10
80.074951
 20
101.450012
 40
2.000000
 50
90.000000
 51
139.458923
  0
ARC
  8
0
 10
122.324951
 20
126.749985
 40
11.899994
 50
0.000000
 51
90.000000
  0
ARC
  8
0
 10
72.624969
 20
39.749985
 40
2.000000
 50
180.000000
 51
241.044662
  0
ARC
  8
0
 10
72.624969
 20
41.750000
 40
2.000001
 50
118.955528
 51
180.000000
  0
ARC
  8
0
 10
71.709808
 20
43.299988
 40
0.200001
 50
90.000000
 51
120.556305
  0
ARC
  8
0
 10
71.324921
 20
18.950012
 40
1.699997
 50
180.000000
 51
238.533295
  0
ARC
  8
0
 10
71.324921
 20
20.549988
 40
1.700002
 50
121.467278
 51
180.000000
  0
ARC
  8
0
 10
-21.175018
 20
-97.250000
 40
3.000000
 50
0.000000
 51
90.000000
  0
ARC
  8
0
 10
-21.175018
 20
-97.250000
 40
3.000000
 50
270.000000
 51
0.000000
  0
CIRCLE
  8
0
 10
-21.175018
 20
-97.250000
 40
2.750000
  0
CIRCLE
  8
0
 10
-6.175018
 20
-98.750000
 40
2.299999
  0
CIRCLE
  8
0
 62
     2
 10
-6.175018
 20
-98.750000
 40
1.500000
  0
CIRCLE
  8
0
 10
-6.175018
 20
-98.750000
 40
1.200000
  0
ARC
  8
0
 10
-5.175018
 20
-77.249992
 40
3.000000
 50
89.999985
 51
270.000000
  0
CIRCLE
  8
0
 10
-5.175018
 20
-77.249992
 40
2.750000
  0
CIRCLE
  8
0
 10
-20.175018
 20
-75.749992
 40
2.299999
  0
CIRCLE
  8
0
 62
     2
 10
-20.175018
 20
-75.749992
 40
1.500000
  0
CIRCLE
  8
0
 10
-20.175018
 20
-75.749992
 40
1.200000
  0
CIRCLE
  8
0
 62
     2
 10
103.804474
 20
-132.750000
 40
6.578500
  0
CIRCLE
  8
0
 10
103.804474
 20
-132.750000
 40
5.722500
  0
CIRCLE
  8
0
 10
79.804474
 20
-164.250000
 40
5.722500
  0
CIRCLE
  8
0
 62
     2
 10
79.804474
 20
-164.250000
 40
6.578500
  0
CIRCLE
  8
0
 10
79.804474
 20
-144.250000
 40
5.722500
  0
CIRCLE
  8
0
 62
     2
 10
79.804474
 20
-144.250000
 40
6.578500
  0
CIRCLE
  8
0
 10
79.804474
 20
-124.250000
 40
5.722500
  0
CIRCLE
  8
0
 62
     2
 10
79.804474
 20
-124.250000
 40
6.578500
  0
CIRCLE
  8
0
 10
103.804474
 20
-155.750000
 40
5.722500
  0
CIRCLE
  8
0
 62
     2
 10
103.804474
 20
-155.750000
 40
6.578500
  0
CIRCLE
  8
0
 62
     2
 10
94.304474
 20
-119.250000
 40
2.500000
  0
CIRCLE
  8
0
 10
94.304474
 20
-119.250000
 40
2.100000
  0
CIRCLE
  8
0
 10
73.804474
 20
-111.250000
 40
2.250000
  0
CIRCLE
  8
0
 10
107.804474
 20
-169.750000
 40
2.250000
  0
ARC
  8
0
 10
89.954468
 20
-53.250000
 40
11.900002
 50
359.999969
 51
179.999985
  0
TEXT
  8
0
 10
174.200241
 20
180.830002
 40
6.300000
  1
DATE: NOV ,1993
 50
0.000000
 41
1.052632
 51
0.000000
  7
STANDARD
  0
TEXT
  8
0
 10
167.564667
 20
-192.100006
 40
9.000000
  1
KOGANEI CORP.
 50
0.000000
 41
1.052632
 51
0.000000
  7
STANDARD
  0
TEXT
  8
0
 10
-247.099716
 20
180.830002
 40
6.300000
  1
W240-4E1
 50
0.000000
 41
1.052632
 51
0.000000
  7
STANDARD
  0
TEXT
  8
0
 10
106.740631
 20
-77.713760
 40
6.300000
  1
(-28)
 50
0.000000
 41
1.052632
 51
0.000000
  7
STANDARD
  0
TEXT
  8
0
 10
-270.049713
 20
155.830002
 40
6.300000
  1
MODEL:W240-4E1-26
 50
0.000000
 41
1.052632
 51
0.000000
  7
STANDARD
  0
TEXT
  8
0
 10
-165.875046
 20
47.928436
 40
3.000000
  1
A
 50
-90.000000
 41
1.052631
 51
0.000000
  7
STANDARD
  0
TEXT
  8
0
 10
-156.875046
 20
63.928436
 40
3.000000
  1
PR
 50
-90.000000
 41
1.052631
 51
0.000000
  7
STANDARD
  0
TEXT
  8
0
 10
-165.875046
 20
26.928436
 40
3.000000
  1
B
 50
-90.000000
 41
1.052631
 51
0.000000
  7
STANDARD
  0
TEXT
  8
0
 10
144.524948
 20
12.571563
 40
3.000000
  1
R2
 50
90.000000
 41
1.052631
 51
0.000000
  7
STANDARD
  0
TEXT
  8
0
 10
138.024948
 20
34.071564
 40
3.000000
  1
P
 50
90.000000
 41
1.052631
 51
0.000000
  7
STANDARD
  0
TEXT
  8
0
 10
144.524948
 20
52.571564
 40
3.000000
  1
R1
 50
90.000000
 41
1.052631
 51
0.000000
  7
STANDARD
  0
TEXT
  8
0
 10
105.747475
 20
-126.629997
 40
3.200000
  1
A
 50
0.000000
 41
1.052632
 51
0.000000
  7
STANDARD
  0
TEXT
  8
0
 10
105.747475
 20
-165.630005
 40
3.200000
  1
B
 50
0.000000
 41
1.052632
 51
0.000000
  7
STANDARD
  0
TEXT
  8
0
 10
77.997475
 20
-117.129997
 40
3.200000
  1
R
 50
0.000000
 41
1.052632
 51
0.000000
  7
STANDARD
  0
TEXT
  8
0
 10
77.997475
 20
-157.130005
 40
3.200000
  1
R
 50
0.000000
 41
1.052632
 51
0.000000
  7
STANDARD
  0
TEXT
  8
0
 10
77.997475
 20
-137.130005
 40
3.200000
  1
P
 50
0.000000
 41
1.052632
 51
0.000000
  7
STANDARD
  0
TEXT
  8
0
 10
91.184471
 20
-122.656998
 40
3.200000
  1
PR
 50
90.000000
 41
1.052632
 51
0.000000
  7
STANDARD
  0
ENDSEC
  0
EOF
