  0
SECTION
  2
HEADER
  9
$ACADVER
  1
AC1009
  9
$DWGCODEPAGE
  3
dos932
  9
$INSBASE
 10
0.0
 20
0.0
 30
0.0
  9
$EXTMIN
 10
-138.3999939
 20
-94.80000305
 30
0.0
  9
$EXTMAX
 10
138.3500061
 20
94.5
 30
0.0
  9
$LIMMIN
 10
-138.3999939
 20
-94.80000305
  9
$LIMMAX
 10
138.3500061
 20
94.5
  9
$ORTHOMODE
 70
       0
  9
$REGENMODE
 70
       1
  9
$FILLMODE
 70
       1
  9
$QTEXTMODE
 70
       0
  9
$MIRRTEXT
 70
       1
  9
$DRAGMODE
 70
       2
  9
$LTSCALE
 40
1.0
  9
$OSMODE
 70
       0
  9
$ATTMODE
 70
       1
  9
$TEXTSIZE
 40
3.20000005
  9
$TRACEWID
 40
0.05
  9
$TEXTSTYLE
  7
MX_NOTE_STANDARD
  9
$CLAYER
  8
0
  9
$CELTYPE
  6
CONTINUOUS
  9
$CECOLOR
 62
     256
  9
$DIMSCALE
 40
1.0
  9
$DIMASZ
 40
2.5
  9
$DIMEXO
 40
1.5
  9
$DIMDLI
 40
3.75
  9
$DIMRND
 40
0.0
  9
$DIMDLE
 40
0.0
  9
$DIMEXE
 40
1.5
  9
$DIMTP
 40
0.0
  9
$DIMTM
 40
0.0
  9
$DIMTXT
 40
3.20000005
  9
$DIMCEN
 40
2.5
  9
$DIMTSZ
 40
0.0
  9
$DIMTOL
 70
       0
  9
$DIMLIM
 70
       0
  9
$DIMTIH
 70
       0
  9
$DIMTOH
 70
       0
  9
$DIMSE1
 70
       0
  9
$DIMSE2
 70
       0
  9
$DIMTAD
 70
       1
  9
$DIMZIN
 70
       8
  9
$DIMBLK
  1

  9
$DIMASO
 70
       1
  9
$DIMSHO
 70
       1
  9
$DIMPOST
  1

  9
$DIMAPOST
  1

  9
$DIMALT
 70
       0
  9
$DIMALTD
 70
       4
  9
$DIMALTF
 40
0.03937008
  9
$DIMLFAC
 40
1.0
  9
$DIMTOFL
 70
       1
  9
$DIMTVP
 40
0.0
  9
$DIMTIX
 70
       0
  9
$DIMSOXD
 70
       0
  9
$DIMSAH
 70
       0
  9
$DIMBLK1
  1

  9
$DIMBLK2
  1

  9
$DIMSTYLE
  2
MXDIMSTYLE
  9
$DIMCLRD
 70
       0
  9
$DIMCLRE
 70
       0
  9
$DIMCLRT
 70
       0
  9
$DIMTFAC
 40
1.0
  9
$DIMGAP
 40
1.0
  9
$LUNITS
 70
       2
  9
$LUPREC
 70
       4
  9
$AXISMODE
 70
       0
  9
$AXISUNIT
 10
0.0
 20
0.0
  9
$SKETCHINC
 40
0.1
  9
$FILLETRAD
 40
0.0
  9
$AUNITS
 70
       0
  9
$AUPREC
 70
       0
  9
$MENU
  1
acad
  9
$ELEVATION
 40
0.0
  9
$PELEVATION
 40
0.0
  9
$THICKNESS
 40
0.0
  9
$LIMCHECK
 70
       0
  9
$BLIPMODE
 70
       1
  9
$CHAMFERA
 40
0.0
  9
$CHAMFERB
 40
0.0
  9
$SKPOLY
 70
       0
  9
$TDCREATE
 40
2453452.708275463
  9
$TDUPDATE
 40
2453452.708275463
  9
$TDINDWG
 40
0.0000000000
  9
$TDUSRTIMER
 40
0.0000000000
  9
$USRTIMER
 70
       1
  9
$ANGBASE
 50
0.0
  9
$ANGDIR
 70
       0
  9
$PDMODE
 70
       0
  9
$PDSIZE
 40
0.0
  9
$PLINEWID
 40
0.0
  9
$COORDS
 70
       1
  9
$SPLFRAME
 70
       0
  9
$SPLINETYPE
 70
       6
  9
$SPLINESEGS
 70
       8
  9
$ATTDIA
 70
       0
  9
$ATTREQ
 70
       1
  9
$HANDLING
 70
       1
  9
$HANDSEED
  5
26F
  9
$SURFTAB1
 70
       6
  9
$SURFTAB2
 70
       6
  9
$SURFTYPE
 70
       6
  9
$SURFU
 70
       6
  9
$SURFV
 70
       6
  9
$UCSNAME
  2

  9
$UCSORG
 10
0.0
 20
0.0
 30
0.0
  9
$UCSXDIR
 10
1.0
 20
0.0
 30
0.0
  9
$UCSYDIR
 10
0.0
 20
1.0
 30
0.0
  9
$PUCSNAME
  2

  9
$PUCSORG
 10
0.0
 20
0.0
 30
0.0
  9
$PUCSXDIR
 10
1.0
 20
0.0
 30
0.0
  9
$PUCSYDIR
 10
0.0
 20
1.0
 30
0.0
  9
$USERI1
 70
       0
  9
$USERI2
 70
       0
  9
$USERI3
 70
       0
  9
$USERI4
 70
       0
  9
$USERI5
 70
       0
  9
$USERR1
 40
0.0
  9
$USERR2
 40
0.0
  9
$USERR3
 40
0.0
  9
$USERR4
 40
0.0
  9
$USERR5
 40
0.0
  9
$WORLDVIEW
 70
       1
  9
$SHADEDGE
 70
       3
  9
$SHADEDIF
 70
      70
  9
$TILEMODE
 70
       1
  9
$MAXACTVP
 70
      16
  9
$PINSBASE
 10
0.0
 20
0.0
 30
0.0
  9
$PLIMCHECK
 70
       0
  9
$PEXTMIN
 10
1.00000000E+20
 20
1.00000000E+20
 30
1.00000000E+20
  9
$PEXTMAX
 10
-1.00000000E+20
 20
-1.00000000E+20
 30
-1.00000000E+20
  9
$PLIMMIN
 10
0.0
 20
0.0
  9
$PLIMMAX
 10
12.0
 20
9.0
  9
$UNITMODE
 70
       0
  9
$VISRETAIN
 70
       0
  9
$PLINEGEN
 70
       1
  9
$PSLTSCALE
 70
       0
  9
$TREEDEPTH
 70
    3020
  9
$DWGCODEPAGE
  3
dos932
  0
ENDSEC
  0
SECTION
  2
TABLES
  0
TABLE
  2
VPORT
 70
       1
  0
VPORT
  2
*ACTIVE
 70
       0
 10
0.0
 20
0.0
 11
1.0
 21
1.0
 12
-0.0249939
 22
-0.15000153
 13
0.0
 23
0.0
 14
1.0
 24
1.0
 15
0.0
 25
0.0
 16
0.0
 26
0.0
 36
1.0
 17
0.0
 27
0.0
 37
0.0
 40
191.19300308
 41
1.73205081
 42
50.0
 43
0.0
 44
0.0
 50
0.0
 51
0.0
 71
       0
 72
     100
 73
       1
 74
       1
 75
       0
 76
       0
 77
       0
 78
       0
  0
ENDTAB
  0
TABLE
  2
LTYPE
 70
       3
  0
LTYPE
  2
CONTINUOUS
 70
      64
  3
Solid line
 72
      65
 73
       0
 40
0.0
  0
LTYPE
  2
DASHED
 70
      64
  3
Dashed __ __ __ __ __ __ __ __ __ __ __ __ __ _
 72
      65
 73
       2
 40
4.0
 49
2.0
 49
-2.0
  0
LTYPE
  2
CENTER
 70
      64
  3
Center ____ _ ____ _ ____ _ ____ _ ____ _ ____
 72
      65
 73
       4
 40
26.0
 49
20.0
 49
-2.0
 49
2.0
 49
-2.0
  0
ENDTAB
  0
TABLE
  2
LAYER
 70
       2
  0
LAYER
  2
0
 70
       0
 62
       7
  6
CONTINUOUS
  0
LAYER
  2
DEFPOINTS
 70
       0
 62
       7
  6
CONTINUOUS
  0
ENDTAB
  0
TABLE
  2
STYLE
 70
       1
  0
STYLE
  2
MX_NOTE_STANDARD
 70
       0
 40
0.0
 41
1.0
 50
0.0
 71
       0
 42
3.20000005
  3
txt.shx
  4
extfont.shx
  0
ENDTAB
  0
TABLE
  2
VIEW
 70
       0
  0
ENDTAB
  0
TABLE
  2
UCS
 70
       0
  0
ENDTAB
  0
TABLE
  2
APPID
 70
       1
  0
APPID
  2
ACAD
 70
       0
  0
ENDTAB
  0
TABLE
  2
DIMSTYLE
 70
       1
  0
DIMSTYLE
  2
MXDIMSTYLE
 70
       0
  3

  4

  5

  6

  7

 40
1.0
 41
2.5
 42
1.5
 43
3.75
 44
1.5
 45
0.0
 46
0.0
 47
0.0
 48
0.0
 71
       0
 72
       0
 73
       0
 74
       0
 75
       0
 76
       0
 77
       1
 78
       8
140
3.20000005
141
2.5
142
0.0
143
0.03937008
144
1.0
145
0.0
146
1.0
147
1.0
170
       0
171
       4
172
       1
173
       0
174
       0
175
       0
176
       0
177
       0
178
       0
  0
ENDTAB
  0
ENDSEC
  0
SECTION
  2
BLOCKS
  0
BLOCK
  8
0
  5
1F
  2
MS_1
 70
       0
 10
0.0
 20
0.0
 30
0.0
  3
MS_1
  0
POINT
  8
0
  6
CONTINUOUS
 62
       3
  5
20
 10
0.0
 20
0.0
 30
0.0
  0
LINE
  8
0
  6
CONTINUOUS
 62
       7
  5
21
 10
-6.59
 20
0.0
 30
0.0
 11
-4.0
 21
1.5
 31
0.0
  0
LINE
  8
0
  6
CONTINUOUS
 62
       7
  5
22
 10
-4.0
 20
1.5
 30
0.0
 11
-4.0
 21
0.8
 31
0.0
  0
LINE
  8
0
  6
CONTINUOUS
 62
       7
  5
23
 10
-4.0
 20
0.8
 30
0.0
 11
0.0
 21
0.8
 31
0.0
  0
LINE
  8
0
  6
CONTINUOUS
 62
       7
  5
24
 10
0.0
 20
0.8
 30
0.0
 11
0.0
 21
-0.8
 31
0.0
  0
LINE
  8
0
  6
CONTINUOUS
 62
       7
  5
25
 10
-4.0
 20
-0.8
 30
0.0
 11
0.0
 21
-0.8
 31
0.0
  0
LINE
  8
0
  6
CONTINUOUS
 62
       7
  5
26
 10
-4.0
 20
-0.8
 30
0.0
 11
-4.0
 21
-1.5
 31
0.0
  0
LINE
  8
0
  6
CONTINUOUS
 62
       7
  5
27
 10
-6.59
 20
0.0
 30
0.0
 11
-4.0
 21
-1.5
 31
0.0
  0
ENDBLK
  8
0
  5
28
  0
ENDSEC
  0
SECTION
  2
ENTITIES
  0
CIRCLE
  8
0
  6
CONTINUOUS
 62
       7
  5
29
 10
70.99
 20
-19.0
 30
0.0
 40
2.067
  0
CIRCLE
  8
0
  6
CONTINUOUS
 62
       2
  5
2A
 10
70.99
 20
-19.0
 30
0.0
 40
2.5
  0
LINE
  8
0
  6
CONTINUOUS
 62
       2
  5
2B
 10
65.99
 20
-19.0
 30
0.0
 11
75.99
 21
-19.0
 31
0.0
  0
LINE
  8
0
  6
CONTINUOUS
 62
       2
  5
2C
 10
-33.665
 20
-19.0
 30
0.0
 11
-25.665
 21
-19.0
 31
0.0
  0
LINE
  8
0
  6
CONTINUOUS
 62
       7
  5
2D
 10
-21.2577858
 20
-22.4999826
 30
0.0
 11
-18.6677858
 21
-23.9999826
 31
0.0
  0
LINE
  8
0
  6
CONTINUOUS
 62
       7
  5
2E
 10
-18.6677858
 20
-23.2999826
 30
0.0
 11
-18.6677858
 21
-23.9999826
 31
0.0
  0
LINE
  8
0
  6
CONTINUOUS
 62
       7
  5
2F
 10
-18.6677858
 20
-23.2999826
 30
0.0
 11
-14.6677858
 21
-23.2999826
 31
0.0
  0
LINE
  8
0
  6
CONTINUOUS
 62
       7
  5
30
 10
-14.6677858
 20
-21.6999826
 30
0.0
 11
-14.6677858
 21
-23.2999826
 31
0.0
  0
LINE
  8
0
  6
CONTINUOUS
 62
       7
  5
31
 10
-18.6677858
 20
-21.6999826
 30
0.0
 11
-14.6677858
 21
-21.6999826
 31
0.0
  0
LINE
  8
0
  6
CONTINUOUS
 62
       7
  5
32
 10
-18.6677858
 20
-20.9999826
 30
0.0
 11
-18.6677858
 21
-21.6999826
 31
0.0
  0
LINE
  8
0
  6
CONTINUOUS
 62
       7
  5
33
 10
-21.2577858
 20
-22.4999826
 30
0.0
 11
-18.6677858
 21
-20.9999826
 31
0.0
  0
LINE
  8
0
  6
CONTINUOUS
 62
       7
  5
34
 10
-73.25778961
 20
-22.4999826
 30
0.0
 11
-70.66778961
 21
-23.9999826
 31
0.0
  0
LINE
  8
0
  6
CONTINUOUS
 62
       7
  5
35
 10
-70.66778961
 20
-23.2999826
 30
0.0
 11
-70.66778961
 21
-23.9999826
 31
0.0
  0
LINE
  8
0
  6
CONTINUOUS
 62
       7
  5
36
 10
-70.66778961
 20
-23.2999826
 30
0.0
 11
-66.66778961
 21
-23.2999826
 31
0.0
  0
LINE
  8
0
  6
CONTINUOUS
 62
       7
  5
37
 10
-66.66778961
 20
-21.6999826
 30
0.0
 11
-66.66778961
 21
-23.2999826
 31
0.0
  0
LINE
  8
0
  6
CONTINUOUS
 62
       7
  5
38
 10
-70.66778961
 20
-21.6999826
 30
0.0
 11
-66.66778961
 21
-21.6999826
 31
0.0
  0
LINE
  8
0
  6
CONTINUOUS
 62
       7
  5
39
 10
-70.66778961
 20
-20.9999826
 30
0.0
 11
-70.66778961
 21
-21.6999826
 31
0.0
  0
LINE
  8
0
  6
CONTINUOUS
 62
       7
  5
3A
 10
-73.25778961
 20
-22.4999826
 30
0.0
 11
-70.66778961
 21
-20.9999826
 31
0.0
  0
TEXT
  8
0
  6
CONTINUOUS
 62
       7
  5
3B
 10
-86.04183137
 20
-24.75
 30
0.0
 40
4.5
  1
VAC
 41
0.89999999
  7
MX_NOTE_STANDARD
 11
-86.04183137
 21
-22.5
 31
0.0
 73
       2
  0
LINE
  8
0
  6
CONTINUOUS
 62
       7
  5
3C
 10
-59.265
 20
8.285
 30
0.0
 11
-59.265
 21
5.0
 31
0.0
  0
LINE
  8
0
  6
CONTINUOUS
 62
       7
  5
3D
 10
-57.165
 20
5.0
 30
0.0
 11
-57.165
 21
4.5
 31
0.0
  0
LINE
  8
0
  6
CONTINUOUS
 62
       7
  5
3E
 10
-57.165
 20
9.5
 30
0.0
 11
-59.265
 21
8.285
 31
0.0
  0
LINE
  8
0
  6
CONTINUOUS
 62
       7
  5
3F
 10
-57.665
 20
-3.5
 30
0.0
 11
-57.665
 21
-4.01367772
 31
0.0
  0
LINE
  8
0
  6
CONTINUOUS
 62
       7
  5
40
 10
-56.665
 20
-3.5
 30
0.0
 11
-57.665
 21
-3.5
 31
0.0
  0
LINE
  8
0
  6
CONTINUOUS
 62
       7
  5
41
 10
-51.665
 20
1.5
 30
0.0
 11
-51.665
 21
-0.31339288
 31
0.0
  0
LINE
  8
0
  6
CONTINUOUS
 62
       7
  5
42
 10
-52.10967288
 20
-0.5
 30
0.0
 11
-57.615
 21
-0.5
 31
0.0
  0
LINE
  8
0
  6
CONTINUOUS
 62
       7
  5
43
 10
-51.715
 20
0.2
 30
0.0
 11
-57.615
 21
0.2
 31
0.0
  0
LINE
  8
0
  6
CONTINUOUS
 62
       7
  5
44
 10
-51.715
 20
-0.33378532
 30
0.0
 11
-51.715
 21
0.2
 31
0.0
  0
LINE
  8
0
  6
CONTINUOUS
 62
       7
  5
45
 10
-57.615
 20
-0.5
 30
0.0
 11
-57.615
 21
0.2
 31
0.0
  0
LINE
  8
0
  6
CONTINUOUS
 62
       7
  5
46
 10
-57.465
 20
1.37
 30
0.0
 11
-57.465
 21
0.2
 31
0.0
  0
LINE
  8
0
  6
CONTINUOUS
 62
       7
  5
47
 10
-51.865
 20
1.37
 30
0.0
 11
-51.865
 21
0.2
 31
0.0
  0
LINE
  8
0
  6
CONTINUOUS
 62
       2
  5
48
 10
-54.665
 20
-1.5
 30
0.0
 11
-54.665
 21
4.5
 31
0.0
  0
LINE
  8
0
  6
CONTINUOUS
 62
       7
  5
49
 10
-55.66
 20
2.5
 30
0.0
 11
-56.665
 21
2.5
 31
0.0
  0
LINE
  8
0
  6
CONTINUOUS
 62
       7
  5
4A
 10
-54.665
 20
11.5
 30
0.0
 11
-54.665
 21
10.5
 31
0.0
  0
LINE
  8
0
  6
CONTINUOUS
 62
       7
  5
4B
 10
-54.665
 20
10.5
 30
0.0
 11
-55.665
 21
9.5
 31
0.0
  0
LINE
  8
0
  6
CONTINUOUS
 62
       7
  5
4C
 10
-53.665
 20
12.5
 30
0.0
 11
-54.665
 21
11.5
 31
0.0
  0
LINE
  8
0
  6
CONTINUOUS
 62
       7
  5
4D
 10
-52.165
 20
15.8
 30
0.0
 11
-52.165
 21
12.5
 31
0.0
  0
LINE
  8
0
  6
CONTINUOUS
 62
       7
  5
4E
 10
-41.7
 20
15.8
 30
0.0
 11
-41.7
 21
12.5
 31
0.0
  0
LINE
  8
0
  6
CONTINUOUS
 62
       7
  5
4F
 10
-45.63
 20
15.8
 30
0.0
 11
-45.63
 21
12.5
 31
0.0
  0
LINE
  8
0
  6
CONTINUOUS
 62
       7
  5
50
 10
-50.2
 20
15.8
 30
0.0
 11
-50.2
 21
12.5
 31
0.0
  0
LINE
  8
0
  6
CONTINUOUS
 62
       7
  5
51
 10
-57.665
 20
1.5
 30
0.0
 11
-57.665
 21
-3.5
 31
0.0
  0
LINE
  8
0
  6
CONTINUOUS
 62
       7
  5
52
 10
-54.665
 20
16.3
 30
0.0
 11
-54.165
 21
15.8
 31
0.0
  0
LINE
  8
0
  6
CONTINUOUS
 62
       7
  5
53
 10
-53.365
 20
34.8
 30
0.0
 11
-53.365
 21
33.8
 31
0.0
  0
LINE
  8
0
  6
CONTINUOUS
 62
       7
  5
54
 10
-53.365
 20
33.8
 30
0.0
 11
-54.365
 21
32.8
 31
0.0
  0
LINE
  8
0
  6
CONTINUOUS
 62
       7
  5
55
 10
-54.365
 20
32.8
 30
0.0
 11
-54.665
 21
16.3
 31
0.0
  0
LINE
  8
0
  6
CONTINUOUS
 62
       7
  5
56
 10
-40.665
 20
32.8
 30
0.0
 11
-40.375
 21
18.3
 31
0.0
  0
LINE
  8
0
  6
CONTINUOUS
 62
       7
  5
57
 10
-46.665
 20
32.8
 30
0.0
 11
-46.955
 21
18.3
 31
0.0
  0
LINE
  8
0
  6
CONTINUOUS
 62
       7
  5
58
 10
-40.355
 20
33.8
 30
0.0
 11
-40.055
 21
18.875
 31
0.0
  0
LINE
  8
0
  6
CONTINUOUS
 62
       7
  5
59
 10
-46.975
 20
33.8
 30
0.0
 11
-47.275
 21
18.875
 31
0.0
  0
LINE
  8
0
  6
CONTINUOUS
 62
       7
  5
5A
 10
-47.275
 20
18.875
 30
0.0
 11
-48.075
 21
18.875
 31
0.0
  0
LINE
  8
0
  6
CONTINUOUS
 62
       7
  5
5B
 10
-46.955
 20
18.3
 30
0.0
 11
-49.1
 21
18.3
 31
0.0
  0
LINE
  8
0
  6
CONTINUOUS
 62
       7
  5
5C
 10
-47.775
 20
33.8
 30
0.0
 11
-48.075
 21
18.875
 31
0.0
  0
LINE
  8
0
  6
CONTINUOUS
 62
       7
  5
5D
 10
-39.56
 20
33.8
 30
0.0
 11
-39.26
 21
18.875
 31
0.0
  0
LINE
  8
0
  6
CONTINUOUS
 62
       7
  5
5E
 10
-47.775
 20
33.8
 30
0.0
 11
-52.455
 21
33.8
 31
0.0
  0
LINE
  8
0
  6
CONTINUOUS
 62
       7
  5
5F
 10
-40.355
 20
33.8
 30
0.0
 11
-46.975
 21
33.8
 31
0.0
  0
LINE
  8
0
  6
CONTINUOUS
 62
       7
  5
60
 10
-40.665
 20
32.8
 30
0.0
 11
-46.665
 21
32.8
 31
0.0
  0
LINE
  8
0
  6
CONTINUOUS
 62
       7
  5
61
 10
-48.805
 20
32.8
 30
0.0
 11
-53.05
 21
32.8
 31
0.0
  0
LINE
  8
0
  6
CONTINUOUS
 62
       7
  5
62
 10
-53.05
 20
32.8
 30
0.0
 11
-53.34
 21
18.3
 31
0.0
  0
LINE
  8
0
  6
CONTINUOUS
 62
       7
  5
63
 10
-38.525
 20
32.8
 30
0.0
 11
-38.235
 21
18.3
 31
0.0
  0
LINE
  8
0
  6
CONTINUOUS
 62
       7
  5
64
 10
-39.26
 20
18.875
 30
0.0
 11
-40.055
 21
18.875
 31
0.0
  0
LINE
  8
0
  6
CONTINUOUS
 62
       7
  5
65
 10
-38.235
 20
18.3
 30
0.0
 11
-40.375
 21
18.3
 31
0.0
  0
LINE
  8
0
  6
CONTINUOUS
 62
       7
  5
66
 10
-53.33
 20
18.875
 30
0.0
 11
-53.665
 21
18.875
 31
0.0
  0
LINE
  8
0
  6
CONTINUOUS
 62
       7
  5
67
 10
-53.34
 20
18.3
 30
0.0
 11
-54.235
 21
18.3
 31
0.0
  0
LINE
  8
0
  6
CONTINUOUS
 62
       7
  5
68
 10
-48.805
 20
32.8
 30
0.0
 11
-49.1
 21
18.3
 31
0.0
  0
LINE
  8
0
  6
CONTINUOUS
 62
       7
  5
69
 10
-53.945
 20
32.8
 30
0.0
 11
-54.235
 21
18.3
 31
0.0
  0
LINE
  8
0
  6
CONTINUOUS
 62
       7
  5
6A
 10
-53.365
 20
33.8
 30
0.0
 11
-53.665
 21
18.875
 31
0.0
  0
LINE
  8
0
  6
CONTINUOUS
 62
       7
  5
6B
 10
-53.945
 20
32.8
 30
0.0
 11
-53.365
 21
33.8
 31
0.0
  0
LINE
  8
0
  6
CONTINUOUS
 62
       7
  5
6C
 10
-52.455
 20
33.8
 30
0.0
 11
-53.05
 21
32.8
 31
0.0
  0
LINE
  8
0
  6
CONTINUOUS
 62
       7
  5
6D
 10
-47.775
 20
33.8
 30
0.0
 11
-48.805
 21
32.8
 31
0.0
  0
LINE
  8
0
  6
CONTINUOUS
 62
       7
  5
6E
 10
-46.975
 20
33.8
 30
0.0
 11
-46.665
 21
32.8
 31
0.0
  0
LINE
  8
0
  6
CONTINUOUS
 62
       7
  5
6F
 10
-40.355
 20
33.8
 30
0.0
 11
-40.665
 21
32.8
 31
0.0
  0
LINE
  8
0
  6
CONTINUOUS
 62
       7
  5
70
 10
-39.56
 20
33.8
 30
0.0
 11
-38.525
 21
32.8
 31
0.0
  0
LINE
  8
0
  6
CONTINUOUS
 62
       7
  5
71
 10
-39.26
 20
18.875
 30
0.0
 11
-38.235
 21
18.3
 31
0.0
  0
LINE
  8
0
  6
CONTINUOUS
 62
       7
  5
72
 10
-40.375
 20
18.3
 30
0.0
 11
-40.055
 21
18.875
 31
0.0
  0
LINE
  8
0
  6
CONTINUOUS
 62
       7
  5
73
 10
-47.275
 20
18.875
 30
0.0
 11
-46.955
 21
18.3
 31
0.0
  0
LINE
  8
0
  6
CONTINUOUS
 62
       7
  5
74
 10
-48.075
 20
18.875
 30
0.0
 11
-49.1
 21
18.3
 31
0.0
  0
LINE
  8
0
  6
CONTINUOUS
 62
       7
  5
75
 10
-53.665
 20
18.875
 30
0.0
 11
-54.235
 21
18.3
 31
0.0
  0
LINE
  8
0
  6
CONTINUOUS
 62
       7
  5
76
 10
-54.165
 20
0.2
 30
0.0
 11
-54.355
 21
-0.5
 31
0.0
  0
LINE
  8
0
  6
CONTINUOUS
 62
       7
  5
77
 10
-55.165
 20
-0.5
 30
0.0
 11
-54.98
 21
0.2
 31
0.0
  0
LINE
  8
0
  6
CONTINUOUS
 62
       7
  5
78
 10
-55.665
 20
4.5
 30
0.0
 11
-55.665
 21
2.5
 31
0.0
  0
LINE
  8
0
  6
CONTINUOUS
 62
       7
  5
79
 10
-63.665
 20
2.5
 30
0.0
 11
-56.665
 21
2.5
 31
0.0
  0
LINE
  8
0
  6
CONTINUOUS
 62
       7
  5
7A
 10
-63.665
 20
30.5
 30
0.0
 11
-63.665
 21
2.5
 31
0.0
  0
LINE
  8
0
  6
CONTINUOUS
 62
       7
  5
7B
 10
-57.165
 20
4.5
 30
0.0
 11
-63.665
 21
4.5
 31
0.0
  0
LINE
  8
0
  6
CONTINUOUS
 62
       7
  5
7C
 10
-61.665
 20
32.5
 30
0.0
 11
-54.375
 21
32.5
 31
0.0
  0
LINE
  8
0
  6
CONTINUOUS
 62
       7
  5
7D
 10
-61.665
 20
32.5
 30
0.0
 11
-63.665
 21
30.5
 31
0.0
  0
LINE
  8
0
  6
CONTINUOUS
 62
       2
  5
7E
 10
-61.665
 20
22.5
 30
0.0
 11
-52.665
 21
22.5
 31
0.0
  0
LINE
  8
0
  6
CONTINUOUS
 62
       2
  5
7F
 10
-56.665
 20
26.0
 30
0.0
 11
-56.665
 21
19.0
 31
0.0
  0
LINE
  8
0
  6
CONTINUOUS
 62
       7
  5
80
 10
-57.665
 20
25.0
 30
0.0
 11
-55.665
 21
25.0
 31
0.0
  0
LINE
  8
0
  6
CONTINUOUS
 62
       7
  5
81
 10
-57.665
 20
20.0
 30
0.0
 11
-55.665
 21
20.0
 31
0.0
  0
LINE
  8
0
  6
CONTINUOUS
 62
       7
  5
82
 10
-54.665
 20
10.5
 30
0.0
 11
-54.665
 21
9.5
 31
0.0
  0
LINE
  8
0
  6
CONTINUOUS
 62
       7
  5
83
 10
-54.665
 20
4.5
 30
0.0
 11
-54.665
 21
2.6
 31
0.0
  0
LINE
  8
0
  6
CONTINUOUS
 62
       7
  5
84
 10
-51.46
 20
8.285
 30
0.0
 11
-51.46
 21
5.0
 31
0.0
  0
ARC
  8
0
  6
CONTINUOUS
 62
       7
  5
85
 10
-56.66639491
 20
1.50139491
 30
0.0
 40
0.99860606
 50
89.91996576
 51
180.08003424
  0
ARC
  8
0
  6
CONTINUOUS
 62
       7
  5
86
 10
-50.66639491
 20
1.50139491
 30
0.0
 40
0.99860606
 50
89.91996576
 51
180.08003424
  0
ARC
  8
0
  6
CONTINUOUS
 62
       7
  5
87
 10
-56.66639491
 20
-1.49860509
 30
0.0
 40
0.99860606
 50
89.91996576
 51
180.08003424
  0
ARC
  8
0
  6
CONTINUOUS
 62
       7
  5
88
 10
-56.801704
 20
1.37082648
 30
0.0
 40
0.66329651
 50
119.17035609
 51
180.07139189
  0
ARC
  8
0
  6
CONTINUOUS
 62
       7
  5
89
 10
-52.53243937
 20
1.36839761
 30
0.0
 40
0.66744129
 50
0.13755529
 51
60.62069673
  0
ARC
  8
0
  6
CONTINUOUS
 62
       7
  5
8A
 10
-54.665
 20
-2.39999243
 30
0.0
 40
4.99740274
 50
60.51104947
 51
119.48895053
  0
ARC
  8
0
  6
CONTINUOUS
 62
       7
  5
8B
 10
-52.36640254
 20
34.80140254
 30
0.0
 40
0.99859845
 50
89.91952777
 51
180.08047223
  0
ARC
  8
0
  6
CONTINUOUS
 62
       7
  5
8C
 10
-57.665
 20
22.5
 30
0.0
 40
2.50000156
 50
90.0
 51
270.0
  0
ARC
  8
0
  6
CONTINUOUS
 62
       7
  5
8D
 10
-55.66402408
 20
22.50085735
 30
0.0
 40
2.50085754
 50
269.97764119
 51
295.30666346
  0
ARC
  8
0
  6
CONTINUOUS
 62
       7
  5
8E
 10
-55.67387573
 20
22.5015102
 30
0.0
 40
2.49850557
 50
62.3656301
 51
89.79646106
  0
POLYLINE
  8
0
  6
CONTINUOUS
 62
       7
  5
8F
 66
       1
 10
0.0
 20
0.0
 30
0.0
  0
VERTEX
  8
0
  6
CONTINUOUS
 62
       7
  5
1C4
 10
-55.365
 20
9.5
 30
0.0
  0
VERTEX
  8
0
  6
CONTINUOUS
 62
       7
  5
1C5
 10
-55.24157217
 20
9.49602823
 30
0.0
  0
VERTEX
  8
0
  6
CONTINUOUS
 62
       7
  5
1C6
 10
-55.11810076
 20
9.49007514
 30
0.0
  0
VERTEX
  8
0
  6
CONTINUOUS
 62
       7
  5
1C7
 10
-54.99463053
 20
9.48213416
 30
0.0
  0
VERTEX
  8
0
  6
CONTINUOUS
 62
       7
  5
1C8
 10
-54.87120628
 20
9.47219868
 30
0.0
  0
VERTEX
  8
0
  6
CONTINUOUS
 62
       7
  5
1C9
 10
-54.74787278
 20
9.46026209
 30
0.0
  0
VERTEX
  8
0
  6
CONTINUOUS
 62
       7
  5
1CA
 10
-54.6246748
 20
9.44631781
 30
0.0
  0
VERTEX
  8
0
  6
CONTINUOUS
 62
       7
  5
1CB
 10
-54.50165713
 20
9.43035923
 30
0.0
  0
VERTEX
  8
0
  6
CONTINUOUS
 62
       7
  5
1CC
 10
-54.37886454
 20
9.41237975
 30
0.0
  0
VERTEX
  8
0
  6
CONTINUOUS
 62
       7
  5
1CD
 10
-54.2563418
 20
9.39237279
 30
0.0
  0
VERTEX
  8
0
  6
CONTINUOUS
 62
       7
  5
1CE
 10
-54.1341337
 20
9.37033173
 30
0.0
  0
VERTEX
  8
0
  6
CONTINUOUS
 62
       7
  5
1CF
 10
-54.01228502
 20
9.34624999
 30
0.0
  0
VERTEX
  8
0
  6
CONTINUOUS
 62
       7
  5
1D0
 10
-53.89084052
 20
9.32012096
 30
0.0
  0
VERTEX
  8
0
  6
CONTINUOUS
 62
       7
  5
1D1
 10
-53.769845
 20
9.29193804
 30
0.0
  0
VERTEX
  8
0
  6
CONTINUOUS
 62
       7
  5
1D2
 10
-53.64934321
 20
9.26169464
 30
0.0
  0
VERTEX
  8
0
  6
CONTINUOUS
 62
       7
  5
1D3
 10
-53.52937996
 20
9.22938416
 30
0.0
  0
VERTEX
  8
0
  6
CONTINUOUS
 62
       7
  5
1D4
 10
-53.41
 20
9.195
 30
0.0
  0
VERTEX
  8
0
  6
CONTINUOUS
 62
       7
  5
1D5
 10
-53.28089007
 20
9.15522341
 30
0.0
  0
VERTEX
  8
0
  6
CONTINUOUS
 62
       7
  5
1D6
 10
-53.15258067
 20
9.11297082
 30
0.0
  0
VERTEX
  8
0
  6
CONTINUOUS
 62
       7
  5
1D7
 10
-53.02510697
 20
9.06828426
 30
0.0
  0
VERTEX
  8
0
  6
CONTINUOUS
 62
       7
  5
1D8
 10
-52.89850415
 20
9.02120579
 30
0.0
  0
VERTEX
  8
0
  6
CONTINUOUS
 62
       7
  5
1D9
 10
-52.77280737
 20
8.97177745
 30
0.0
  0
VERTEX
  8
0
  6
CONTINUOUS
 62
       7
  5
1DA
 10
-52.6480518
 20
8.92004129
 30
0.0
  0
VERTEX
  8
0
  6
CONTINUOUS
 62
       7
  5
1DB
 10
-52.52427261
 20
8.86603936
 30
0.0
  0
VERTEX
  8
0
  6
CONTINUOUS
 62
       7
  5
1DC
 10
-52.40150497
 20
8.8098137
 30
0.0
  0
VERTEX
  8
0
  6
CONTINUOUS
 62
       7
  5
1DD
 10
-52.27978405
 20
8.75140636
 30
0.0
  0
VERTEX
  8
0
  6
CONTINUOUS
 62
       7
  5
1DE
 10
-52.15914502
 20
8.6908594
 30
0.0
  0
VERTEX
  8
0
  6
CONTINUOUS
 62
       7
  5
1DF
 10
-52.03962305
 20
8.62821485
 30
0.0
  0
VERTEX
  8
0
  6
CONTINUOUS
 62
       7
  5
1E0
 10
-51.92125331
 20
8.56351476
 30
0.0
  0
VERTEX
  8
0
  6
CONTINUOUS
 62
       7
  5
1E1
 10
-51.80407096
 20
8.49680118
 30
0.0
  0
VERTEX
  8
0
  6
CONTINUOUS
 62
       7
  5
1E2
 10
-51.68811118
 20
8.42811617
 30
0.0
  0
VERTEX
  8
0
  6
CONTINUOUS
 62
       7
  5
1E3
 10
-51.57340914
 20
8.35750176
 30
0.0
  0
VERTEX
  8
0
  6
CONTINUOUS
 62
       7
  5
1E4
 10
-51.46
 20
8.285
 30
0.0
  0
SEQEND
  8
0
  6
CONTINUOUS
 62
       7
  5
1E5
  0
CIRCLE
  8
0
  6
CONTINUOUS
 62
       7
  5
90
 10
-40.165
 20
-32.0
 30
0.0
 40
1.0
  0
LINE
  8
0
  6
CONTINUOUS
 62
       2
  5
91
 10
-40.165
 20
-33.66478882
 30
0.0
 11
-40.165
 21
-30.22232372
 31
0.0
  0
LINE
  8
0
  6
CONTINUOUS
 62
       2
  5
92
 10
-38.60416393
 20
-32.0
 30
0.0
 11
-41.84991674
 21
-32.0
 31
0.0
  0
LINE
  8
0
  6
CONTINUOUS
 62
       2
  5
93
 10
-47.165
 20
-33.66478882
 30
0.0
 11
-47.165
 21
-30.22232372
 31
0.0
  0
LINE
  8
0
  6
CONTINUOUS
 62
       2
  5
94
 10
-48.72583607
 20
-32.0
 30
0.0
 11
-45.48008326
 21
-32.0
 31
0.0
  0
CIRCLE
  8
0
  6
CONTINUOUS
 62
       7
  5
95
 10
-47.165
 20
-32.0
 30
0.0
 40
1.0
  0
LINE
  8
0
  6
CONTINUOUS
 62
       7
  5
96
 10
-44.505
 20
-21.24
 30
0.0
 11
-47.915
 21
-22.62
 31
0.0
  0
LINE
  8
0
  6
CONTINUOUS
 62
       7
  5
97
 10
-45.075
 20
-19.49
 30
0.0
 11
-48.645
 21
-20.38
 31
0.0
  0
LINE
  8
0
  6
CONTINUOUS
 62
       7
  5
98
 10
-49.365
 20
-21.85
 30
0.0
 11
-48.645
 21
-20.38
 31
0.0
  0
LINE
  8
0
  6
CONTINUOUS
 62
       7
  5
99
 10
-47.915
 20
-22.62
 30
0.0
 11
-49.365
 21
-21.85
 31
0.0
  0
ARC
  8
0
  6
CONTINUOUS
 62
       7
  5
9A
 10
-43.66814482
 20
-20.00078496
 30
0.0
 40
1.49671065
 50
47.91495198
 51
160.04562918
  0
ARC
  8
0
  6
CONTINUOUS
 62
       7
  5
9B
 10
-43.66789675
 20
-20.00116933
 30
0.0
 40
1.49513989
 50
235.95230037
 51
348.07937722
  0
LINE
  8
0
  6
CONTINUOUS
 62
       2
  5
9C
 10
-60.92499803
 20
-17.1116669
 30
0.0
 11
-56.48671282
 21
-17.85438112
 31
0.0
  0
LINE
  8
0
  6
CONTINUOUS
 62
       7
  5
9D
 10
-55.66786755
 20
-20.0
 30
0.0
 11
-61.165
 21
-20.0
 31
0.0
  0
LINE
  8
0
  6
CONTINUOUS
 62
       2
  5
9E
 10
-59.04429947
 20
-11.6497217
 30
0.0
 11
-55.08962246
 21
-13.79693612
 31
0.0
  0
LINE
  8
0
  6
CONTINUOUS
 62
       7
  5
9F
 10
-55.01393423
 20
-16.09224856
 30
0.0
 11
-60.21157507
 21
-14.3025573
 31
0.0
  0
LINE
  8
0
  6
CONTINUOUS
 62
       2
  5
A0
 10
-55.48782863
 20
-7.09764661
 30
0.0
 11
-52.4476727
 21
-10.41539462
 31
0.0
  0
LINE
  8
0
  6
CONTINUOUS
 62
       7
  5
A1
 10
-57.45518819
 20
-9.22592418
 30
0.0
 11
-53.11738127
 21
-12.61499038
 31
0.0
  0
LINE
  8
0
  6
CONTINUOUS
 62
       2
  5
A2
 10
-50.64310871
 20
-3.9514487
 30
0.0
 11
-48.8487379
 21
-8.07821903
 31
0.0
  0
LINE
  8
0
  6
CONTINUOUS
 62
       7
  5
A3
 10
-50.2022302
 20
-9.93354826
 30
0.0
 11
-53.19618311
 21
-5.32326506
 31
0.0
  0
LINE
  8
0
  6
CONTINUOUS
 62
       2
  5
A4
 10
-44.68496824
 20
-7.04007466
 30
0.0
 11
-45.03803418
 21
-2.55394666
 31
0.0
  0
LINE
  8
0
  6
CONTINUOUS
 62
       7
  5
A5
 10
-46.56747626
 20
-8.35880354
 30
0.0
 11
-47.89863317
 21
-3.01982479
 31
0.0
  0
LINE
  8
0
  6
CONTINUOUS
 62
       2
  5
A6
 10
-40.41005995
 20
-7.41408068
 30
0.0
 11
-39.28334993
 21
-3.05741629
 31
0.0
  0
LINE
  8
0
  6
CONTINUOUS
 62
       7
  5
A7
 10
-42.61888116
 20
-8.04280699
 30
0.0
 11
-42.1397745
 21
-2.56659278
 31
0.0
  0
LINE
  8
0
  6
CONTINUOUS
 62
       7
  5
A8
 10
-52.755
 20
-6.84
 30
0.0
 11
-53.71838299
 21
-5.67591223
 31
0.0
  0
LINE
  8
0
  6
CONTINUOUS
 62
       7
  5
A9
 10
-53.305
 20
-8.51
 30
0.0
 11
-52.755
 21
-6.84
 31
0.0
  0
LINE
  8
0
  6
CONTINUOUS
 62
       7
  5
AA
 10
-55.045
 20
-8.77
 30
0.0
 11
-53.305
 21
-8.51
 31
0.0
  0
LINE
  8
0
  6
CONTINUOUS
 62
       7
  5
AB
 10
-55.045
 20
-8.77
 30
0.0
 11
-56.01896368
 21
-7.60525993
 31
0.0
  0
LINE
  8
0
  6
CONTINUOUS
 62
       7
  5
AC
 10
-57.665
 20
-35.98632228
 30
0.0
 11
-57.665
 21
-42.0
 31
0.0
  0
LINE
  8
0
  6
CONTINUOUS
 62
       2
  5
AD
 10
-43.665
 20
38.04
 30
0.0
 11
-43.665
 21
-45.09348223
 31
0.0
  0
LINE
  8
0
  6
DASHED
 62
       7
  5
AF
 10
-57.665
 20
-4.01367772
 30
0.0
 11
-57.665
 21
-35.98632228
 31
0.0
  0
LINE
  8
0
  6
CONTINUOUS
 62
       7
  5
B0
 10
-23.665
 20
4.5
 30
0.0
 11
-30.165
 21
4.5
 31
0.0
  0
LINE
  8
0
  6
CONTINUOUS
 62
       7
  5
B1
 10
-28.065
 20
8.285
 30
0.0
 11
-28.065
 21
5.0
 31
0.0
  0
LINE
  8
0
  6
CONTINUOUS
 62
       7
  5
B2
 10
-30.165
 20
5.0
 30
0.0
 11
-30.165
 21
4.5
 31
0.0
  0
LINE
  8
0
  6
CONTINUOUS
 62
       7
  5
B3
 10
-28.065
 20
8.285
 30
0.0
 11
-30.165
 21
9.5
 31
0.0
  0
LINE
  8
0
  6
CONTINUOUS
 62
       7
  5
B4
 10
-29.665
 20
-3.5
 30
0.0
 11
-29.665
 21
-4.01367772
 31
0.0
  0
LINE
  8
0
  6
CONTINUOUS
 62
       2
  5
B5
 10
-32.665
 20
-1.5
 30
0.0
 11
-32.665
 21
4.5
 31
0.0
  0
LINE
  8
0
  6
CONTINUOUS
 62
       7
  5
B6
 10
-35.615
 20
0.2
 30
0.0
 11
-29.715
 21
0.2
 31
0.0
  0
LINE
  8
0
  6
CONTINUOUS
 62
       7
  5
B7
 10
-35.615
 20
-0.33378532
 30
0.0
 11
-35.615
 21
0.2
 31
0.0
  0
LINE
  8
0
  6
CONTINUOUS
 62
       7
  5
B8
 10
-29.715
 20
-0.5
 30
0.0
 11
-29.715
 21
0.2
 31
0.0
  0
LINE
  8
0
  6
CONTINUOUS
 62
       7
  5
B9
 10
-29.865
 20
1.37
 30
0.0
 11
-29.865
 21
0.2
 31
0.0
  0
LINE
  8
0
  6
CONTINUOUS
 62
       7
  5
BA
 10
-35.465
 20
1.37
 30
0.0
 11
-35.465
 21
0.2
 31
0.0
  0
LINE
  8
0
  6
CONTINUOUS
 62
       7
  5
BB
 10
86.99
 20
2.5
 30
0.0
 11
83.99
 21
2.5
 31
0.0
  0
LINE
  8
0
  6
CONTINUOUS
 62
       7
  5
BC
 10
-35.665
 20
1.5
 30
0.0
 11
-35.665
 21
-0.31339288
 31
0.0
  0
LINE
  8
0
  6
CONTINUOUS
 62
       7
  5
BD
 10
-29.715
 20
-0.5
 30
0.0
 11
-35.22032712
 21
-0.5
 31
0.0
  0
LINE
  8
0
  6
CONTINUOUS
 62
       7
  5
BE
 10
-32.665
 20
11.5
 30
0.0
 11
-32.665
 21
10.5
 31
0.0
  0
LINE
  8
0
  6
CONTINUOUS
 62
       7
  5
BF
 10
-32.665
 20
10.5
 30
0.0
 11
-31.665
 21
9.5
 31
0.0
  0
LINE
  8
0
  6
CONTINUOUS
 62
       7
  5
C0
 10
-33.665
 20
12.5
 30
0.0
 11
-32.665
 21
11.5
 31
0.0
  0
LINE
  8
0
  6
CONTINUOUS
 62
       7
  5
C1
 10
-35.165
 20
15.8
 30
0.0
 11
-35.165
 21
12.5
 31
0.0
  0
LINE
  8
0
  6
CONTINUOUS
 62
       7
  5
C2
 10
-37.13
 20
15.8
 30
0.0
 11
-37.13
 21
12.5
 31
0.0
  0
LINE
  8
0
  6
CONTINUOUS
 62
       7
  5
C3
 10
-29.665
 20
1.5
 30
0.0
 11
-29.665
 21
-3.5
 31
0.0
  0
LINE
  8
0
  6
CONTINUOUS
 62
       7
  5
C4
 10
-32.665
 20
16.3
 30
0.0
 11
-33.165
 21
15.8
 31
0.0
  0
LINE
  8
0
  6
CONTINUOUS
 62
       7
  5
C5
 10
-33.965
 20
34.8
 30
0.0
 11
-33.965
 21
33.8
 31
0.0
  0
LINE
  8
0
  6
CONTINUOUS
 62
       7
  5
C6
 10
-33.965
 20
33.8
 30
0.0
 11
-32.965
 21
32.8
 31
0.0
  0
LINE
  8
0
  6
CONTINUOUS
 62
       7
  5
C7
 10
-32.965
 20
32.8
 30
0.0
 11
-32.665
 21
16.3
 31
0.0
  0
LINE
  8
0
  6
CONTINUOUS
 62
       7
  5
C8
 10
-33.665
 20
18.875
 30
0.0
 11
-34.0
 21
18.875
 31
0.0
  0
LINE
  8
0
  6
CONTINUOUS
 62
       7
  5
C9
 10
-33.095
 20
18.3
 30
0.0
 11
-33.99
 21
18.3
 31
0.0
  0
LINE
  8
0
  6
CONTINUOUS
 62
       7
  5
CA
 10
-34.28
 20
32.8
 30
0.0
 11
-33.99
 21
18.3
 31
0.0
  0
LINE
  8
0
  6
CONTINUOUS
 62
       7
  5
CB
 10
-33.965
 20
33.8
 30
0.0
 11
-33.665
 21
18.875
 31
0.0
  0
LINE
  8
0
  6
CONTINUOUS
 62
       7
  5
CC
 10
-33.385
 20
32.8
 30
0.0
 11
-33.095
 21
18.3
 31
0.0
  0
LINE
  8
0
  6
CONTINUOUS
 62
       7
  5
CD
 10
-34.88
 20
33.8
 30
0.0
 11
-34.28
 21
32.8
 31
0.0
  0
LINE
  8
0
  6
CONTINUOUS
 62
       7
  5
CE
 10
-33.385
 20
32.8
 30
0.0
 11
-33.965
 21
33.8
 31
0.0
  0
LINE
  8
0
  6
CONTINUOUS
 62
       7
  5
CF
 10
-33.665
 20
18.875
 30
0.0
 11
-33.095
 21
18.3
 31
0.0
  0
LINE
  8
0
  6
CONTINUOUS
 62
       7
  5
D0
 10
-32.165
 20
0.2
 30
0.0
 11
-32.355
 21
-0.5
 31
0.0
  0
LINE
  8
0
  6
CONTINUOUS
 62
       7
  5
D1
 10
-33.165
 20
-0.5
 30
0.0
 11
-32.98
 21
0.2
 31
0.0
  0
LINE
  8
0
  6
CONTINUOUS
 62
       7
  5
D2
 10
-29.665
 20
-3.5
 30
0.0
 11
-30.27423826
 21
-3.5
 31
0.0
  0
LINE
  8
0
  6
CONTINUOUS
 62
       7
  5
D3
 10
57.49
 20
9.5
 30
0.0
 11
84.49
 21
9.5
 31
0.0
  0
LINE
  8
0
  6
CONTINUOUS
 62
       7
  5
D4
 10
84.49
 20
9.5
 30
0.0
 11
84.49
 21
4.5
 31
0.0
  0
LINE
  8
0
  6
CONTINUOUS
 62
       7
  5
D5
 10
57.49
 20
5.0
 30
0.0
 11
84.49
 21
5.0
 31
0.0
  0
LINE
  8
0
  6
CONTINUOUS
 62
       7
  5
D6
 10
55.99
 20
4.5
 30
0.0
 11
57.49
 21
4.5
 31
0.0
  0
LINE
  8
0
  6
CONTINUOUS
 62
       7
  5
D7
 10
57.49
 20
9.5
 30
0.0
 11
57.49
 21
4.5
 31
0.0
  0
LINE
  8
0
  6
CONTINUOUS
 62
       7
  5
D8
 10
-31.665
 20
4.5
 30
0.0
 11
-31.665
 21
2.5
 31
0.0
  0
LINE
  8
0
  6
CONTINUOUS
 62
       7
  5
D9
 10
-23.665
 20
30.5
 30
0.0
 11
-23.665
 21
2.5
 31
0.0
  0
LINE
  8
0
  6
CONTINUOUS
 62
       7
  5
DA
 10
-30.665
 20
2.5
 30
0.0
 11
-23.665
 21
2.5
 31
0.0
  0
LINE
  8
0
  6
CONTINUOUS
 62
       7
  5
DB
 10
-32.955
 20
32.5
 30
0.0
 11
-25.665
 21
32.5
 31
0.0
  0
LINE
  8
0
  6
CONTINUOUS
 62
       7
  5
DC
 10
-25.665
 20
32.5
 30
0.0
 11
-23.665
 21
30.5
 31
0.0
  0
LINE
  8
0
  6
CONTINUOUS
 62
       2
  5
DD
 10
-30.665
 20
26.0
 30
0.0
 11
-30.665
 21
19.0
 31
0.0
  0
LINE
  8
0
  6
CONTINUOUS
 62
       2
  5
DE
 10
-25.665
 20
22.5
 30
0.0
 11
-34.665
 21
22.5
 31
0.0
  0
LINE
  8
0
  6
CONTINUOUS
 62
       7
  5
DF
 10
-32.665
 20
10.5
 30
0.0
 11
-32.665
 21
9.5
 31
0.0
  0
LINE
  8
0
  6
CONTINUOUS
 62
       7
  5
E0
 10
-32.665
 20
4.5
 30
0.0
 11
-32.665
 21
2.6
 31
0.0
  0
LINE
  8
0
  6
CONTINUOUS
 62
       7
  5
E1
 10
55.99
 20
4.5
 30
0.0
 11
55.99
 21
2.5
 31
0.0
  0
LINE
  8
0
  6
CONTINUOUS
 62
       7
  5
E2
 10
90.99
 20
32.5
 30
0.0
 11
90.99
 21
6.5
 31
0.0
  0
LINE
  8
0
  6
CONTINUOUS
 62
       7
  5
E3
 10
88.99
 20
32.5
 30
0.0
 11
88.99
 21
6.5
 31
0.0
  0
LINE
  8
0
  6
CONTINUOUS
 62
       7
  5
E4
 10
90.99
 20
32.5
 30
0.0
 11
88.99
 21
32.5
 31
0.0
  0
LINE
  8
0
  6
CONTINUOUS
 62
       7
  5
E5
 10
57.49
 20
4.5
 30
0.0
 11
84.49
 21
4.5
 31
0.0
  0
LINE
  8
0
  6
CONTINUOUS
 62
       7
  5
E6
 10
57.99
 20
2.5
 30
0.0
 11
55.99
 21
2.5
 31
0.0
  0
LINE
  8
0
  6
CONTINUOUS
 62
       7
  5
E7
 10
90.99
 20
30.5
 30
0.0
 11
88.99
 21
30.5
 31
0.0
  0
LINE
  8
0
  6
CONTINUOUS
 62
       7
  5
E8
 10
84.49
 20
4.5
 30
0.0
 11
86.99
 21
4.5
 31
0.0
  0
LINE
  8
0
  6
CONTINUOUS
 62
       7
  5
E9
 10
-30.665
 20
2.5
 30
0.0
 11
-31.67
 21
2.5
 31
0.0
  0
LINE
  8
0
  6
CONTINUOUS
 62
       2
  5
EA
 10
87.49
 20
-20.0
 30
0.0
 11
82.49
 21
-20.0
 31
0.0
  0
LINE
  8
0
  6
CENTER
 62
       2
  5
EC
 10
86.29
 20
-15.975
 30
0.0
 11
86.29
 21
-24.02
 31
0.0
  0
LINE
  8
0
  6
CENTER
 62
       2
  5
ED
 10
85.79
 20
-15.11
 30
0.0
 11
85.79
 21
-24.885
 31
0.0
  0
LINE
  8
0
  6
CENTER
 62
       2
  5
EE
 10
85.79
 20
-24.885
 30
0.0
 11
86.29
 21
-24.02
 31
0.0
  0
LINE
  8
0
  6
CENTER
 62
       2
  5
EF
 10
84.99
 20
-24.275
 30
0.0
 11
86.12
 21
-24.31
 31
0.0
  0
LINE
  8
0
  6
CENTER
 62
       2
  5
F0
 10
84.99
 20
-24.86
 30
0.0
 11
85.79
 21
-24.885
 31
0.0
  0
LINE
  8
0
  6
CENTER
 62
       2
  5
F1
 10
85.79
 20
-15.11
 30
0.0
 11
86.29
 21
-15.975
 31
0.0
  0
LINE
  8
0
  6
CENTER
 62
       2
  5
F2
 10
84.99
 20
-15.72
 30
0.0
 11
86.12
 21
-15.685
 31
0.0
  0
LINE
  8
0
  6
CENTER
 62
       2
  5
F3
 10
84.99
 20
-15.135
 30
0.0
 11
85.79
 21
-15.11
 31
0.0
  0
LINE
  8
0
  6
CONTINUOUS
 62
       2
  5
F4
 10
70.99
 20
38.04
 30
0.0
 11
70.99
 21
-44.095
 31
0.0
  0
LINE
  8
0
  6
CONTINUOUS
 62
       7
  5
F5
 10
56.99
 20
-3.5
 30
0.0
 11
56.99
 21
-42.0
 31
0.0
  0
LINE
  8
0
  6
CONTINUOUS
 62
       2
  5
F6
 10
81.99
 20
-1.5
 30
0.0
 11
81.99
 21
4.5
 31
0.0
  0
LINE
  8
0
  6
CONTINUOUS
 62
       7
  5
F7
 10
79.04
 20
0.2
 30
0.0
 11
84.94
 21
0.2
 31
0.0
  0
LINE
  8
0
  6
CONTINUOUS
 62
       7
  5
F8
 10
79.04
 20
-0.5
 30
0.0
 11
79.04
 21
0.2
 31
0.0
  0
LINE
  8
0
  6
CONTINUOUS
 62
       7
  5
F9
 10
79.19
 20
1.37
 30
0.0
 11
79.19
 21
0.2
 31
0.0
  0
LINE
  8
0
  6
CONTINUOUS
 62
       7
  5
FA
 10
78.99
 20
1.5
 30
0.0
 11
78.99
 21
-0.5
 31
0.0
  0
LINE
  8
0
  6
CONTINUOUS
 62
       7
  5
FB
 10
62.99
 20
1.5
 30
0.0
 11
62.99
 21
-0.5
 31
0.0
  0
LINE
  8
0
  6
CONTINUOUS
 62
       7
  5
FC
 10
84.94
 20
-0.5
 30
0.0
 11
78.99
 21
-0.5
 31
0.0
  0
LINE
  8
0
  6
CONTINUOUS
 62
       7
  5
FD
 10
62.99
 20
-0.5
 30
0.0
 11
57.04
 21
-0.5
 31
0.0
  0
LINE
  8
0
  6
CONTINUOUS
 62
       7
  5
FE
 10
62.94
 20
0.2
 30
0.0
 11
57.04
 21
0.2
 31
0.0
  0
LINE
  8
0
  6
CONTINUOUS
 62
       7
  5
FF
 10
62.94
 20
-0.5
 30
0.0
 11
62.94
 21
0.2
 31
0.0
  0
LINE
  8
0
  6
CONTINUOUS
 62
       7
  5
100
 10
57.04
 20
-0.5
 30
0.0
 11
57.04
 21
0.2
 31
0.0
  0
LINE
  8
0
  6
CONTINUOUS
 62
       7
  5
101
 10
57.19
 20
1.37
 30
0.0
 11
57.19
 21
0.2
 31
0.0
  0
LINE
  8
0
  6
CONTINUOUS
 62
       7
  5
102
 10
62.79
 20
1.37
 30
0.0
 11
62.79
 21
0.2
 31
0.0
  0
LINE
  8
0
  6
CONTINUOUS
 62
       2
  5
103
 10
59.99
 20
-1.5
 30
0.0
 11
59.99
 21
4.5
 31
0.0
  0
LINE
  8
0
  6
CONTINUOUS
 62
       7
  5
104
 10
80.995
 20
2.5
 30
0.0
 11
60.985
 21
2.5
 31
0.0
  0
LINE
  8
0
  6
CONTINUOUS
 62
       7
  5
105
 10
58.995
 20
2.5
 30
0.0
 11
57.99
 21
2.5
 31
0.0
  0
LINE
  8
0
  6
CONTINUOUS
 62
       7
  5
106
 10
80.99
 20
12.5
 30
0.0
 11
60.99
 21
12.5
 31
0.0
  0
LINE
  8
0
  6
CONTINUOUS
 62
       7
  5
107
 10
81.99
 20
10.5
 30
0.0
 11
59.99
 21
10.5
 31
0.0
  0
LINE
  8
0
  6
CONTINUOUS
 62
       7
  5
108
 10
81.99
 20
11.5
 30
0.0
 11
81.99
 21
10.5
 31
0.0
  0
LINE
  8
0
  6
CONTINUOUS
 62
       7
  5
109
 10
59.99
 20
11.5
 30
0.0
 11
59.99
 21
10.5
 31
0.0
  0
LINE
  8
0
  6
CONTINUOUS
 62
       7
  5
10A
 10
59.99
 20
10.5
 30
0.0
 11
58.99
 21
9.5
 31
0.0
  0
LINE
  8
0
  6
CONTINUOUS
 62
       7
  5
10B
 10
81.99
 20
10.5
 30
0.0
 11
82.99
 21
9.5
 31
0.0
  0
LINE
  8
0
  6
CONTINUOUS
 62
       7
  5
10C
 10
80.99
 20
12.5
 30
0.0
 11
81.99
 21
11.5
 31
0.0
  0
LINE
  8
0
  6
CONTINUOUS
 62
       7
  5
10D
 10
60.99
 20
12.5
 30
0.0
 11
59.99
 21
11.5
 31
0.0
  0
LINE
  8
0
  6
CONTINUOUS
 62
       7
  5
10E
 10
81.99
 20
11.5
 30
0.0
 11
59.99
 21
11.5
 31
0.0
  0
LINE
  8
0
  6
CONTINUOUS
 62
       7
  5
10F
 10
62.49
 20
15.8
 30
0.0
 11
62.49
 21
12.5
 31
0.0
  0
LINE
  8
0
  6
CONTINUOUS
 62
       7
  5
110
 10
79.49
 20
15.8
 30
0.0
 11
79.49
 21
12.5
 31
0.0
  0
LINE
  8
0
  6
CONTINUOUS
 62
       7
  5
111
 10
77.525
 20
15.8
 30
0.0
 11
77.525
 21
12.5
 31
0.0
  0
LINE
  8
0
  6
CONTINUOUS
 62
       7
  5
112
 10
72.955
 20
15.8
 30
0.0
 11
72.955
 21
12.5
 31
0.0
  0
LINE
  8
0
  6
CONTINUOUS
 62
       7
  5
113
 10
69.025
 20
15.8
 30
0.0
 11
69.025
 21
12.5
 31
0.0
  0
LINE
  8
0
  6
CONTINUOUS
 62
       7
  5
114
 10
64.455
 20
15.8
 30
0.0
 11
64.455
 21
12.5
 31
0.0
  0
LINE
  8
0
  6
CONTINUOUS
 62
       7
  5
115
 10
56.99
 20
1.5
 30
0.0
 11
56.99
 21
-3.5
 31
0.0
  0
LINE
  8
0
  6
CONTINUOUS
 62
       7
  5
116
 10
79.69
 20
35.8
 30
0.0
 11
62.29
 21
35.8
 31
0.0
  0
LINE
  8
0
  6
CONTINUOUS
 62
       7
  5
117
 10
81.49
 20
15.8
 30
0.0
 11
60.49
 21
15.8
 31
0.0
  0
LINE
  8
0
  6
CONTINUOUS
 62
       7
  5
118
 10
81.99
 20
16.3
 30
0.0
 11
81.49
 21
15.8
 31
0.0
  0
LINE
  8
0
  6
CONTINUOUS
 62
       7
  5
119
 10
59.99
 20
16.3
 30
0.0
 11
60.49
 21
15.8
 31
0.0
  0
LINE
  8
0
  6
CONTINUOUS
 62
       7
  5
11A
 10
61.29
 20
34.8
 30
0.0
 11
61.29
 21
33.8
 31
0.0
  0
LINE
  8
0
  6
CONTINUOUS
 62
       7
  5
11B
 10
80.69
 20
34.8
 30
0.0
 11
80.69
 21
33.8
 31
0.0
  0
LINE
  8
0
  6
CONTINUOUS
 62
       7
  5
11C
 10
80.69
 20
33.8
 30
0.0
 11
81.69
 21
32.8
 31
0.0
  0
LINE
  8
0
  6
CONTINUOUS
 62
       7
  5
11D
 10
61.29
 20
33.8
 30
0.0
 11
60.29
 21
32.8
 31
0.0
  0
LINE
  8
0
  6
CONTINUOUS
 62
       7
  5
11E
 10
81.69
 20
32.8
 30
0.0
 11
81.99
 21
16.3
 31
0.0
  0
LINE
  8
0
  6
CONTINUOUS
 62
       7
  5
11F
 10
60.29
 20
32.8
 30
0.0
 11
59.99
 21
16.3
 31
0.0
  0
LINE
  8
0
  6
CONTINUOUS
 62
       7
  5
120
 10
73.99
 20
32.8
 30
0.0
 11
74.28
 21
18.3
 31
0.0
  0
LINE
  8
0
  6
CONTINUOUS
 62
       7
  5
121
 10
67.99
 20
32.8
 30
0.0
 11
67.695
 21
18.3
 31
0.0
  0
LINE
  8
0
  6
CONTINUOUS
 62
       7
  5
122
 10
80.99
 20
18.875
 30
0.0
 11
80.655
 21
18.875
 31
0.0
  0
LINE
  8
0
  6
CONTINUOUS
 62
       7
  5
123
 10
81.56
 20
18.3
 30
0.0
 11
80.665
 21
18.3
 31
0.0
  0
LINE
  8
0
  6
CONTINUOUS
 62
       7
  5
124
 10
74.3
 20
33.8
 30
0.0
 11
74.6
 21
18.875
 31
0.0
  0
LINE
  8
0
  6
CONTINUOUS
 62
       7
  5
125
 10
67.68
 20
33.8
 30
0.0
 11
67.38
 21
18.875
 31
0.0
  0
LINE
  8
0
  6
CONTINUOUS
 62
       7
  5
126
 10
67.38
 20
18.875
 30
0.0
 11
66.58
 21
18.875
 31
0.0
  0
LINE
  8
0
  6
CONTINUOUS
 62
       7
  5
127
 10
67.695
 20
18.3
 30
0.0
 11
65.555
 21
18.3
 31
0.0
  0
LINE
  8
0
  6
CONTINUOUS
 62
       7
  5
128
 10
66.88
 20
33.8
 30
0.0
 11
66.58
 21
18.875
 31
0.0
  0
LINE
  8
0
  6
CONTINUOUS
 62
       7
  5
129
 10
75.095
 20
33.8
 30
0.0
 11
75.395
 21
18.875
 31
0.0
  0
LINE
  8
0
  6
CONTINUOUS
 62
       7
  5
12A
 10
66.88
 20
33.8
 30
0.0
 11
62.2
 21
33.8
 31
0.0
  0
LINE
  8
0
  6
CONTINUOUS
 62
       7
  5
12B
 10
74.3
 20
33.8
 30
0.0
 11
67.68
 21
33.8
 31
0.0
  0
LINE
  8
0
  6
CONTINUOUS
 62
       7
  5
12C
 10
73.99
 20
32.8
 30
0.0
 11
67.99
 21
32.8
 31
0.0
  0
LINE
  8
0
  6
CONTINUOUS
 62
       7
  5
12D
 10
65.85
 20
32.8
 30
0.0
 11
61.605
 21
32.8
 31
0.0
  0
LINE
  8
0
  6
CONTINUOUS
 62
       7
  5
12E
 10
61.605
 20
32.8
 30
0.0
 11
61.315
 21
18.3
 31
0.0
  0
LINE
  8
0
  6
CONTINUOUS
 62
       7
  5
12F
 10
76.13
 20
32.8
 30
0.0
 11
76.42
 21
18.3
 31
0.0
  0
LINE
  8
0
  6
CONTINUOUS
 62
       7
  5
130
 10
79.775
 20
33.8
 30
0.0
 11
75.095
 21
33.8
 31
0.0
  0
LINE
  8
0
  6
CONTINUOUS
 62
       7
  5
131
 10
80.375
 20
32.8
 30
0.0
 11
76.13
 21
32.8
 31
0.0
  0
LINE
  8
0
  6
CONTINUOUS
 62
       7
  5
132
 10
75.395
 20
18.875
 30
0.0
 11
74.6
 21
18.875
 31
0.0
  0
LINE
  8
0
  6
CONTINUOUS
 62
       7
  5
133
 10
76.42
 20
18.3
 30
0.0
 11
74.28
 21
18.3
 31
0.0
  0
LINE
  8
0
  6
CONTINUOUS
 62
       7
  5
134
 10
61.325
 20
18.875
 30
0.0
 11
60.99
 21
18.875
 31
0.0
  0
LINE
  8
0
  6
CONTINUOUS
 62
       7
  5
135
 10
61.315
 20
18.3
 30
0.0
 11
60.42
 21
18.3
 31
0.0
  0
LINE
  8
0
  6
CONTINUOUS
 62
       7
  5
136
 10
65.85
 20
32.8
 30
0.0
 11
65.555
 21
18.3
 31
0.0
  0
LINE
  8
0
  6
CONTINUOUS
 62
       7
  5
137
 10
80.375
 20
32.8
 30
0.0
 11
80.665
 21
18.3
 31
0.0
  0
LINE
  8
0
  6
CONTINUOUS
 62
       7
  5
138
 10
80.69
 20
33.8
 30
0.0
 11
80.99
 21
18.875
 31
0.0
  0
LINE
  8
0
  6
CONTINUOUS
 62
       7
  5
139
 10
60.71
 20
32.8
 30
0.0
 11
60.42
 21
18.3
 31
0.0
  0
LINE
  8
0
  6
CONTINUOUS
 62
       7
  5
13A
 10
61.29
 20
33.8
 30
0.0
 11
60.99
 21
18.875
 31
0.0
  0
LINE
  8
0
  6
CONTINUOUS
 62
       7
  5
13B
 10
81.27
 20
32.8
 30
0.0
 11
81.56
 21
18.3
 31
0.0
  0
LINE
  8
0
  6
CONTINUOUS
 62
       7
  5
13C
 10
60.71
 20
32.8
 30
0.0
 11
61.29
 21
33.8
 31
0.0
  0
LINE
  8
0
  6
CONTINUOUS
 62
       7
  5
13D
 10
62.2
 20
33.8
 30
0.0
 11
61.605
 21
32.8
 31
0.0
  0
LINE
  8
0
  6
CONTINUOUS
 62
       7
  5
13E
 10
66.88
 20
33.8
 30
0.0
 11
65.85
 21
32.8
 31
0.0
  0
LINE
  8
0
  6
CONTINUOUS
 62
       7
  5
13F
 10
67.68
 20
33.8
 30
0.0
 11
67.99
 21
32.8
 31
0.0
  0
LINE
  8
0
  6
CONTINUOUS
 62
       7
  5
140
 10
74.3
 20
33.8
 30
0.0
 11
73.99
 21
32.8
 31
0.0
  0
LINE
  8
0
  6
CONTINUOUS
 62
       7
  5
141
 10
75.095
 20
33.8
 30
0.0
 11
76.13
 21
32.8
 31
0.0
  0
LINE
  8
0
  6
CONTINUOUS
 62
       7
  5
142
 10
79.775
 20
33.8
 30
0.0
 11
80.375
 21
32.8
 31
0.0
  0
LINE
  8
0
  6
CONTINUOUS
 62
       7
  5
143
 10
81.27
 20
32.8
 30
0.0
 11
80.69
 21
33.8
 31
0.0
  0
LINE
  8
0
  6
CONTINUOUS
 62
       7
  5
144
 10
80.99
 20
18.875
 30
0.0
 11
81.56
 21
18.3
 31
0.0
  0
LINE
  8
0
  6
CONTINUOUS
 62
       7
  5
145
 10
75.395
 20
18.875
 30
0.0
 11
76.42
 21
18.3
 31
0.0
  0
LINE
  8
0
  6
CONTINUOUS
 62
       7
  5
146
 10
74.28
 20
18.3
 30
0.0
 11
74.6
 21
18.875
 31
0.0
  0
LINE
  8
0
  6
CONTINUOUS
 62
       7
  5
147
 10
67.38
 20
18.875
 30
0.0
 11
67.695
 21
18.3
 31
0.0
  0
LINE
  8
0
  6
CONTINUOUS
 62
       7
  5
148
 10
66.58
 20
18.875
 30
0.0
 11
65.555
 21
18.3
 31
0.0
  0
LINE
  8
0
  6
CONTINUOUS
 62
       7
  5
149
 10
60.99
 20
18.875
 30
0.0
 11
60.42
 21
18.3
 31
0.0
  0
LINE
  8
0
  6
CONTINUOUS
 62
       7
  5
14A
 10
81.99
 20
16.3
 30
0.0
 11
59.99
 21
16.3
 31
0.0
  0
LINE
  8
0
  6
CONTINUOUS
 62
       7
  5
14B
 10
82.49
 20
0.2
 30
0.0
 11
82.3
 21
-0.5
 31
0.0
  0
LINE
  8
0
  6
CONTINUOUS
 62
       7
  5
14C
 10
81.49
 20
-0.5
 30
0.0
 11
81.675
 21
0.2
 31
0.0
  0
LINE
  8
0
  6
CONTINUOUS
 62
       7
  5
14D
 10
60.49
 20
0.2
 30
0.0
 11
60.3
 21
-0.5
 31
0.0
  0
LINE
  8
0
  6
CONTINUOUS
 62
       7
  5
14E
 10
59.49
 20
-0.5
 30
0.0
 11
59.675
 21
0.2
 31
0.0
  0
LINE
  8
0
  6
CONTINUOUS
 62
       7
  5
14F
 10
84.99
 20
-3.5
 30
0.0
 11
56.99
 21
-3.5
 31
0.0
  0
LINE
  8
0
  6
CONTINUOUS
 62
       7
  5
150
 10
84.99
 20
-3.5
 30
0.0
 11
84.99
 21
-42.0
 31
0.0
  0
LINE
  8
0
  6
CONTINUOUS
 62
       7
  5
151
 10
58.99
 20
4.5
 30
0.0
 11
58.99
 21
2.5
 31
0.0
  0
LINE
  8
0
  6
CONTINUOUS
 62
       7
  5
152
 10
82.99
 20
4.5
 30
0.0
 11
82.99
 21
2.5
 31
0.0
  0
LINE
  8
0
  6
CONTINUOUS
 62
       7
  5
153
 10
59.99
 20
10.5
 30
0.0
 11
59.99
 21
9.5
 31
0.0
  0
LINE
  8
0
  6
CONTINUOUS
 62
       7
  5
154
 10
81.99
 20
10.5
 30
0.0
 11
81.99
 21
9.5
 31
0.0
  0
LINE
  8
0
  6
CONTINUOUS
 62
       7
  5
155
 10
81.99
 20
4.5
 30
0.0
 11
81.99
 21
2.6
 31
0.0
  0
LINE
  8
0
  6
CONTINUOUS
 62
       7
  5
156
 10
59.99
 20
4.5
 30
0.0
 11
59.99
 21
2.6
 31
0.0
  0
LINE
  8
0
  6
CONTINUOUS
 62
       7
  5
157
 10
70.99
 20
8.285
 30
0.0
 11
70.99
 21
5.0
 31
0.0
  0
LINE
  8
0
  6
CONTINUOUS
 62
       7
  5
158
 10
83.99
 20
2.5
 30
0.0
 11
82.985
 21
2.5
 31
0.0
  0
LINE
  8
0
  6
CONTINUOUS
 62
       7
  5
159
 10
84.79
 20
1.37
 30
0.0
 11
84.79
 21
0.2
 31
0.0
  0
LINE
  8
0
  6
CONTINUOUS
 62
       7
  5
15A
 10
84.99
 20
1.5
 30
0.0
 11
84.99
 21
-3.5
 31
0.0
  0
LINE
  8
0
  6
CONTINUOUS
 62
       7
  5
15B
 10
84.94
 20
-0.5
 30
0.0
 11
84.94
 21
0.2
 31
0.0
  0
LINE
  8
0
  6
CONTINUOUS
 62
       7
  5
15C
 10
56.99
 20
-42.0
 30
0.0
 11
84.99
 21
-42.0
 31
0.0
  0
LINE
  8
0
  6
CONTINUOUS
 62
       7
  5
15D
 10
-29.665
 20
20.0
 30
0.0
 11
-31.665
 21
20.0
 31
0.0
  0
LINE
  8
0
  6
CONTINUOUS
 62
       7
  5
15E
 10
-29.665
 20
25.0
 30
0.0
 11
-31.665
 21
25.0
 31
0.0
  0
LINE
  8
0
  6
CONTINUOUS
 62
       7
  5
15F
 10
-35.87
 20
8.285
 30
0.0
 11
-35.87
 21
5.0
 31
0.0
  0
ARC
  8
0
  6
CONTINUOUS
 62
       7
  5
160
 10
-32.665
 20
-2.39998481
 30
0.0
 40
4.99739611
 50
60.51100647
 51
119.48899353
  0
ARC
  8
0
  6
CONTINUOUS
 62
       7
  5
161
 10
-30.53244746
 20
1.36839287
 30
0.0
 40
0.66744939
 50
0.13796079
 51
60.62029123
  0
ARC
  8
0
  6
CONTINUOUS
 62
       7
  5
162
 10
-34.80171869
 20
1.37083509
 30
0.0
 40
0.66328184
 50
119.16961082
 51
180.07213715
  0
ARC
  8
0
  6
CONTINUOUS
 62
       7
  5
163
 10
-30.66638709
 20
1.49861291
 30
0.0
 40
1.00138805
 50
0.07936446
 51
89.92063554
  0
ARC
  8
0
  6
CONTINUOUS
 62
       7
  5
164
 10
-36.66638709
 20
1.49861291
 30
0.0
 40
1.00138805
 50
0.07936446
 51
89.92063554
  0
ARC
  8
0
  6
CONTINUOUS
 62
       7
  5
165
 10
-30.66638709
 20
-1.50138709
 30
0.0
 40
1.00138805
 50
0.07936446
 51
89.92063554
  0
ARC
  8
0
  6
CONTINUOUS
 62
       7
  5
166
 10
-34.96638329
 20
34.79861671
 30
0.0
 40
1.00138424
 50
0.07914705
 51
89.92085295
  0
ARC
  8
0
  6
CONTINUOUS
 62
       7
  5
167
 10
86.99048029
 20
6.49951971
 30
0.0
 40
1.99951977
 50
269.9862375
 51
0.0137625
  0
ARC
  8
0
  6
CONTINUOUS
 62
       7
  5
168
 10
86.9904765
 20
6.4995235
 30
0.0
 40
3.99952353
 50
269.99317381
 51
0.00682619
  0
ARC
  8
0
  6
CONTINUOUS
 62
       7
  5
169
 10
83.99049381
 20
-1.49950619
 30
0.0
 40
0.99950631
 50
359.9716926
 51
90.0283074
  0
ARC
  8
0
  6
CONTINUOUS
 62
       7
  5
16A
 10
57.85733212
 20
1.37130386
 30
0.0
 40
0.6673334
 50
119.86777805
 51
180.11194666
  0
ARC
  8
0
  6
CONTINUOUS
 62
       7
  5
16B
 10
57.99048047
 20
1.49951953
 30
0.0
 40
1.00048058
 50
90.0275155
 51
179.9724845
  0
ARC
  8
0
  6
CONTINUOUS
 62
       7
  5
16C
 10
77.99049381
 20
1.50049381
 30
0.0
 40
0.99950631
 50
359.9716926
 51
90.0283074
  0
ARC
  8
0
  6
CONTINUOUS
 62
       7
  5
16D
 10
62.29047284
 20
34.79952716
 30
0.0
 40
1.00047295
 50
90.02707865
 51
179.97292135
  0
ARC
  8
0
  6
CONTINUOUS
 62
       7
  5
16E
 10
59.9875
 20
-2.39999281
 30
0.0
 40
4.99863419
 50
60.48610824
 51
119.51389176
  0
ARC
  8
0
  6
CONTINUOUS
 62
       7
  5
16F
 10
79.85731738
 20
1.37131238
 30
0.0
 40
0.66731867
 50
119.86704427
 51
180.11268045
  0
ARC
  8
0
  6
CONTINUOUS
 62
       7
  5
170
 10
62.1253598
 20
1.3700385
 30
0.0
 40
0.6646402
 50
359.99668097
 51
60.76157105
  0
ARC
  8
0
  6
CONTINUOUS
 62
       7
  5
171
 10
79.69049382
 20
34.80049382
 30
0.0
 40
0.9995063
 50
359.97169231
 51
90.02830769
  0
ARC
  8
0
  6
CONTINUOUS
 62
       7
  5
172
 10
63.99048047
 20
1.49951953
 30
0.0
 40
1.00048058
 50
90.0275155
 51
179.9724845
  0
ARC
  8
0
  6
CONTINUOUS
 62
       7
  5
173
 10
57.99048047
 20
-1.50048047
 30
0.0
 40
1.00048058
 50
90.0275155
 51
179.9724845
  0
ARC
  8
0
  6
CONTINUOUS
 62
       7
  5
174
 10
81.9875
 20
-2.39998517
 30
0.0
 40
4.99862753
 50
60.48606508
 51
119.51393492
  0
ARC
  8
0
  6
CONTINUOUS
 62
       7
  5
175
 10
83.99049381
 20
1.50049381
 30
0.0
 40
0.99950631
 50
359.9716926
 51
90.0283074
  0
ARC
  8
0
  6
CONTINUOUS
 62
       7
  5
176
 10
84.12534605
 20
1.37003044
 30
0.0
 40
0.66465395
 50
359.99737579
 51
60.76087623
  0
ARC
  8
0
  6
CONTINUOUS
 62
       7
  5
177
 10
-31.66118125
 20
22.50162927
 30
0.0
 40
2.49837365
 50
90.08757634
 51
117.63447878
  0
ARC
  8
0
  6
CONTINUOUS
 62
       7
  5
178
 10
-31.66624333
 20
22.49966515
 30
0.0
 40
2.49966545
 50
244.68719646
 51
270.02849888
  0
ARC
  8
0
  6
CONTINUOUS
 62
       7
  5
179
 10
-29.665
 20
22.5
 30
0.0
 40
2.50000155
 50
270.0
 51
90.0
  0
POLYLINE
  8
0
  6
CONTINUOUS
 62
       7
  5
17A
 66
       1
 10
0.0
 20
0.0
 30
0.0
  0
VERTEX
  8
0
  6
CONTINUOUS
 62
       7
  5
1E6
 10
70.99
 20
8.285
 30
0.0
  0
VERTEX
  8
0
  6
CONTINUOUS
 62
       7
  5
1E7
 10
71.395085
 20
8.42600609
 30
0.0
  0
VERTEX
  8
0
  6
CONTINUOUS
 62
       7
  5
1E8
 10
71.80341969
 20
8.55909832
 30
0.0
  0
VERTEX
  8
0
  6
CONTINUOUS
 62
       7
  5
1E9
 10
72.21478742
 20
8.68411341
 30
0.0
  0
VERTEX
  8
0
  6
CONTINUOUS
 62
       7
  5
1EA
 10
72.62897155
 20
8.80088809
 30
0.0
  0
VERTEX
  8
0
  6
CONTINUOUS
 62
       7
  5
1EB
 10
73.04575542
 20
8.90925908
 30
0.0
  0
VERTEX
  8
0
  6
CONTINUOUS
 62
       7
  5
1EC
 10
73.46492239
 20
9.00906312
 30
0.0
  0
VERTEX
  8
0
  6
CONTINUOUS
 62
       7
  5
1ED
 10
73.88625581
 20
9.10013691
 30
0.0
  0
VERTEX
  8
0
  6
CONTINUOUS
 62
       7
  5
1EE
 10
74.30953904
 20
9.18231719
 30
0.0
  0
VERTEX
  8
0
  6
CONTINUOUS
 62
       7
  5
1EF
 10
74.73455542
 20
9.25544069
 30
0.0
  0
VERTEX
  8
0
  6
CONTINUOUS
 62
       7
  5
1F0
 10
75.16108831
 20
9.31934412
 30
0.0
  0
VERTEX
  8
0
  6
CONTINUOUS
 62
       7
  5
1F1
 10
75.58892105
 20
9.37386422
 30
0.0
  0
VERTEX
  8
0
  6
CONTINUOUS
 62
       7
  5
1F2
 10
76.01783701
 20
9.4188377
 30
0.0
  0
VERTEX
  8
0
  6
CONTINUOUS
 62
       7
  5
1F3
 10
76.44761953
 20
9.45410129
 30
0.0
  0
VERTEX
  8
0
  6
CONTINUOUS
 62
       7
  5
1F4
 10
76.87805197
 20
9.47949173
 30
0.0
  0
VERTEX
  8
0
  6
CONTINUOUS
 62
       7
  5
1F5
 10
77.30891767
 20
9.49484572
 30
0.0
  0
VERTEX
  8
0
  6
CONTINUOUS
 62
       7
  5
1F6
 10
77.74
 20
9.5
 30
0.0
  0
VERTEX
  8
0
  6
CONTINUOUS
 62
       7
  5
1F7
 10
78.17108233
 20
9.49484572
 30
0.0
  0
VERTEX
  8
0
  6
CONTINUOUS
 62
       7
  5
1F8
 10
78.60194803
 20
9.47949172
 30
0.0
  0
VERTEX
  8
0
  6
CONTINUOUS
 62
       7
  5
1F9
 10
79.03238047
 20
9.45410129
 30
0.0
  0
VERTEX
  8
0
  6
CONTINUOUS
 62
       7
  5
1FA
 10
79.46216299
 20
9.41883769
 30
0.0
  0
VERTEX
  8
0
  6
CONTINUOUS
 62
       7
  5
1FB
 10
79.89107895
 20
9.37386421
 30
0.0
  0
VERTEX
  8
0
  6
CONTINUOUS
 62
       7
  5
1FC
 10
80.31891169
 20
9.31934412
 30
0.0
  0
VERTEX
  8
0
  6
CONTINUOUS
 62
       7
  5
1FD
 10
80.74544458
 20
9.25544068
 30
0.0
  0
VERTEX
  8
0
  6
CONTINUOUS
 62
       7
  5
1FE
 10
81.17046096
 20
9.18231719
 30
0.0
  0
VERTEX
  8
0
  6
CONTINUOUS
 62
       7
  5
1FF
 10
81.59374419
 20
9.10013691
 30
0.0
  0
VERTEX
  8
0
  6
CONTINUOUS
 62
       7
  5
200
 10
82.01507761
 20
9.00906311
 30
0.0
  0
VERTEX
  8
0
  6
CONTINUOUS
 62
       7
  5
201
 10
82.43424458
 20
8.90925908
 30
0.0
  0
VERTEX
  8
0
  6
CONTINUOUS
 62
       7
  5
202
 10
82.85102845
 20
8.80088809
 30
0.0
  0
VERTEX
  8
0
  6
CONTINUOUS
 62
       7
  5
203
 10
83.26521258
 20
8.68411341
 30
0.0
  0
VERTEX
  8
0
  6
CONTINUOUS
 62
       7
  5
204
 10
83.67658031
 20
8.55909832
 30
0.0
  0
VERTEX
  8
0
  6
CONTINUOUS
 62
       7
  5
205
 10
84.084915
 20
8.42600609
 30
0.0
  0
VERTEX
  8
0
  6
CONTINUOUS
 62
       7
  5
206
 10
84.49
 20
8.285
 30
0.0
  0
SEQEND
  8
0
  6
CONTINUOUS
 62
       7
  5
207
  0
POLYLINE
  8
0
  6
CONTINUOUS
 62
       7
  5
17B
 66
       1
 10
0.0
 20
0.0
 30
0.0
  0
VERTEX
  8
0
  6
CONTINUOUS
 62
       7
  5
208
 10
70.99
 20
8.285
 30
0.0
  0
VERTEX
  8
0
  6
CONTINUOUS
 62
       7
  5
209
 10
70.584915
 20
8.42600609
 30
0.0
  0
VERTEX
  8
0
  6
CONTINUOUS
 62
       7
  5
20A
 10
70.17658031
 20
8.55909832
 30
0.0
  0
VERTEX
  8
0
  6
CONTINUOUS
 62
       7
  5
20B
 10
69.76521258
 20
8.68411341
 30
0.0
  0
VERTEX
  8
0
  6
CONTINUOUS
 62
       7
  5
20C
 10
69.35102845
 20
8.80088809
 30
0.0
  0
VERTEX
  8
0
  6
CONTINUOUS
 62
       7
  5
20D
 10
68.93424458
 20
8.90925908
 30
0.0
  0
VERTEX
  8
0
  6
CONTINUOUS
 62
       7
  5
20E
 10
68.51507761
 20
9.00906312
 30
0.0
  0
VERTEX
  8
0
  6
CONTINUOUS
 62
       7
  5
20F
 10
68.09374419
 20
9.10013691
 30
0.0
  0
VERTEX
  8
0
  6
CONTINUOUS
 62
       7
  5
210
 10
67.67046096
 20
9.18231719
 30
0.0
  0
VERTEX
  8
0
  6
CONTINUOUS
 62
       7
  5
211
 10
67.24544458
 20
9.25544069
 30
0.0
  0
VERTEX
  8
0
  6
CONTINUOUS
 62
       7
  5
212
 10
66.81891169
 20
9.31934412
 30
0.0
  0
VERTEX
  8
0
  6
CONTINUOUS
 62
       7
  5
213
 10
66.39107895
 20
9.37386422
 30
0.0
  0
VERTEX
  8
0
  6
CONTINUOUS
 62
       7
  5
214
 10
65.96216299
 20
9.4188377
 30
0.0
  0
VERTEX
  8
0
  6
CONTINUOUS
 62
       7
  5
215
 10
65.53238047
 20
9.45410129
 30
0.0
  0
VERTEX
  8
0
  6
CONTINUOUS
 62
       7
  5
216
 10
65.10194803
 20
9.47949173
 30
0.0
  0
VERTEX
  8
0
  6
CONTINUOUS
 62
       7
  5
217
 10
64.67108233
 20
9.49484572
 30
0.0
  0
VERTEX
  8
0
  6
CONTINUOUS
 62
       7
  5
218
 10
64.24
 20
9.5
 30
0.0
  0
VERTEX
  8
0
  6
CONTINUOUS
 62
       7
  5
219
 10
63.80891767
 20
9.49484572
 30
0.0
  0
VERTEX
  8
0
  6
CONTINUOUS
 62
       7
  5
21A
 10
63.37805197
 20
9.47949172
 30
0.0
  0
VERTEX
  8
0
  6
CONTINUOUS
 62
       7
  5
21B
 10
62.94761953
 20
9.45410129
 30
0.0
  0
VERTEX
  8
0
  6
CONTINUOUS
 62
       7
  5
21C
 10
62.51783701
 20
9.41883769
 30
0.0
  0
VERTEX
  8
0
  6
CONTINUOUS
 62
       7
  5
21D
 10
62.08892105
 20
9.37386421
 30
0.0
  0
VERTEX
  8
0
  6
CONTINUOUS
 62
       7
  5
21E
 10
61.66108831
 20
9.31934412
 30
0.0
  0
VERTEX
  8
0
  6
CONTINUOUS
 62
       7
  5
21F
 10
61.23455542
 20
9.25544068
 30
0.0
  0
VERTEX
  8
0
  6
CONTINUOUS
 62
       7
  5
220
 10
60.80953904
 20
9.18231719
 30
0.0
  0
VERTEX
  8
0
  6
CONTINUOUS
 62
       7
  5
221
 10
60.38625581
 20
9.10013691
 30
0.0
  0
VERTEX
  8
0
  6
CONTINUOUS
 62
       7
  5
222
 10
59.96492239
 20
9.00906311
 30
0.0
  0
VERTEX
  8
0
  6
CONTINUOUS
 62
       7
  5
223
 10
59.54575542
 20
8.90925908
 30
0.0
  0
VERTEX
  8
0
  6
CONTINUOUS
 62
       7
  5
224
 10
59.12897155
 20
8.80088809
 30
0.0
  0
VERTEX
  8
0
  6
CONTINUOUS
 62
       7
  5
225
 10
58.71478742
 20
8.68411341
 30
0.0
  0
VERTEX
  8
0
  6
CONTINUOUS
 62
       7
  5
226
 10
58.30341969
 20
8.55909832
 30
0.0
  0
VERTEX
  8
0
  6
CONTINUOUS
 62
       7
  5
227
 10
57.895085
 20
8.42600609
 30
0.0
  0
VERTEX
  8
0
  6
CONTINUOUS
 62
       7
  5
228
 10
57.49
 20
8.285
 30
0.0
  0
SEQEND
  8
0
  6
CONTINUOUS
 62
       7
  5
229
  0
POLYLINE
  8
0
  6
CONTINUOUS
 62
       7
  5
17C
 66
       1
 10
0.0
 20
0.0
 30
0.0
  0
VERTEX
  8
0
  6
CONTINUOUS
 62
       7
  5
22A
 10
-35.87
 20
8.285
 30
0.0
  0
VERTEX
  8
0
  6
CONTINUOUS
 62
       7
  5
22B
 10
-35.75659214
 20
8.3575015
 30
0.0
  0
VERTEX
  8
0
  6
CONTINUOUS
 62
       7
  5
22C
 10
-35.64189271
 20
8.4281152
 30
0.0
  0
VERTEX
  8
0
  6
CONTINUOUS
 62
       7
  5
22D
 10
-35.52593655
 20
8.49679918
 30
0.0
  0
VERTEX
  8
0
  6
CONTINUOUS
 62
       7
  5
22E
 10
-35.40875852
 20
8.56351147
 30
0.0
  0
VERTEX
  8
0
  6
CONTINUOUS
 62
       7
  5
22F
 10
-35.29039345
 20
8.62821015
 30
0.0
  0
VERTEX
  8
0
  6
CONTINUOUS
 62
       7
  5
230
 10
-35.1708762
 20
8.69085325
 30
0.0
  0
VERTEX
  8
0
  6
CONTINUOUS
 62
       7
  5
231
 10
-35.05024162
 20
8.75139884
 30
0.0
  0
VERTEX
  8
0
  6
CONTINUOUS
 62
       7
  5
232
 10
-34.92852454
 20
8.80980497
 30
0.0
  0
VERTEX
  8
0
  6
CONTINUOUS
 62
       7
  5
233
 10
-34.80575983
 20
8.86602969
 30
0.0
  0
VERTEX
  8
0
  6
CONTINUOUS
 62
       7
  5
234
 10
-34.68198232
 20
8.92003106
 30
0.0
  0
VERTEX
  8
0
  6
CONTINUOUS
 62
       7
  5
235
 10
-34.55722686
 20
8.97176714
 30
0.0
  0
VERTEX
  8
0
  6
CONTINUOUS
 62
       7
  5
236
 10
-34.4315283
 20
9.02119598
 30
0.0
  0
VERTEX
  8
0
  6
CONTINUOUS
 62
       7
  5
237
 10
-34.30492149
 20
9.06827563
 30
0.0
  0
VERTEX
  8
0
  6
CONTINUOUS
 62
       7
  5
238
 10
-34.17744127
 20
9.11296414
 30
0.0
  0
VERTEX
  8
0
  6
CONTINUOUS
 62
       7
  5
239
 10
-34.04912249
 20
9.15521958
 30
0.0
  0
VERTEX
  8
0
  6
CONTINUOUS
 62
       7
  5
23A
 10
-33.92
 20
9.195
 30
0.0
  0
VERTEX
  8
0
  6
CONTINUOUS
 62
       7
  5
23B
 10
-33.80092599
 20
9.22930995
 30
0.0
  0
VERTEX
  8
0
  6
CONTINUOUS
 62
       7
  5
23C
 10
-33.68130681
 20
9.26156535
 30
0.0
  0
VERTEX
  8
0
  6
CONTINUOUS
 62
       7
  5
23D
 10
-33.56117926
 20
9.29177084
 30
0.0
  0
VERTEX
  8
0
  6
CONTINUOUS
 62
       7
  5
23E
 10
-33.44058013
 20
9.31993101
 30
0.0
  0
VERTEX
  8
0
  6
CONTINUOUS
 62
       7
  5
23F
 10
-33.31954621
 20
9.3460505
 30
0.0
  0
VERTEX
  8
0
  6
CONTINUOUS
 62
       7
  5
240
 10
-33.1981143
 20
9.37013392
 30
0.0
  0
VERTEX
  8
0
  6
CONTINUOUS
 62
       7
  5
241
 10
-33.07632118
 20
9.39218589
 30
0.0
  0
VERTEX
  8
0
  6
CONTINUOUS
 62
       7
  5
242
 10
-32.95420366
 20
9.41221102
 30
0.0
  0
VERTEX
  8
0
  6
CONTINUOUS
 62
       7
  5
243
 10
-32.83179853
 20
9.43021393
 30
0.0
  0
VERTEX
  8
0
  6
CONTINUOUS
 62
       7
  5
244
 10
-32.70914257
 20
9.44619923
 30
0.0
  0
VERTEX
  8
0
  6
CONTINUOUS
 62
       7
  5
245
 10
-32.58627259
 20
9.46017156
 30
0.0
  0
VERTEX
  8
0
  6
CONTINUOUS
 62
       7
  5
246
 10
-32.46322537
 20
9.47213551
 30
0.0
  0
VERTEX
  8
0
  6
CONTINUOUS
 62
       7
  5
247
 10
-32.3400377
 20
9.48209572
 30
0.0
  0
VERTEX
  8
0
  6
CONTINUOUS
 62
       7
  5
248
 10
-32.21674639
 20
9.49005679
 30
0.0
  0
VERTEX
  8
0
  6
CONTINUOUS
 62
       7
  5
249
 10
-32.09338823
 20
9.49602334
 30
0.0
  0
VERTEX
  8
0
  6
CONTINUOUS
 62
       7
  5
24A
 10
-31.97
 20
9.5
 30
0.0
  0
SEQEND
  8
0
  6
CONTINUOUS
 62
       7
  5
24B
  0
TEXT
  8
0
  6
CONTINUOUS
 62
       7
  5
17D
 10
-13.96682373
 20
-24.75
 30
0.0
 40
4.5
  1
SET
  7
MX_NOTE_STANDARD
 11
-13.96682373
 21
-22.5
 31
0.0
 73
       2
  0
LINE
  8
0
  6
CONTINUOUS
 62
       7
  5
17E
 10
-31.66213245
 20
-20.0
 30
0.0
 11
-26.165
 21
-20.0
 31
0.0
  0
LINE
  8
0
  6
CONTINUOUS
 62
       2
  5
17F
 10
-36.48981919
 20
-9.15948431
 30
0.0
 11
-34.00610276
 21
-5.40699811
 31
0.0
  0
LINE
  8
0
  6
CONTINUOUS
 62
       2
  5
180
 10
-33.35140658
 20
-12.08610142
 30
0.0
 11
-29.78131654
 21
-9.34667499
 31
0.0
  0
LINE
  8
0
  6
CONTINUOUS
 62
       7
  5
181
 10
-31.7300287
 20
-7.20131022
 30
0.0
 11
-35.47975539
 21
-11.2223998
 31
0.0
  0
LINE
  8
0
  6
CONTINUOUS
 62
       2
  5
182
 10
-31.33679248
 20
-15.87503947
 30
0.0
 11
-27.06933603
 21
-14.44716851
 31
0.0
  0
LINE
  8
0
  6
CONTINUOUS
 62
       7
  5
183
 10
-28.21341712
 20
-11.78424765
 30
0.0
 11
-33.06709699
 21
-14.36499502
 31
0.0
  0
LINE
  8
0
  6
CONTINUOUS
 62
       7
  5
184
 10
-31.80931673
 20
-18.12224424
 30
0.0
 11
-26.38045404
 21
-17.26239686
 31
0.0
  0
LINE
  8
0
  6
CONTINUOUS
 62
       7
  5
185
 10
-34.015
 20
-8.51
 30
0.0
 11
-32.275
 21
-8.77
 31
0.0
  0
LINE
  8
0
  6
CONTINUOUS
 62
       7
  5
186
 10
-34.575
 20
-6.84
 30
0.0
 11
-34.015
 21
-8.51
 31
0.0
  0
LINE
  8
0
  6
CONTINUOUS
 62
       7
  5
187
 10
-34.575
 20
-6.84
 30
0.0
 11
-33.605
 21
-5.68
 31
0.0
  0
LINE
  8
0
  6
CONTINUOUS
 62
       7
  5
188
 10
-32.275
 20
-8.77
 30
0.0
 11
-31.305
 21
-7.61
 31
0.0
  0
LINE
  8
0
  6
CONTINUOUS
 62
       7
  5
189
 10
-29.665
 20
-35.98632228
 30
0.0
 11
-29.665
 21
-42.0
 31
0.0
  0
LINE
  8
0
  6
CONTINUOUS
 62
       7
  5
18A
 10
53.0
 20
-15.07974719
 30
0.0
 11
53.0
 21
-24.92025281
 31
0.0
  0
LINE
  8
0
  6
CONTINUOUS
 62
       7
  5
18B
 10
51.0
 20
-24.98275593
 30
0.0
 11
56.99
 21
-24.79555908
 31
0.0
  0
LINE
  8
0
  6
CONTINUOUS
 62
       2
  5
18C
 10
53.0
 20
-24.33925281
 30
0.0
 11
56.99
 21
-24.21455908
 31
0.0
  0
LINE
  8
0
  6
CONTINUOUS
 62
       7
  5
18D
 10
51.0
 20
-15.01724407
 30
0.0
 11
56.99
 21
-15.20444092
 31
0.0
  0
LINE
  8
0
  6
CONTINUOUS
 62
       2
  5
18E
 10
53.0
 20
-15.66074719
 30
0.0
 11
56.99
 21
-15.78544092
 31
0.0
  0
LINE
  8
0
  6
CONTINUOUS
 62
       2
  5
18F
 10
12.98201015
 20
-20.0
 30
0.0
 11
64.26
 21
-20.0
 31
0.0
  0
LINE
  8
0
  6
CONTINUOUS
 62
       7
  5
190
 10
17.0
 20
-41.25
 30
0.0
 11
20.0
 21
-41.25
 31
0.0
  0
LINE
  8
0
  6
CONTINUOUS
 62
       2
  5
191
 10
51.0
 20
-27.0
 30
0.0
 11
43.5
 21
-13.0
 31
0.0
  0
LINE
  8
0
  6
CONTINUOUS
 62
       2
  5
192
 10
51.0
 20
-13.0
 30
0.0
 11
43.5
 21
-27.0
 31
0.0
  0
ARC
  8
0
  6
CONTINUOUS
 62
       7
  5
193
 10
44.08992811
 20
-33.75436018
 30
0.0
 40
0.99563983
 50
270.00413691
 51
334.69075009
  0
ARC
  8
0
  6
CONTINUOUS
 62
       7
  5
194
 10
44.09335424
 20
-30.24782354
 30
0.0
 40
0.99782918
 50
26.02581396
 51
90.19260243
  0
ARC
  8
0
  6
CONTINUOUS
 62
       7
  5
195
 10
40.5000008
 20
-31.995
 30
0.0
 40
4.99342746
 50
334.05072884
 51
25.94927116
  0
ARC
  8
0
  6
CONTINUOUS
 62
       7
  5
196
 10
36.5
 20
-41.0
 30
0.0
 40
1.15
 50
0.0
 51
180.0
  0
ARC
  8
0
  6
CONTINUOUS
 62
       7
  5
197
 10
41.50000153
 20
-0.99999847
 30
0.0
 40
1.99999847
 50
359.99995629
 51
90.00004371
  0
ARC
  8
0
  6
CONTINUOUS
 62
       7
  5
198
 10
41.50000153
 20
-39.00000153
 30
0.0
 40
1.99999847
 50
269.99995629
 51
0.00004371
  0
LINE
  8
0
  6
CONTINUOUS
 62
       7
  5
199
 10
43.5
 20
-29.25
 30
0.0
 11
44.09
 21
-29.25
 31
0.0
  0
LINE
  8
0
  6
CONTINUOUS
 62
       7
  5
19A
 10
43.5
 20
-34.75
 30
0.0
 11
44.09
 21
-34.75
 31
0.0
  0
LINE
  8
0
  6
CONTINUOUS
 62
       2
  5
19B
 10
42.31
 20
-32.0
 30
0.0
 11
46.91
 21
-32.0
 31
0.0
  0
LINE
  8
0
  6
CONTINUOUS
 62
       2
  5
19C
 10
36.5
 20
-39.01478173
 30
0.0
 11
36.5
 21
-42.39183756
 31
0.0
  0
LINE
  8
0
  6
CONTINUOUS
 62
       7
  5
19D
 10
51.0
 20
-13.0
 30
0.0
 11
51.0
 21
-27.0
 31
0.0
  0
LINE
  8
0
  6
CONTINUOUS
 62
       7
  5
19E
 10
43.5
 20
-13.0
 30
0.0
 11
51.0
 21
-13.0
 31
0.0
  0
LINE
  8
0
  6
CONTINUOUS
 62
       7
  5
19F
 10
43.5
 20
-27.0
 30
0.0
 11
51.0
 21
-27.0
 31
0.0
  0
LINE
  8
0
  6
CONTINUOUS
 62
       7
  5
1A0
 10
20.0
 20
-41.0
 30
0.0
 11
41.5
 21
-41.0
 31
0.0
  0
LINE
  8
0
  6
CONTINUOUS
 62
       7
  5
1A1
 10
20.0
 20
1.0
 30
0.0
 11
41.5
 21
1.0
 31
0.0
  0
LINE
  8
0
  6
CONTINUOUS
 62
       7
  5
1A2
 10
43.5
 20
-1.0
 30
0.0
 11
43.5
 21
-39.0
 31
0.0
  0
LINE
  8
0
  6
CONTINUOUS
 62
       7
  5
1A3
 10
20.0
 20
1.25
 30
0.0
 11
20.0
 21
-41.25
 31
0.0
  0
LINE
  8
0
  6
CONTINUOUS
 62
       7
  5
1A4
 10
17.0
 20
1.25
 30
0.0
 11
20.0
 21
1.25
 31
0.0
  0
LINE
  8
0
  6
CONTINUOUS
 62
       7
  5
1A5
 10
17.0
 20
1.25
 30
0.0
 11
17.0
 21
-41.25
 31
0.0
  0
LINE
  8
0
  6
DASHED
 62
       7
  5
1A6
 10
-29.665
 20
-4.01367772
 30
0.0
 11
-29.665
 21
-35.98632228
 31
0.0
  0
LINE
  8
0
  6
CONTINUOUS
 62
       2
  5
1A7
 10
86.45174882
 20
22.5
 30
0.0
 11
93.64444885
 21
22.5
 31
0.0
  0
LINE
  8
0
  6
CONTINUOUS
 62
       2
  5
1A8
 10
-67.875
 20
-20.0
 30
0.0
 11
-19.16666497
 21
-20.0
 31
0.0
  0
CIRCLE
  8
0
  6
CONTINUOUS
 62
       7
  5
1A9
 10
-43.665
 20
-20.0
 30
0.0
 40
21.25
  0
CIRCLE
  8
0
  6
CONTINUOUS
 62
       7
  5
1AA
 10
-43.665
 20
-20.0
 30
0.0
 40
17.5
  0
CIRCLE
  8
0
  6
CONTINUOUS
 62
       7
  5
1AB
 10
-43.665
 20
-20.0
 30
0.0
 40
20.75
  0
LINE
  8
0
  6
CONTINUOUS
 62
       7
  5
1AC
 10
-38.78299395
 20
-9.03483487
 30
0.0
 11
-36.54710875
 21
-4.01295449
 31
0.0
  0
LINE
  8
0
  6
CONTINUOUS
 62
       7
  5
1AD
 10
-32.255
 20
-16.3
 30
0.0
 11
-42.665
 21
-18.89
 31
0.0
  0
LINE
  8
0
  6
CONTINUOUS
 62
       7
  5
1AE
 10
-32.255
 20
-16.3
 30
0.0
 11
-42.205
 21
-20.31
 31
0.0
  0
POLYLINE
  8
0
  6
CONTINUOUS
 62
       7
  5
1AF
 66
       1
 10
0.0
 20
0.0
 30
0.0
  0
VERTEX
  8
0
  6
CONTINUOUS
 62
       7
  5
24C
 10
-51.46
 20
8.285
 30
0.0
  0
VERTEX
  8
0
  6
CONTINUOUS
 62
       7
  5
24D
 10
-50.98774044
 20
8.4273539
 30
0.0
  0
VERTEX
  8
0
  6
CONTINUOUS
 62
       7
  5
24E
 10
-50.51258366
 20
8.5614465
 30
0.0
  0
VERTEX
  8
0
  6
CONTINUOUS
 62
       7
  5
24F
 10
-50.03472397
 20
8.68715047
 30
0.0
  0
VERTEX
  8
0
  6
CONTINUOUS
 62
       7
  5
250
 10
-49.55435569
 20
8.80433848
 30
0.0
  0
VERTEX
  8
0
  6
CONTINUOUS
 62
       7
  5
251
 10
-49.07167315
 20
8.91288319
 30
0.0
  0
VERTEX
  8
0
  6
CONTINUOUS
 62
       7
  5
252
 10
-48.58687067
 20
9.01265727
 30
0.0
  0
VERTEX
  8
0
  6
CONTINUOUS
 62
       7
  5
253
 10
-48.10014257
 20
9.10353338
 30
0.0
  0
VERTEX
  8
0
  6
CONTINUOUS
 62
       7
  5
254
 10
-47.61168318
 20
9.1853842
 30
0.0
  0
VERTEX
  8
0
  6
CONTINUOUS
 62
       7
  5
255
 10
-47.12168681
 20
9.25808239
 30
0.0
  0
VERTEX
  8
0
  6
CONTINUOUS
 62
       7
  5
256
 10
-46.63034779
 20
9.32150061
 30
0.0
  0
VERTEX
  8
0
  6
CONTINUOUS
 62
       7
  5
257
 10
-46.13786044
 20
9.37551153
 30
0.0
  0
VERTEX
  8
0
  6
CONTINUOUS
 62
       7
  5
258
 10
-45.64441908
 20
9.41998783
 30
0.0
  0
VERTEX
  8
0
  6
CONTINUOUS
 62
       7
  5
259
 10
-45.15021803
 20
9.45480215
 30
0.0
  0
VERTEX
  8
0
  6
CONTINUOUS
 62
       7
  5
25A
 10
-44.65545162
 20
9.47982718
 30
0.0
  0
VERTEX
  8
0
  6
CONTINUOUS
 62
       7
  5
25B
 10
-44.16031417
 20
9.49493557
 30
0.0
  0
VERTEX
  8
0
  6
CONTINUOUS
 62
       7
  5
25C
 10
-43.665
 20
9.5
 30
0.0
  0
VERTEX
  8
0
  6
CONTINUOUS
 62
       7
  5
25D
 10
-43.16968583
 20
9.49493557
 30
0.0
  0
VERTEX
  8
0
  6
CONTINUOUS
 62
       7
  5
25E
 10
-42.67454838
 20
9.47982718
 30
0.0
  0
VERTEX
  8
0
  6
CONTINUOUS
 62
       7
  5
25F
 10
-42.17978197
 20
9.45480215
 30
0.0
  0
VERTEX
  8
0
  6
CONTINUOUS
 62
       7
  5
260
 10
-41.68558092
 20
9.41998783
 30
0.0
  0
VERTEX
  8
0
  6
CONTINUOUS
 62
       7
  5
261
 10
-41.19213956
 20
9.37551153
 30
0.0
  0
VERTEX
  8
0
  6
CONTINUOUS
 62
       7
  5
262
 10
-40.69965221
 20
9.32150061
 30
0.0
  0
VERTEX
  8
0
  6
CONTINUOUS
 62
       7
  5
263
 10
-40.20831319
 20
9.25808239
 30
0.0
  0
VERTEX
  8
0
  6
CONTINUOUS
 62
       7
  5
264
 10
-39.71831682
 20
9.1853842
 30
0.0
  0
VERTEX
  8
0
  6
CONTINUOUS
 62
       7
  5
265
 10
-39.22985743
 20
9.10353338
 30
0.0
  0
VERTEX
  8
0
  6
CONTINUOUS
 62
       7
  5
266
 10
-38.74312933
 20
9.01265727
 30
0.0
  0
VERTEX
  8
0
  6
CONTINUOUS
 62
       7
  5
267
 10
-38.25832685
 20
8.91288319
 30
0.0
  0
VERTEX
  8
0
  6
CONTINUOUS
 62
       7
  5
268
 10
-37.77564431
 20
8.80433848
 30
0.0
  0
VERTEX
  8
0
  6
CONTINUOUS
 62
       7
  5
269
 10
-37.29527603
 20
8.68715047
 30
0.0
  0
VERTEX
  8
0
  6
CONTINUOUS
 62
       7
  5
26A
 10
-36.81741634
 20
8.5614465
 30
0.0
  0
VERTEX
  8
0
  6
CONTINUOUS
 62
       7
  5
26B
 10
-36.34225956
 20
8.4273539
 30
0.0
  0
VERTEX
  8
0
  6
CONTINUOUS
 62
       7
  5
26C
 10
-35.87
 20
8.285
 30
0.0
  0
SEQEND
  8
0
  6
CONTINUOUS
 62
       7
  5
26D
  0
LINE
  8
0
  6
CONTINUOUS
 62
       2
  5
1B0
 10
-61.665
 20
-22.5
 30
0.0
 11
-53.665
 21
-22.5
 31
0.0
  0
LINE
  8
0
  6
CONTINUOUS
 62
       7
  5
1B1
 10
-32.665
 20
16.3
 30
0.0
 11
-54.665
 21
16.3
 31
0.0
  0
LINE
  8
0
  6
CONTINUOUS
 62
       7
  5
1B2
 10
-34.28
 20
32.8
 30
0.0
 11
-38.525
 21
32.8
 31
0.0
  0
LINE
  8
0
  6
CONTINUOUS
 62
       7
  5
1B3
 10
-34.88
 20
33.8
 30
0.0
 11
-39.56
 21
33.8
 31
0.0
  0
LINE
  8
0
  6
CONTINUOUS
 62
       7
  5
1B4
 10
-33.165
 20
15.8
 30
0.0
 11
-54.165
 21
15.8
 31
0.0
  0
LINE
  8
0
  6
CONTINUOUS
 62
       7
  5
1B5
 10
-34.965
 20
35.8
 30
0.0
 11
-52.365
 21
35.8
 31
0.0
  0
LINE
  8
0
  6
CONTINUOUS
 62
       7
  5
1B6
 10
-32.665
 20
11.5
 30
0.0
 11
-54.665
 21
11.5
 31
0.0
  0
LINE
  8
0
  6
CONTINUOUS
 62
       7
  5
1B7
 10
-32.665
 20
10.5
 30
0.0
 11
-54.665
 21
10.5
 31
0.0
  0
LINE
  8
0
  6
CONTINUOUS
 62
       7
  5
1B8
 10
-33.665
 20
12.5
 30
0.0
 11
-53.665
 21
12.5
 31
0.0
  0
LINE
  8
0
  6
CONTINUOUS
 62
       7
  5
1B9
 10
-33.66
 20
2.5
 30
0.0
 11
-53.67
 21
2.5
 31
0.0
  0
LINE
  8
0
  6
CONTINUOUS
 62
       7
  5
1BA
 10
-57.665
 20
-42.0
 30
0.0
 11
-29.665
 21
-42.0
 31
0.0
  0
LINE
  8
0
  6
CONTINUOUS
 62
       7
  5
1BB
 10
-30.165
 20
9.5
 30
0.0
 11
-57.165
 21
9.5
 31
0.0
  0
LINE
  8
0
  6
CONTINUOUS
 62
       7
  5
1BC
 10
-28.065
 20
5.0
 30
0.0
 11
-59.265
 21
5.0
 31
0.0
  0
LINE
  8
0
  6
CONTINUOUS
 62
       7
  5
1BD
 10
-30.165
 20
4.5
 30
0.0
 11
-57.165
 21
4.5
 31
0.0
  0
LINE
  8
0
  6
CONTINUOUS
 62
       7
  5
1BE
 10
-138.3999939
 20
94.5
 30
0.0
 11
138.3500061
 21
94.5
 31
0.0
  0
LINE
  8
0
  6
CONTINUOUS
 62
       7
  5
1BF
 10
138.3500061
 20
94.5
 30
0.0
 11
138.3500061
 21
-94.80000305
 31
0.0
  0
LINE
  8
0
  6
CONTINUOUS
 62
       7
  5
1C0
 10
-138.3999939
 20
-94.80000305
 30
0.0
 11
138.3500061
 21
-94.80000305
 31
0.0
  0
LINE
  8
0
  6
CONTINUOUS
 62
       7
  5
1C1
 10
-138.3999939
 20
94.5
 30
0.0
 11
-138.3999939
 21
-94.80000305
 31
0.0
  0
TEXT
  8
0
  6
CONTINUOUS
 62
       7
  5
1C2
 10
-129.43528803
 20
72.89999998
 30
0.0
 40
3.20000005
  1
MODEL:VR100-M5-G-B
 41
1.05882353
  7
MX_NOTE_STANDARD
 11
-129.43528803
 21
74.5
 31
0.0
 73
       2
  0
ENDSEC
  0
EOF
