  0
SECTION
  2
HEADER
  9
$ACADVER
  1
AC1009
  9
$INSBASE
 10
0.0
 20
0.0
 30
0.0
  9
$EXTMIN
 10
-281.25
 20
-195.0
 30
0.0
  9
$EXTMAX
 10
282.09985352
 20
195.5
 30
0.0
  9
$LIMMIN
 10
-281.25
 20
-195.0
  9
$LIMMAX
 10
282.09985352
 20
195.5
  9
$ORTHOMODE
 70
       0
  9
$REGENMODE
 70
       1
  9
$FILLMODE
 70
       1
  9
$QTEXTMODE
 70
       0
  9
$MIRRTEXT
 70
       1
  9
$DRAGMODE
 70
       2
  9
$LTSCALE
 40
1.0
  9
$OSMODE
 70
       0
  9
$ATTMODE
 70
       1
  9
$TEXTSIZE
 40
3.20000005
  9
$TRACEWID
 40
0.05
  9
$TEXTSTYLE
  7
MX_NOTE_STANDARD
  9
$CLAYER
  8
0
  9
$CELTYPE
  6
CONTINUOUS
  9
$CECOLOR
 62
     256
  9
$DIMSCALE
 40
1.0
  9
$DIMASZ
 40
2.5
  9
$DIMEXO
 40
1.5
  9
$DIMDLI
 40
3.75
  9
$DIMRND
 40
0.0
  9
$DIMDLE
 40
0.0
  9
$DIMEXE
 40
1.5
  9
$DIMTP
 40
0.0
  9
$DIMTM
 40
0.0
  9
$DIMTXT
 40
3.20000005
  9
$DIMCEN
 40
2.5
  9
$DIMTSZ
 40
0.0
  9
$DIMTOL
 70
       0
  9
$DIMLIM
 70
       0
  9
$DIMTIH
 70
       0
  9
$DIMTOH
 70
       0
  9
$DIMSE1
 70
       0
  9
$DIMSE2
 70
       0
  9
$DIMTAD
 70
       1
  9
$DIMZIN
 70
       8
  9
$DIMBLK
  1

  9
$DIMASO
 70
       1
  9
$DIMSHO
 70
       1
  9
$DIMPOST
  1

  9
$DIMAPOST
  1

  9
$DIMALT
 70
       0
  9
$DIMALTD
 70
       4
  9
$DIMALTF
 40
0.0394
  9
$DIMLFAC
 40
1.0
  9
$DIMTOFL
 70
       1
  9
$DIMTVP
 40
0.0
  9
$DIMTIX
 70
       0
  9
$DIMSOXD
 70
       0
  9
$DIMSAH
 70
       0
  9
$DIMBLK1
  1

  9
$DIMBLK2
  1

  9
$DIMSTYLE
  2
MXDIMSTYLE
  9
$DIMCLRD
 70
       0
  9
$DIMCLRE
 70
       0
  9
$DIMCLRT
 70
       0
  9
$DIMTFAC
 40
1.0
  9
$DIMGAP
 40
1.0
  9
$LUNITS
 70
       2
  9
$LUPREC
 70
       4
  9
$AXISMODE
 70
       0
  9
$AXISUNIT
 10
0.0
 20
0.0
  9
$SKETCHINC
 40
0.1
  9
$FILLETRAD
 40
0.0
  9
$AUNITS
 70
       0
  9
$AUPREC
 70
       0
  9
$MENU
  1
acad
  9
$ELEVATION
 40
0.0
  9
$PELEVATION
 40
0.0
  9
$THICKNESS
 40
0.0
  9
$LIMCHECK
 70
       0
  9
$BLIPMODE
 70
       1
  9
$CHAMFERA
 40
0.0
  9
$CHAMFERB
 40
0.0
  9
$SKPOLY
 70
       0
  9
$TDCREATE
 40
2452607.668761574
  9
$TDUPDATE
 40
2452607.668761574
  9
$TDINDWG
 40
0.0000000000
  9
$TDUSRTIMER
 40
0.0000000000
  9
$USRTIMER
 70
       1
  9
$ANGBASE
 50
0.0
  9
$ANGDIR
 70
       0
  9
$PDMODE
 70
       0
  9
$PDSIZE
 40
0.0
  9
$PLINEWID
 40
0.0
  9
$COORDS
 70
       1
  9
$SPLFRAME
 70
       0
  9
$SPLINETYPE
 70
       6
  9
$SPLINESEGS
 70
       8
  9
$ATTDIA
 70
       0
  9
$ATTREQ
 70
       1
  9
$HANDLING
 70
       1
  9
$HANDSEED
  5
173
  9
$SURFTAB1
 70
       6
  9
$SURFTAB2
 70
       6
  9
$SURFTYPE
 70
       6
  9
$SURFU
 70
       6
  9
$SURFV
 70
       6
  9
$UCSNAME
  2

  9
$UCSORG
 10
0.0
 20
0.0
 30
0.0
  9
$UCSXDIR
 10
1.0
 20
0.0
 30
0.0
  9
$UCSYDIR
 10
0.0
 20
1.0
 30
0.0
  9
$PUCSNAME
  2

  9
$PUCSORG
 10
0.0
 20
0.0
 30
0.0
  9
$PUCSXDIR
 10
1.0
 20
0.0
 30
0.0
  9
$PUCSYDIR
 10
0.0
 20
1.0
 30
0.0
  9
$USERI1
 70
       0
  9
$USERI2
 70
       0
  9
$USERI3
 70
       0
  9
$USERI4
 70
       0
  9
$USERI5
 70
       0
  9
$USERR1
 40
0.0
  9
$USERR2
 40
0.0
  9
$USERR3
 40
0.0
  9
$USERR4
 40
0.0
  9
$USERR5
 40
0.0
  9
$WORLDVIEW
 70
       1
  9
$SHADEDGE
 70
       3
  9
$SHADEDIF
 70
      70
  9
$TILEMODE
 70
       1
  9
$MAXACTVP
 70
      16
  9
$PINSBASE
 10
0.0
 20
0.0
 30
0.0
  9
$PLIMCHECK
 70
       0
  9
$PEXTMIN
 10
1.00000000E+20
 20
1.00000000E+20
 30
1.00000000E+20
  9
$PEXTMAX
 10
-1.00000000E+20
 20
-1.00000000E+20
 30
-1.00000000E+20
  9
$PLIMMIN
 10
0.0
 20
0.0
  9
$PLIMMAX
 10
12.0
 20
9.0
  9
$UNITMODE
 70
       0
  9
$VISRETAIN
 70
       0
  9
$PLINEGEN
 70
       1
  9
$PSLTSCALE
 70
       0
  9
$TREEDEPTH
 70
    3020
  9
$DWGCODEPAGE
  3
dos932
  0
ENDSEC
  0
SECTION
  2
TABLES
  0
TABLE
  2
VPORT
 70
       1
  0
VPORT
  2
*ACTIVE
 70
       0
 10
0.0
 20
0.0
 11
1.0
 21
1.0
 12
0.42492676
 22
0.25
 13
0.0
 23
0.0
 14
1.0
 24
1.0
 15
0.0
 25
0.0
 16
0.0
 26
0.0
 36
1.0
 17
0.0
 27
0.0
 37
0.0
 40
394.405
 41
1.73205081
 42
50.0
 43
0.0
 44
0.0
 50
0.0
 51
0.0
 71
       0
 72
     100
 73
       1
 74
       1
 75
       0
 76
       0
 77
       0
 78
       0
  0
ENDTAB
  0
TABLE
  2
LTYPE
 70
       4
  0
LTYPE
  2
CONTINUOUS
 70
      64
  3
Solid line
 72
      65
 73
       0
 40
0.0
  0
LTYPE
  2
CENTER
 70
      64
  3
Center ____ _ ____ _ ____ _ ____ _ ____ _ ____
 72
      65
 73
       4
 40
50.8
 49
31.75
 49
-6.35
 49
6.35
 49
-6.35
  0
LTYPE
  2
PHANTOM
 70
      64
  3
Phantom ______  __  __  ______  __  __  ______
 72
      65
 73
       6
 40
63.5
 49
31.75
 49
-6.35
 49
6.35
 49
-6.35
 49
6.35
 49
-6.35
  0
LTYPE
  2
DASHED
 70
      64
  3
Dashed __ __ __ __ __ __ __ __ __ __ __ __ __ _
 72
      65
 73
       2
 40
19.05
 49
12.7
 49
-6.35
  0
ENDTAB
  0
TABLE
  2
LAYER
 70
       2
  0
LAYER
  2
0
 70
       0
 62
       7
  6
CONTINUOUS
  0
LAYER
  2
DEFPOINTS
 70
       0
 62
       7
  6
CONTINUOUS
  0
ENDTAB
  0
TABLE
  2
STYLE
 70
       1
  0
STYLE
  2
MX_NOTE_STANDARD
 70
       0
 40
3.20000005
 41
1.0
 50
0.0
 71
       0
 42
3.20000005
  3
txt.shx
  4
extfont.shx
  0
ENDTAB
  0
TABLE
  2
VIEW
 70
       0
  0
ENDTAB
  0
TABLE
  2
UCS
 70
       0
  0
ENDTAB
  0
TABLE
  2
APPID
 70
       1
  0
APPID
  2
ACAD
 70
       0
  0
ENDTAB
  0
TABLE
  2
DIMSTYLE
 70
       1
  0
DIMSTYLE
  2
MXDIMSTYLE
 70
       0
  3

  4

  5

  6

  7

 40
1.0
 41
2.5
 42
1.5
 43
3.75
 44
1.5
 45
0.0
 46
0.0
 47
0.0
 48
0.0
 71
       0
 72
       0
 73
       0
 74
       0
 75
       0
 76
       0
 77
       1
 78
       8
140
3.20000005
141
2.5
142
0.0
143
0.0394
144
1.0
145
0.0
146
1.0
147
1.0
170
       0
171
       4
172
       1
173
       0
174
       0
175
       0
176
       0
177
       0
178
       0
  0
ENDTAB
  0
ENDSEC
  0
SECTION
  2
BLOCKS
  0
ENDSEC
  0
SECTION
  2
ENTITIES
  0
CIRCLE
  8
0
  6
CONTINUOUS
 62
       7
  5
1E
 10
104.93257455
 20
93.25337068
 30
0.0
 40
2.5
  0
LINE
  8
0
  6
CENTER
 62
       2
  5
20
 10
99.78635614
 20
87.75337068
 30
0.0
 11
109.70233521
 21
87.75337068
 31
0.0
  0
CIRCLE
  8
0
  6
CONTINUOUS
 62
       7
  5
21
 10
104.93257455
 20
87.75337068
 30
0.0
 40
2.5
  0
CIRCLE
  8
0
  6
CONTINUOUS
 62
       7
  5
22
 10
104.93257455
 20
87.75337068
 30
0.0
 40
1.0
  0
LINE
  8
0
  6
CENTER
 62
       2
  5
23
 10
99.78635614
 20
93.25337068
 30
0.0
 11
109.70233521
 21
93.25337068
 31
0.0
  0
CIRCLE
  8
0
  6
CONTINUOUS
 62
       7
  5
24
 10
104.93257455
 20
93.25337068
 30
0.0
 40
1.0
  0
LINE
  8
0
  6
CENTER
 62
       2
  5
25
 10
104.93257455
 20
-15.858871
 30
0.0
 11
104.93257455
 21
132.81019801
 31
0.0
  0
LINE
  8
0
  6
CENTER
 62
       2
  5
26
 10
77.93253613
 20
90.50337068
 30
0.0
 11
132.76230659
 21
90.50337068
 31
0.0
  0
ARC
  8
0
  6
CONTINUOUS
 62
       7
  5
27
 10
104.93257455
 20
90.50337068
 30
0.0
 40
20.0
 50
194.47751219
 51
345.52248781
  0
ARC
  8
0
  6
CONTINUOUS
 62
       7
  5
28
 10
104.93257455
 20
90.50337068
 30
0.0
 40
20.0
 50
14.47751219
 51
165.52248781
  0
CIRCLE
  8
0
  6
CONTINUOUS
 62
       7
  5
29
 10
104.93257455
 20
90.50337068
 30
0.0
 40
13.0
  0
CIRCLE
  8
0
  6
CONTINUOUS
 62
       7
  5
2A
 10
104.93257455
 20
90.50337068
 30
0.0
 40
7.5
  0
LINE
  8
0
  6
CONTINUOUS
 62
       7
  5
2B
 10
125.94051404
 20
50.30837068
 30
0.0
 11
125.94051404
 21
118.50072419
 31
0.0
  0
ARC
  8
0
  6
CONTINUOUS
 62
       7
  5
2C
 10
118.94398
 20
118.50683665
 30
0.0
 40
6.99653671
 50
359.94994407
 51
90.05005593
  0
LINE
  8
0
  6
CONTINUOUS
 62
       7
  5
2D
 10
118.93786754
 20
125.50337068
 30
0.0
 11
90.92728155
 21
125.50337068
 31
0.0
  0
LINE
  8
0
  6
CONTINUOUS
 62
       7
  5
2E
 10
83.92463506
 20
50.30837068
 30
0.0
 11
83.92463506
 21
118.50072419
 31
0.0
  0
ARC
  8
0
  6
CONTINUOUS
 62
       7
  5
2F
 10
90.92430691
 20
118.50369883
 30
0.0
 40
6.99967248
 50
89.97565104
 51
180.02434896
  0
LINE
  8
0
  6
CONTINUOUS
 62
       7
  5
30
 10
-73.05534731
 20
77.50336907
 30
0.0
 11
-74.55534731
 21
70.50336907
 31
0.0
  0
ARC
  8
0
  6
CONTINUOUS
 62
       7
  5
31
 10
-72.42484556
 20
90.50607959
 30
0.0
 40
20.11585111
 50
198.76007311
 51
263.92031039
  0
LINE
  8
0
  6
CONTINUOUS
 62
       7
  5
32
 10
-73.05534731
 20
103.50336907
 30
0.0
 11
-74.55534731
 21
110.50336907
 31
0.0
  0
LINE
  8
0
  6
CONTINUOUS
 62
       7
  5
33
 10
-74.54662017
 20
110.50429164
 30
0.0
 11
-74.54662017
 21
118.93117596
 31
0.0
  0
ARC
  8
0
  6
CONTINUOUS
 62
       7
  5
34
 10
-72.43817013
 20
90.51731426
 30
0.0
 40
20.09788113
 50
96.02192778
 51
161.27267044
  0
LINE
  8
0
  6
CONTINUOUS
 62
       7
  5
35
 10
-73.05534731
 20
103.50336907
 30
0.0
 11
-73.05534731
 21
77.50336907
 31
0.0
  0
ARC
  8
0
  6
CONTINUOUS
 62
       7
  5
36
 10
-53.55534731
 20
78.50336907
 30
0.0
 40
1.0
 50
270.0
 51
0.0
  0
LINE
  8
0
  6
CONTINUOUS
 62
       7
  5
37
 10
-73.05534731
 20
77.50336907
 30
0.0
 11
-53.55534731
 21
77.50336907
 31
0.0
  0
LINE
  8
0
  6
CONTINUOUS
 62
       7
  5
38
 10
-18.8187405
 20
93.75336907
 30
0.0
 11
-8.8187405
 21
93.75336907
 31
0.0
  0
LINE
  8
0
  6
CONTINUOUS
 62
       7
  5
39
 10
-18.8187405
 20
92.75336907
 30
0.0
 11
-8.8187405
 21
92.75336907
 31
0.0
  0
LINE
  8
0
  6
CONTINUOUS
 62
       7
  5
3A
 10
-18.8187405
 20
88.25336907
 30
0.0
 11
-8.8187405
 21
88.25336907
 31
0.0
  0
LINE
  8
0
  6
CONTINUOUS
 62
       7
  5
3B
 10
-18.8187405
 20
87.25336907
 30
0.0
 11
-8.8187405
 21
87.25336907
 31
0.0
  0
LINE
  8
0
  6
CONTINUOUS
 62
       7
  5
3C
 10
-18.8187405
 20
92.00336907
 30
0.0
 11
-18.8187405
 21
94.50336913
 31
0.0
  0
LINE
  8
0
  6
CONTINUOUS
 62
       7
  5
3D
 10
-18.8187405
 20
86.50336913
 30
0.0
 11
-18.8187405
 21
89.00336907
 31
0.0
  0
LINE
  8
0
  6
CONTINUOUS
 62
       7
  5
3E
 10
-37.44685296
 20
86.50336907
 30
0.0
 11
-18.8187405
 21
86.50336907
 31
0.0
  0
LINE
  8
0
  6
CONTINUOUS
 62
       7
  5
3F
 10
-37.00603551
 20
89.00336907
 30
0.0
 11
-18.8187405
 21
89.00336907
 31
0.0
  0
LINE
  8
0
  6
CONTINUOUS
 62
       7
  5
40
 10
-36.47705457
 20
92.00336907
 30
0.0
 11
-18.8187405
 21
92.00336907
 31
0.0
  0
LINE
  8
0
  6
CONTINUOUS
 62
       7
  5
41
 10
-36.03623712
 20
94.50336907
 30
0.0
 11
-18.8187405
 21
94.50336907
 31
0.0
  0
ARC
  8
0
  6
CONTINUOUS
 62
       7
  5
42
 10
-50.55534731
 20
84.00336907
 30
0.0
 40
1.0
 50
270.0
 51
0.0
  0
ARC
  8
0
  6
CONTINUOUS
 62
       7
  5
43
 10
-50.55534731
 20
97.00336907
 30
0.0
 40
1.0
 50
0.0
 51
90.0
  0
LINE
  8
0
  6
CONTINUOUS
 62
       7
  5
44
 10
-49.55534731
 20
97.00336907
 30
0.0
 11
-49.55534731
 21
84.00336907
 31
0.0
  0
LINE
  8
0
  6
CONTINUOUS
 62
       7
  5
45
 10
-52.55534731
 20
83.00336907
 30
0.0
 11
-50.55534731
 21
83.00336907
 31
0.0
  0
LINE
  8
0
  6
CONTINUOUS
 62
       7
  5
46
 10
-52.55534731
 20
98.00336907
 30
0.0
 11
-50.55534731
 21
98.00336907
 31
0.0
  0
ARC
  8
0
  6
CONTINUOUS
 62
       7
  5
47
 10
-53.55534731
 20
102.50336907
 30
0.0
 40
1.0
 50
0.0
 51
90.0
  0
LINE
  8
0
  6
CONTINUOUS
 62
       7
  5
48
 10
-49.55534731
 20
94.50336907
 30
0.0
 11
-39.08251696
 21
94.50336907
 31
0.0
  0
LINE
  8
0
  6
CONTINUOUS
 62
       7
  5
49
 10
-49.55534731
 20
92.00336907
 30
0.0
 11
-39.52333442
 21
92.00336907
 31
0.0
  0
LINE
  8
0
  6
CONTINUOUS
 62
       7
  5
4A
 10
-49.55534731
 20
89.00336907
 30
0.0
 11
-40.05231536
 21
89.00336907
 31
0.0
  0
LINE
  8
0
  6
CONTINUOUS
 62
       7
  5
4B
 10
-49.55534731
 20
86.50336907
 30
0.0
 11
-40.49313281
 21
86.50336907
 31
0.0
  0
LINE
  8
0
  6
CONTINUOUS
 62
       7
  5
4C
 10
-8.8187405
 20
88.25336907
 30
0.0
 11
-8.8187405
 21
87.25336907
 31
0.0
  0
LINE
  8
0
  6
CONTINUOUS
 62
       7
  5
4D
 10
-8.8187405
 20
93.75336907
 30
0.0
 11
-8.8187405
 21
92.75336907
 31
0.0
  0
LINE
  8
0
  6
CONTINUOUS
 62
       7
  5
4E
 10
-52.55534731
 20
102.50336907
 30
0.0
 11
-52.55534731
 21
78.50336907
 31
0.0
  0
LINE
  8
0
  6
PHANTOM
 62
       2
  5
50
 10
-38.28920642
 20
81.72614519
 30
0.0
 11
-35.41293526
 21
98.03828958
 31
0.0
  0
LINE
  8
0
  6
PHANTOM
 62
       2
  5
51
 10
-41.24362967
 20
82.2470899
 30
0.0
 11
-38.36735856
 21
98.55923394
 31
0.0
  0
LINE
  8
0
  6
CENTER
 62
       2
  5
52
 10
-104.78512225
 20
90.50336907
 30
0.0
 11
1.59684533
 21
90.50336907
 31
0.0
  0
LINE
  8
0
  6
CONTINUOUS
 62
       7
  5
53
 10
-56.55534731
 20
103.50336907
 30
0.0
 11
-56.55534731
 21
77.50336907
 31
0.0
  0
LINE
  8
0
  6
CONTINUOUS
 62
       7
  5
54
 10
-73.05534731
 20
103.50336907
 30
0.0
 11
-53.55534731
 21
103.50336907
 31
0.0
  0
POLYLINE
  8
0
  6
PHANTOM
 62
       2
  5
55
 66
       1
 10
0.0
 20
0.0
 30
0.0
  0
VERTEX
  8
0
  6
PHANTOM
 62
       2
  5
140
 10
-147.92854908
 20
68.10837068
 30
0.0
  0
VERTEX
  8
0
  6
PHANTOM
 62
       2
  5
141
 10
-147.95004218
 20
68.01795487
 30
0.0
  0
VERTEX
  8
0
  6
PHANTOM
 62
       2
  5
142
 10
-147.97016424
 20
67.92727085
 30
0.0
  0
VERTEX
  8
0
  6
PHANTOM
 62
       2
  5
143
 10
-147.98880595
 20
67.83636404
 30
0.0
  0
VERTEX
  8
0
  6
PHANTOM
 62
       2
  5
144
 10
-148.005858
 20
67.74527988
 30
0.0
  0
VERTEX
  8
0
  6
PHANTOM
 62
       2
  5
145
 10
-148.02121109
 20
67.65406379
 30
0.0
  0
VERTEX
  8
0
  6
PHANTOM
 62
       2
  5
146
 10
-148.03475589
 20
67.56276121
 30
0.0
  0
VERTEX
  8
0
  6
PHANTOM
 62
       2
  5
147
 10
-148.04638312
 20
67.47141756
 30
0.0
  0
VERTEX
  8
0
  6
PHANTOM
 62
       2
  5
148
 10
-148.05598346
 20
67.38007828
 30
0.0
  0
VERTEX
  8
0
  6
PHANTOM
 62
       2
  5
149
 10
-148.06344759
 20
67.2887888
 30
0.0
  0
VERTEX
  8
0
  6
PHANTOM
 62
       2
  5
14A
 10
-148.06866622
 20
67.19759455
 30
0.0
  0
VERTEX
  8
0
  6
PHANTOM
 62
       2
  5
14B
 10
-148.07153004
 20
67.10654095
 30
0.0
  0
VERTEX
  8
0
  6
PHANTOM
 62
       2
  5
14C
 10
-148.07192973
 20
67.01567344
 30
0.0
  0
VERTEX
  8
0
  6
PHANTOM
 62
       2
  5
14D
 10
-148.069756
 20
66.92503745
 30
0.0
  0
VERTEX
  8
0
  6
PHANTOM
 62
       2
  5
14E
 10
-148.06489952
 20
66.83467841
 30
0.0
  0
VERTEX
  8
0
  6
PHANTOM
 62
       2
  5
14F
 10
-148.057251
 20
66.74464174
 30
0.0
  0
VERTEX
  8
0
  6
PHANTOM
 62
       2
  5
150
 10
-148.04670112
 20
66.65497288
 30
0.0
  0
VERTEX
  8
0
  6
PHANTOM
 62
       2
  5
151
 10
-148.01521773
 20
66.46866035
 30
0.0
  0
VERTEX
  8
0
  6
PHANTOM
 62
       2
  5
152
 10
-147.97228542
 20
66.2839406
 30
0.0
  0
VERTEX
  8
0
  6
PHANTOM
 62
       2
  5
153
 10
-147.91963271
 20
66.1005977
 30
0.0
  0
VERTEX
  8
0
  6
PHANTOM
 62
       2
  5
154
 10
-147.85898816
 20
65.91841572
 30
0.0
  0
VERTEX
  8
0
  6
PHANTOM
 62
       2
  5
155
 10
-147.79208032
 20
65.73717873
 30
0.0
  0
VERTEX
  8
0
  6
PHANTOM
 62
       2
  5
156
 10
-147.72063771
 20
65.55667079
 30
0.0
  0
VERTEX
  8
0
  6
PHANTOM
 62
       2
  5
157
 10
-147.64638889
 20
65.37667597
 30
0.0
  0
VERTEX
  8
0
  6
PHANTOM
 62
       2
  5
158
 10
-147.57106241
 20
65.19697834
 30
0.0
  0
VERTEX
  8
0
  6
PHANTOM
 62
       2
  5
159
 10
-147.49638679
 20
65.01736197
 30
0.0
  0
VERTEX
  8
0
  6
PHANTOM
 62
       2
  5
15A
 10
-147.4240906
 20
64.83761092
 30
0.0
  0
VERTEX
  8
0
  6
PHANTOM
 62
       2
  5
15B
 10
-147.35590236
 20
64.65750926
 30
0.0
  0
VERTEX
  8
0
  6
PHANTOM
 62
       2
  5
15C
 10
-147.29355063
 20
64.47684105
 30
0.0
  0
VERTEX
  8
0
  6
PHANTOM
 62
       2
  5
15D
 10
-147.23876395
 20
64.29539037
 30
0.0
  0
VERTEX
  8
0
  6
PHANTOM
 62
       2
  5
15E
 10
-147.19327086
 20
64.11294127
 30
0.0
  0
VERTEX
  8
0
  6
PHANTOM
 62
       2
  5
15F
 10
-147.15879991
 20
63.92927784
 30
0.0
  0
VERTEX
  8
0
  6
PHANTOM
 62
       2
  5
160
 10
-147.13707963
 20
63.74418412
 30
0.0
  0
VERTEX
  8
0
  6
PHANTOM
 62
       2
  5
161
 10
-147.13114486
 20
63.64236189
 30
0.0
  0
VERTEX
  8
0
  6
PHANTOM
 62
       2
  5
162
 10
-147.12938104
 20
63.54012492
 30
0.0
  0
VERTEX
  8
0
  6
PHANTOM
 62
       2
  5
163
 10
-147.13163428
 20
63.4375502
 30
0.0
  0
VERTEX
  8
0
  6
PHANTOM
 62
       2
  5
164
 10
-147.13775068
 20
63.33471472
 30
0.0
  0
VERTEX
  8
0
  6
PHANTOM
 62
       2
  5
165
 10
-147.14757633
 20
63.23169546
 30
0.0
  0
VERTEX
  8
0
  6
PHANTOM
 62
       2
  5
166
 10
-147.16095735
 20
63.12856939
 30
0.0
  0
VERTEX
  8
0
  6
PHANTOM
 62
       2
  5
167
 10
-147.17773984
 20
63.0254135
 30
0.0
  0
VERTEX
  8
0
  6
PHANTOM
 62
       2
  5
168
 10
-147.19776989
 20
62.92230478
 30
0.0
  0
VERTEX
  8
0
  6
PHANTOM
 62
       2
  5
169
 10
-147.22089361
 20
62.8193202
 30
0.0
  0
VERTEX
  8
0
  6
PHANTOM
 62
       2
  5
16A
 10
-147.2469571
 20
62.71653674
 30
0.0
  0
VERTEX
  8
0
  6
PHANTOM
 62
       2
  5
16B
 10
-147.27580647
 20
62.6140314
 30
0.0
  0
VERTEX
  8
0
  6
PHANTOM
 62
       2
  5
16C
 10
-147.30728782
 20
62.51188115
 30
0.0
  0
VERTEX
  8
0
  6
PHANTOM
 62
       2
  5
16D
 10
-147.34124724
 20
62.41016297
 30
0.0
  0
VERTEX
  8
0
  6
PHANTOM
 62
       2
  5
16E
 10
-147.37753084
 20
62.30895384
 30
0.0
  0
VERTEX
  8
0
  6
PHANTOM
 62
       2
  5
16F
 10
-147.41598472
 20
62.20833075
 30
0.0
  0
VERTEX
  8
0
  6
PHANTOM
 62
       2
  5
170
 10
-147.45645499
 20
62.10837068
 30
0.0
  0
SEQEND
  8
0
  6
PHANTOM
 62
       2
  5
171
  0
LINE
  8
0
  6
PHANTOM
 62
       2
  5
56
 10
-135.53868064
 20
62.10837068
 30
0.0
 11
-147.45645499
 21
62.10837068
 31
0.0
  0
LINE
  8
0
  6
PHANTOM
 62
       2
  5
57
 10
-135.53868064
 20
68.10837068
 30
0.0
 11
-147.92854908
 21
68.10837068
 31
0.0
  0
LINE
  8
0
  6
CONTINUOUS
 62
       7
  5
58
 10
-120.23868064
 20
60.10837068
 30
0.0
 11
-119.53868064
 21
60.80837068
 31
0.0
  0
LINE
  8
0
  6
CONTINUOUS
 62
       2
  5
59
 10
-119.53868064
 20
60.80837068
 30
0.0
 11
-122.53868064
 21
60.80837068
 31
0.0
  0
LINE
  8
0
  6
CONTINUOUS
 62
       7
  5
5A
 10
-116.53868064
 20
62.10837068
 30
0.0
 11
-119.53868064
 21
62.10837068
 31
0.0
  0
LINE
  8
0
  6
CONTINUOUS
 62
       7
  5
5B
 10
-120.23868064
 20
60.10837068
 30
0.0
 11
-122.53868064
 21
60.10837068
 31
0.0
  0
LINE
  8
0
  6
CONTINUOUS
 62
       7
  5
5C
 10
-119.53868064
 20
60.80837068
 30
0.0
 11
-119.53868064
 21
69.40837068
 31
0.0
  0
LINE
  8
0
  6
CONTINUOUS
 62
       2
  5
5D
 10
-119.53868064
 20
69.40837068
 30
0.0
 11
-122.53868064
 21
69.40837068
 31
0.0
  0
LINE
  8
0
  6
CONTINUOUS
 62
       7
  5
5E
 10
-120.23868064
 20
70.10837068
 30
0.0
 11
-119.53868064
 21
69.40837068
 31
0.0
  0
LINE
  8
0
  6
CONTINUOUS
 62
       7
  5
5F
 10
-116.53868064
 20
68.10837068
 30
0.0
 11
-119.53868064
 21
68.10837068
 31
0.0
  0
LINE
  8
0
  6
CONTINUOUS
 62
       7
  5
60
 10
-120.23868064
 20
70.10837068
 30
0.0
 11
-122.53868064
 21
70.10837068
 31
0.0
  0
LINE
  8
0
  6
CONTINUOUS
 62
       7
  5
61
 10
-135.53868064
 20
59.1327954
 30
0.0
 11
-135.00496379
 21
58.20837068
 31
0.0
  0
ARC
  8
0
  6
CONTINUOUS
 62
       7
  5
62
 10
-132.48417839
 20
59.93337068
 30
0.0
 40
3.05450225
 50
145.61575253
 51
214.38424747
  0
ARC
  8
0
  6
CONTINUOUS
 62
       7
  5
63
 10
-124.12124693
 20
65.10837068
 30
0.0
 40
11.41743371
 50
162.41204623
 51
197.58795377
  0
ARC
  8
0
  6
CONTINUOUS
 62
       7
  5
64
 10
-132.48417839
 20
70.28337068
 30
0.0
 40
3.05450225
 50
145.61575253
 51
214.38424747
  0
LINE
  8
0
  6
CONTINUOUS
 62
       7
  5
65
 10
-135.53868064
 20
71.08394597
 30
0.0
 11
-135.00496379
 21
72.00837068
 31
0.0
  0
LINE
  8
0
  6
CONTINUOUS
 62
       7
  5
66
 10
-135.00496379
 20
61.65837068
 30
0.0
 11
-122.53868064
 21
61.65837068
 31
0.0
  0
LINE
  8
0
  6
CONTINUOUS
 62
       7
  5
67
 10
-135.00496379
 20
68.55837068
 30
0.0
 11
-122.53868064
 21
68.55837068
 31
0.0
  0
LINE
  8
0
  6
CONTINUOUS
 62
       7
  5
68
 10
-122.53868064
 20
58.20837068
 30
0.0
 11
-135.00496379
 21
58.20837068
 31
0.0
  0
LINE
  8
0
  6
CONTINUOUS
 62
       7
  5
69
 10
-122.53868064
 20
72.00837068
 30
0.0
 11
-135.00496379
 21
72.00837068
 31
0.0
  0
LINE
  8
0
  6
CONTINUOUS
 62
       7
  5
6A
 10
-122.53868064
 20
72.00837068
 30
0.0
 11
-122.53868064
 21
58.20837068
 31
0.0
  0
LINE
  8
0
  6
CONTINUOUS
 62
       7
  5
6B
 10
-135.53868064
 20
71.08394597
 30
0.0
 11
-135.53868064
 21
59.1327954
 31
0.0
  0
LINE
  8
0
  6
CENTER
 62
       2
  5
6C
 10
-95.53868064
 20
30.93313115
 30
0.0
 11
-95.53868064
 21
-16.98561797
 31
0.0
  0
ARC
  8
0
  6
CONTINUOUS
 62
       7
  5
6D
 10
-73.53868064
 20
61.10837068
 30
0.0
 40
0.5
 50
270.0
 51
0.0
  0
ARC
  8
0
  6
CONTINUOUS
 62
       7
  5
6E
 10
-73.53868064
 20
69.10837068
 30
0.0
 40
0.5
 50
0.0
 51
90.0
  0
LINE
  8
0
  6
CENTER
 62
       2
  5
6F
 10
-95.53868064
 20
134.08887551
 30
0.0
 11
-95.53868064
 21
36.29741236
 31
0.0
  0
LINE
  8
0
  6
CONTINUOUS
 62
       7
  5
70
 10
-73.03868064
 20
61.10837068
 30
0.0
 11
-73.03868064
 21
69.10837068
 31
0.0
  0
LINE
  8
0
  6
CONTINUOUS
 62
       7
  5
71
 10
-73.53868064
 20
60.60837068
 30
0.0
 11
-74.53868064
 21
60.60837068
 31
0.0
  0
LINE
  8
0
  6
CONTINUOUS
 62
       7
  5
72
 10
-73.53868064
 20
69.60837068
 30
0.0
 11
-74.53868064
 21
69.60837068
 31
0.0
  0
CIRCLE
  8
0
  6
CONTINUOUS
 62
       7
  5
73
 10
104.93257455
 20
65.10337068
 30
0.0
 40
1.4
  0
CIRCLE
  8
0
  6
CONTINUOUS
 62
       7
  5
74
 10
104.93257455
 20
65.10337068
 30
0.0
 40
4.5
  0
LINE
  8
0
  6
CENTER
 62
       2
  5
75
 10
-160.24915045
 20
65.10837068
 30
0.0
 11
-70.26282382
 21
65.10837068
 31
0.0
  0
LINE
  8
0
  6
CONTINUOUS
 62
       7
  5
76
 10
129.23257433
 20
56.50337052
 30
0.0
 11
127.71196376
 21
54.98275983
 31
0.0
  0
LINE
  8
0
  6
CONTINUOUS
 62
       7
  5
77
 10
129.23257433
 20
56.50337085
 30
0.0
 11
127.71196376
 21
58.02398154
 31
0.0
  0
LINE
  8
0
  6
CONTINUOUS
 62
       7
  5
78
 10
80.63257476
 20
56.50337052
 30
0.0
 11
82.15318533
 21
54.98275983
 31
0.0
  0
LINE
  8
0
  6
CONTINUOUS
 62
       7
  5
79
 10
80.63257476
 20
56.50337085
 30
0.0
 11
82.15318533
 21
58.02398154
 31
0.0
  0
ARC
  8
0
  6
CONTINUOUS
 62
       7
  5
7A
 10
126.63755471
 20
57.40835085
 30
0.0
 40
2.59502462
 50
-0.10995754
 51
90.10995754
  0
ARC
  8
0
  6
CONTINUOUS
 62
       7
  5
7B
 10
126.63256004
 20
55.60338519
 30
0.0
 40
2.60001451
 50
270.00031969
 51
359.99968031
  0
LINE
  8
0
  6
CONTINUOUS
 62
       7
  5
7C
 10
129.23257455
 20
55.60337068
 30
0.0
 11
129.23257455
 21
57.40337068
 31
0.0
  0
LINE
  8
0
  6
CONTINUOUS
 62
       7
  5
7D
 10
126.63257455
 20
53.00337068
 30
0.0
 11
126.63257455
 21
60.00337068
 31
0.0
  0
LINE
  8
0
  6
CENTER
 62
       2
  5
7E
 10
131.52246191
 20
56.50337068
 30
0.0
 11
123.68525064
 21
56.50337068
 31
0.0
  0
LINE
  8
0
  6
CONTINUOUS
 62
       7
  5
7F
 10
126.63257455
 20
53.00337068
 30
0.0
 11
125.93257455
 21
53.00337068
 31
0.0
  0
LINE
  8
0
  6
CONTINUOUS
 62
       7
  5
80
 10
126.63257455
 20
60.00337068
 30
0.0
 11
125.93257455
 21
60.00337068
 31
0.0
  0
LINE
  8
0
  6
CONTINUOUS
 62
       7
  5
81
 10
-94.16927939
 20
55.1339696
 30
0.0
 11
-96.95357016
 21
57.91826033
 31
0.0
  0
LINE
  8
0
  6
CONTINUOUS
 62
       7
  5
82
 10
-94.16927939
 20
57.87277177
 30
0.0
 11
-96.95357016
 21
55.08848104
 31
0.0
  0
CIRCLE
  8
0
  6
CONTINUOUS
 62
       7
  5
83
 10
-95.53868064
 20
56.50337068
 30
0.0
 40
3.5
  0
LINE
  8
0
  6
CENTER
 62
       2
  5
84
 10
-101.22387289
 20
56.50337068
 30
0.0
 11
-90.16299147
 21
56.50337068
 31
0.0
  0
LINE
  8
0
  6
CENTER
 62
       2
  5
85
 10
97.51293109
 20
65.10337068
 30
0.0
 11
112.44585583
 21
65.10337068
 31
0.0
  0
LINE
  8
0
  6
CONTINUOUS
 62
       7
  5
86
 10
125.93257455
 20
50.30837068
 30
0.0
 11
125.93257455
 21
75.63481038
 31
0.0
  0
LINE
  8
0
  6
CONTINUOUS
 62
       7
  5
87
 10
83.93257455
 20
50.30837068
 30
0.0
 11
83.93257455
 21
75.63481038
 31
0.0
  0
LINE
  8
0
  6
CONTINUOUS
 62
       7
  5
88
 10
-128.02201398
 20
50.30837068
 30
0.0
 11
-63.03868064
 21
50.30837068
 31
0.0
  0
LINE
  8
0
  6
CONTINUOUS
 62
       7
  5
89
 10
-129.02201398
 20
49.30837068
 30
0.0
 11
-129.02201398
 21
39.20837068
 31
0.0
  0
LINE
  8
0
  6
CONTINUOUS
 62
       7
  5
8A
 10
-129.02201398
 20
49.30837068
 30
0.0
 11
-128.02201398
 21
50.30837068
 31
0.0
  0
LINE
  8
0
  6
CONTINUOUS
 62
       7
  5
8B
 10
-129.02201398
 20
49.30837068
 30
0.0
 11
-62.03868064
 21
49.30837068
 31
0.0
  0
LINE
  8
0
  6
CONTINUOUS
 62
       7
  5
8C
 10
-131.02201398
 20
-8.69162932
 30
0.0
 11
-60.03868064
 21
-8.69162932
 31
0.0
  0
LINE
  8
0
  6
CONTINUOUS
 62
       7
  5
8D
 10
-77.10534731
 20
2.80837068
 30
0.0
 11
-60.53868064
 21
2.80837068
 31
0.0
  0
LINE
  8
0
  6
CENTER
 62
       2
  5
8E
 10
-140.6193763
 20
20.80837068
 30
0.0
 11
-52.98922129
 21
20.80837068
 31
0.0
  0
LINE
  8
0
  6
CONTINUOUS
 62
       7
  5
8F
 10
-59.03868064
 20
35.30837068
 30
0.0
 11
-59.03868064
 21
-7.69162932
 31
0.0
  0
LINE
  8
0
  6
CONTINUOUS
 62
       7
  5
90
 10
-132.02201398
 20
-7.69162932
 30
0.0
 11
-59.03868064
 21
-7.69162932
 31
0.0
  0
LINE
  8
0
  6
CONTINUOUS
 62
       7
  5
91
 10
-124.97201398
 20
34.30837068
 30
0.0
 11
-112.07201398
 21
34.30837068
 31
0.0
  0
LINE
  8
0
  6
CONTINUOUS
 62
       7
  5
92
 10
-124.97201398
 20
7.30837068
 30
0.0
 11
-113.57201398
 21
7.30837068
 31
0.0
  0
LINE
  8
0
  6
CONTINUOUS
 62
       7
  5
93
 10
-66.83868064
 20
7.30837068
 30
0.0
 11
-78.57201398
 21
7.30837068
 31
0.0
  0
LINE
  8
0
  6
CONTINUOUS
 62
       7
  5
94
 10
-66.83868064
 20
34.30837068
 30
0.0
 11
-81.87201398
 21
34.30837068
 31
0.0
  0
LINE
  8
0
  6
CONTINUOUS
 62
       7
  5
95
 10
-120.14835059
 20
29.47503735
 30
0.0
 11
-114.08868064
 21
29.47503735
 31
0.0
  0
LINE
  8
0
  6
CONTINUOUS
 62
       7
  5
96
 10
-120.14022475
 20
12.14170402
 30
0.0
 11
-113.40534731
 21
12.14170402
 31
0.0
  0
LINE
  8
0
  6
CONTINUOUS
 62
       7
  5
97
 10
-70.94830994
 20
12.14170402
 30
0.0
 11
-76.07201398
 21
12.14170402
 31
0.0
  0
LINE
  8
0
  6
CONTINUOUS
 62
       7
  5
98
 10
-70.93831203
 20
29.47503735
 30
0.0
 11
-76.23868064
 21
29.47503735
 31
0.0
  0
LINE
  8
0
  6
DASHED
 62
       2
  5
9A
 10
-65.43868064
 20
30.10837068
 30
0.0
 11
-59.03868064
 21
30.10837068
 31
0.0
  0
LINE
  8
0
  6
DASHED
 62
       2
  5
9B
 10
-64.88868064
 20
31.12503735
 30
0.0
 11
-59.03868064
 21
31.42503735
 31
0.0
  0
LINE
  8
0
  6
DASHED
 62
       2
  5
9C
 10
-65.63868064
 20
11.50837068
 30
0.0
 11
-59.03868064
 21
11.50837068
 31
0.0
  0
LINE
  8
0
  6
DASHED
 62
       2
  5
9D
 10
-65.83868064
 20
10.54170402
 30
0.0
 11
-59.03868064
 21
10.19170402
 31
0.0
  0
LINE
  8
0
  6
CONTINUOUS
 62
       7
  5
9E
 10
-62.03868064
 20
49.30837068
 30
0.0
 11
-62.03868064
 21
38.30837068
 31
0.0
  0
LINE
  8
0
  6
CONTINUOUS
 62
       7
  5
9F
 10
-62.03868064
 20
49.30837068
 30
0.0
 11
-63.03868064
 21
50.30837068
 31
0.0
  0
LINE
  8
0
  6
CONTINUOUS
 62
       7
  5
A0
 10
-59.03868064
 20
-7.69162932
 30
0.0
 11
-60.03868064
 21
-8.69162932
 31
0.0
  0
LINE
  8
0
  6
CONTINUOUS
 62
       7
  5
A1
 10
-75.03868064
 20
1.30837068
 30
0.0
 11
-75.03868064
 21
-7.69162932
 31
0.0
  0
LINE
  8
0
  6
CONTINUOUS
 62
       7
  5
A2
 10
-132.02201398
 20
35.30837068
 30
0.0
 11
-132.02201398
 21
-7.69162932
 31
0.0
  0
LINE
  8
0
  6
DASHED
 62
       2
  5
A3
 10
-126.17201398
 20
31.12503735
 30
0.0
 11
-132.02201398
 21
31.42503735
 31
0.0
  0
LINE
  8
0
  6
DASHED
 62
       2
  5
A4
 10
-125.62201398
 20
30.10837068
 30
0.0
 11
-132.02201398
 21
30.10837068
 31
0.0
  0
LINE
  8
0
  6
DASHED
 62
       2
  5
A5
 10
-125.42201398
 20
11.50837068
 30
0.0
 11
-132.02201398
 21
11.50837068
 31
0.0
  0
LINE
  8
0
  6
CONTINUOUS
 62
       7
  5
A6
 10
-113.95534731
 20
2.80837068
 30
0.0
 11
-130.52201398
 21
2.80837068
 31
0.0
  0
LINE
  8
0
  6
CONTINUOUS
 62
       7
  5
A7
 10
-116.02201398
 20
1.30837068
 30
0.0
 11
-116.02201398
 21
-7.69162932
 31
0.0
  0
LINE
  8
0
  6
DASHED
 62
       2
  5
A8
 10
-125.22201398
 20
10.54170402
 30
0.0
 11
-132.02201398
 21
10.19170402
 31
0.0
  0
LINE
  8
0
  6
CONTINUOUS
 62
       7
  5
A9
 10
-132.02201398
 20
-7.69162932
 30
0.0
 11
-131.02201398
 21
-8.69162932
 31
0.0
  0
ARC
  8
0
  6
CONTINUOUS
 62
       7
  5
AA
 10
-124.03054059
 20
20.81175266
 30
0.0
 40
9.50285751
 50
-75.62825989
 51
65.64512445
  0
CIRCLE
  8
0
  6
CONTINUOUS
 62
       7
  5
AB
 10
-95.53034636
 20
20.81669893
 30
0.0
 40
16.00000064
  0
ARC
  8
0
  6
CONTINUOUS
 62
       7
  5
AC
 10
-60.53035748
 20
35.31669384
 30
0.0
 40
1.49170006
 50
-0.31969192
 51
90.31969192
  0
ARC
  8
0
  6
CONTINUOUS
 62
       7
  5
AD
 10
-77.0873128
 20
8.80939596
 30
0.0
 40
6.00105237
 50
147.03148298
 51
269.82781309
  0
ARC
  8
0
  6
CONTINUOUS
 62
       7
  5
AE
 10
-113.97338034
 20
8.80939516
 30
0.0
 40
6.00105157
 50
-89.82782715
 51
32.96853108
  0
CIRCLE
  8
0
  6
CONTINUOUS
 62
       2
  5
AF
 10
-95.53034636
 20
20.81669893
 30
0.0
 40
10.50000032
  0
CIRCLE
  8
0
  6
CONTINUOUS
 62
       7
  5
B0
 10
-95.53034636
 20
20.81669893
 30
0.0
 40
9.29999987
  0
ARC
  8
0
  6
CONTINUOUS
 62
       7
  5
B1
 10
-119.32528681
 20
34.31017302
 30
0.0
 40
4.90468867
 50
180.02105466
 51
260.77360054
  0
ARC
  8
0
  6
CONTINUOUS
 62
       7
  5
B2
 10
-124.12725594
 20
39.21301729
 30
0.0
 40
4.89476025
 50
180.05439106
 51
260.06189884
  0
ARC
  8
0
  6
CONTINUOUS
 62
       7
  5
B3
 10
-119.33763244
 20
7.30649585
 30
0.0
 40
4.89250044
 50
117.61372845
 51
179.97804392
  0
ARC
  8
0
  6
CONTINUOUS
 62
       7
  5
B4
 10
-124.12640433
 20
2.42101153
 30
0.0
 40
4.89429584
 50
99.9491753
 51
175.46057668
  0
ARC
  8
0
  6
CONTINUOUS
 62
       7
  5
B5
 10
-66.94449116
 20
39.20955028
 30
0.0
 40
4.90232162
 50
271.23675417
 51
322.49751601
  0
ARC
  8
0
  6
CONTINUOUS
 62
       7
  5
B6
 10
-71.73515432
 20
34.31186033
 30
0.0
 40
4.90469711
 50
279.54301901
 51
359.95923458
  0
ARC
  8
0
  6
CONTINUOUS
 62
       7
  5
B7
 10
-67.03075689
 20
20.80611391
 30
0.0
 40
9.50890219
 50
114.26367893
 51
245.57313805
  0
ARC
  8
0
  6
CONTINUOUS
 62
       7
  5
B8
 10
-71.72682546
 20
7.31310791
 30
0.0
 40
4.89520805
 50
-0.05544671
 51
81.02298587
  0
ARC
  8
0
  6
CONTINUOUS
 62
       7
  5
B9
 10
-66.93777895
 20
2.4204404
 30
0.0
 40
4.88893474
 50
37.42719014
 51
88.83853968
  0
ARC
  8
0
  6
CONTINUOUS
 62
       7
  5
BA
 10
-60.53035494
 20
38.31669639
 30
0.0
 40
1.50834868
 50
180.31625984
 51
269.68374016
  0
ARC
  8
0
  6
CONTINUOUS
 62
       7
  5
BB
 10
-73.53865638
 20
1.30834642
 30
0.0
 40
1.50002427
 50
90.00092693
 51
179.99907307
  0
ARC
  8
0
  6
CONTINUOUS
 62
       7
  5
BC
 10
-60.5303524
 20
1.31669893
 30
0.0
 40
1.491695
 50
-0.31988837
 51
90.31988837
  0
ARC
  8
0
  6
CONTINUOUS
 62
       7
  5
BD
 10
-130.5303346
 20
35.3166913
 30
0.0
 40
1.49170259
 50
89.6804063
 51
180.3195937
  0
ARC
  8
0
  6
CONTINUOUS
 62
       7
  5
BE
 10
-130.53033714
 20
38.31669384
 30
0.0
 40
1.50834612
 50
270.31616378
 51
359.68383622
  0
ARC
  8
0
  6
CONTINUOUS
 62
       7
  5
BF
 10
-130.53033968
 20
1.31669639
 30
0.0
 40
1.49169753
 50
89.68020985
 51
180.31979015
  0
ARC
  8
0
  6
CONTINUOUS
 62
       7
  5
C0
 10
-117.52203649
 20
1.30834817
 30
0.0
 40
1.50002251
 50
0.00085977
 51
89.99914023
  0
LINE
  8
0
  6
CENTER
 62
       2
  5
C1
 10
-139.03868064
 20
-109.4945091
 30
0.0
 11
-48.41835928
 21
-109.4945091
 31
0.0
  0
LINE
  8
0
  6
CENTER
 62
       2
  5
C2
 10
-67.55534731
 20
-85.2445091
 30
0.0
 11
-67.55534731
 21
-72.2945091
 31
0.0
  0
LINE
  8
0
  6
CENTER
 62
       2
  5
C3
 10
-123.53868064
 20
-85.85818492
 30
0.0
 11
-123.53868064
 21
-72.2945091
 31
0.0
  0
LINE
  8
0
  6
CENTER
 62
       2
  5
C4
 10
-116.78868064
 20
-78.4945091
 30
0.0
 11
-130.02201398
 21
-78.4945091
 31
0.0
  0
LINE
  8
0
  6
CONTINUOUS
 62
       7
  5
C5
 10
-59.05534731
 20
-109.4945091
 30
0.0
 11
-59.55534731
 21
-78.4945091
 31
0.0
  0
LINE
  8
0
  6
CONTINUOUS
 62
       7
  5
C6
 10
-81.05534731
 20
-72.9945091
 30
0.0
 11
-110.03868064
 21
-72.9945091
 31
0.0
  0
LINE
  8
0
  6
CONTINUOUS
 62
       7
  5
C7
 10
-132.03868064
 20
-109.4945091
 30
0.0
 11
-131.53868064
 21
-78.4945091
 31
0.0
  0
LINE
  8
0
  6
CENTER
 62
       2
  5
C8
 10
-67.55534731
 20
-132.74180651
 30
0.0
 11
-67.55534731
 21
-147.30921751
 31
0.0
  0
LINE
  8
0
  6
CONTINUOUS
 62
       7
  5
C9
 10
-59.05534731
 20
-109.4945091
 30
0.0
 11
-59.55534731
 21
-140.4945091
 31
0.0
  0
LINE
  8
0
  6
CENTER
 62
       2
  5
CA
 10
-123.53868064
 20
-132.239482
 30
0.0
 11
-123.53868064
 21
-147.47665901
 31
0.0
  0
LINE
  8
0
  6
CENTER
 62
       2
  5
CB
 10
-116.78868064
 20
-140.4945091
 30
0.0
 11
-130.05790523
 21
-140.4945091
 31
0.0
  0
LINE
  8
0
  6
CONTINUOUS
 62
       7
  5
CC
 10
-132.03868064
 20
-109.4945091
 30
0.0
 11
-131.53868064
 21
-140.4945091
 31
0.0
  0
LINE
  8
0
  6
CONTINUOUS
 62
       7
  5
CD
 10
-111.53868064
 20
-76.72784244
 30
0.0
 11
-111.53868064
 21
-74.4945091
 31
0.0
  0
LINE
  8
0
  6
CONTINUOUS
 62
       7
  5
CE
 10
-79.55534731
 20
-76.72784244
 30
0.0
 11
-79.55534731
 21
-74.4945091
 31
0.0
  0
LINE
  8
0
  6
CONTINUOUS
 62
       7
  5
CF
 10
-97.53868064
 20
-142.92784244
 30
0.0
 11
-97.53868064
 21
-138.11117577
 31
0.0
  0
LINE
  8
0
  6
CONTINUOUS
 62
       7
  5
D0
 10
-93.53868064
 20
-142.92784244
 30
0.0
 11
-93.53868064
 21
-138.11117577
 31
0.0
  0
LINE
  8
0
  6
CONTINUOUS
 62
       7
  5
D1
 10
-97.53868064
 20
-80.86117577
 30
0.0
 11
-97.53868064
 21
-76.06117577
 31
0.0
  0
LINE
  8
0
  6
CONTINUOUS
 62
       7
  5
D2
 10
-93.53868064
 20
-80.86117577
 30
0.0
 11
-93.53868064
 21
-76.06117577
 31
0.0
  0
LINE
  8
0
  6
CONTINUOUS
 62
       7
  5
D3
 10
-95.53868064
 20
-142.92784244
 30
0.0
 11
-95.53868064
 21
-138.11117577
 31
0.0
  0
LINE
  8
0
  6
CONTINUOUS
 62
       7
  5
D4
 10
-95.53868064
 20
-80.86117577
 30
0.0
 11
-95.53868064
 21
-76.06117577
 31
0.0
  0
LINE
  8
0
  6
CENTER
 62
       2
  5
D5
 10
-95.53868064
 20
-69.8445091
 30
0.0
 11
-95.53868064
 21
-149.99027495
 31
0.0
  0
ARC
  8
0
  6
CONTINUOUS
 62
       7
  5
D6
 10
-67.55550896
 20
-78.49130881
 30
0.0
 40
8.00016228
 50
359.97708002
 51
135.60622018
  0
ARC
  8
0
  6
CONTINUOUS
 62
       7
  5
D7
 10
-95.54701398
 20
-109.49477969
 30
0.0
 40
33.50077791
 50
76.19892522
 51
103.80107478
  0
ARC
  8
0
  6
CONTINUOUS
 62
       7
  5
D8
 10
-83.98107538
 20
-62.39809944
 30
0.0
 40
14.99528633
 50
256.21025136
 51
315.57455167
  0
ARC
  8
0
  6
CONTINUOUS
 62
       7
  5
D9
 10
-81.05131797
 20
-74.49047976
 30
0.0
 40
1.49597608
 50
359.84567629
 51
90.15432371
  0
ARC
  8
0
  6
CONTINUOUS
 62
       7
  5
DA
 10
-110.04270856
 20
-74.49048119
 30
0.0
 40
1.49597751
 50
89.84573107
 51
180.15426893
  0
CIRCLE
  8
0
  6
CONTINUOUS
 62
       7
  5
DB
 10
-67.54701143
 20
-78.49477588
 30
0.0
 40
4.49999968
  0
ARC
  8
0
  6
CONTINUOUS
 62
       7
  5
DC
 10
-123.53851791
 20
-78.49131147
 30
0.0
 40
8.00016337
 50
44.39379892
 51
180.02290087
  0
CIRCLE
  8
0
  6
CONTINUOUS
 62
       7
  5
DD
 10
-123.54700889
 20
-78.49477588
 30
0.0
 40
4.49999968
  0
ARC
  8
0
  6
CONTINUOUS
 62
       7
  5
DE
 10
-67.55531066
 20
-140.49815944
 30
0.0
 40
7.99998915
 50
224.39048319
 51
0.14551014
  0
ARC
  8
0
  6
CONTINUOUS
 62
       7
  5
DF
 10
-83.99693585
 20
-156.58692291
 30
0.0
 40
15.00382273
 50
44.37215499
 51
103.71939385
  0
CIRCLE
  8
0
  6
CONTINUOUS
 62
       7
  5
E0
 10
-67.54701461
 20
-140.49476444
 30
0.0
 40
4.49999968
  0
ARC
  8
0
  6
CONTINUOUS
 62
       7
  5
E1
 10
-123.53870065
 20
-140.49815433
 30
0.0
 40
7.99998083
 50
179.97389295
 51
315.60940725
  0
ARC
  8
0
  6
CONTINUOUS
 62
       7
  5
E2
 10
-107.09709284
 20
-156.58692031
 30
0.0
 40
15.00382039
 50
76.28060106
 51
135.6278501
  0
CIRCLE
  8
0
  6
CONTINUOUS
 62
       7
  5
E3
 10
-123.54700889
 20
-140.49476444
 30
0.0
 40
4.49999968
  0
ARC
  8
0
  6
CONTINUOUS
 62
       7
  5
E4
 10
-107.112952
 20
-62.39809743
 30
0.0
 40
14.99528814
 50
224.42545228
 51
283.78974469
  0
ARC
  8
0
  6
CONTINUOUS
 62
       7
  5
E5
 10
-95.54701398
 20
-109.49477969
 30
0.0
 40
33.48406711
 50
256.19190108
 51
283.80809892
  0
CIRCLE
  8
0
  6
CONTINUOUS
 62
       7
  5
E6
 10
-95.54701493
 20
-109.49477969
 30
0.0
 40
28.70000203
  0
CIRCLE
  8
0
  6
CONTINUOUS
 62
       7
  5
E7
 10
-95.54701493
 20
-109.49477969
 30
0.0
 40
21.00000064
  0
CIRCLE
  8
0
  6
CONTINUOUS
 62
       7
  5
E8
 10
-95.54701493
 20
-109.49477969
 30
0.0
 40
20.0
  0
CIRCLE
  8
0
  6
CONTINUOUS
 62
       7
  5
E9
 10
-104.54701747
 20
-135.05665917
 30
0.0
 40
1.25
  0
ARC
  8
0
  6
CONTINUOUS
 62
       7
  5
EA
 10
-104.54241864
 20
-135.05909024
 30
0.0
 40
3.39857377
 50
315.81445646
 51
168.43666154
  0
ARC
  8
0
  6
CONTINUOUS
 62
       7
  5
EB
 10
-95.54701398
 20
-110.75146813
 30
0.0
 40
26.64791151
 50
297.54937273
 51
242.45062727
  0
ARC
  8
0
  6
CONTINUOUS
 62
       7
  5
EC
 10
-86.55161077
 20
-135.05908748
 30
0.0
 40
3.39857465
 50
11.563288
 51
224.18559399
  0
CIRCLE
  8
0
  6
CONTINUOUS
 62
       7
  5
ED
 10
-86.54701716
 20
-135.05665917
 30
0.0
 40
1.25
  0
LINE
  8
0
  6
CONTINUOUS
 62
       7
  5
EE
 10
138.43257455
 20
49.30837068
 30
0.0
 11
137.43257455
 21
50.30837068
 31
0.0
  0
LINE
  8
0
  6
CONTINUOUS
 62
       7
  5
EF
 10
139.43257455
 20
47.80837068
 30
0.0
 11
139.43257455
 21
42.80837068
 31
0.0
  0
LINE
  8
0
  6
CONTINUOUS
 62
       7
  5
F0
 10
139.43257455
 20
47.80837068
 30
0.0
 11
138.43257455
 21
47.80837068
 31
0.0
  0
LINE
  8
0
  6
CONTINUOUS
 62
       7
  5
F1
 10
139.43257455
 20
42.80837068
 30
0.0
 11
138.43257455
 21
42.80837068
 31
0.0
  0
LINE
  8
0
  6
CONTINUOUS
 62
       7
  5
F2
 10
143.93257455
 20
1.30837068
 30
0.0
 11
143.93257455
 21
-7.69162932
 31
0.0
  0
LINE
  8
0
  6
CONTINUOUS
 62
       7
  5
F3
 10
142.93257455
 20
-8.69162932
 30
0.0
 11
143.93257455
 21
-7.69162932
 31
0.0
  0
LINE
  8
0
  6
PHANTOM
 62
       2
  5
F4
 10
138.43257455
 20
-7.69162932
 30
0.0
 11
138.43257455
 21
2.40837068
 31
0.0
  0
LINE
  8
0
  6
PHANTOM
 62
       7
  5
F5
 10
138.43257455
 20
-7.69162932
 30
0.0
 11
137.43257455
 21
-8.69162932
 31
0.0
  0
LINE
  8
0
  6
CONTINUOUS
 62
       7
  5
F6
 10
123.36590788
 20
2.80837068
 30
0.0
 11
142.43257455
 21
2.80837068
 31
0.0
  0
LINE
  8
0
  6
CONTINUOUS
 62
       7
  5
F7
 10
133.23257455
 20
34.30837068
 30
0.0
 11
117.29924121
 21
34.30837068
 31
0.0
  0
LINE
  8
0
  6
CONTINUOUS
 62
       7
  5
F8
 10
133.23257455
 20
7.30837068
 30
0.0
 11
121.89924121
 21
7.30837068
 31
0.0
  0
LINE
  8
0
  6
CONTINUOUS
 62
       7
  5
F9
 10
128.39924121
 20
29.47503735
 30
0.0
 11
126.54924121
 21
29.47503735
 31
0.0
  0
LINE
  8
0
  6
CONTINUOUS
 62
       7
  5
FA
 10
128.39924121
 20
12.14170402
 30
0.0
 11
126.54924121
 21
12.14170402
 31
0.0
  0
LINE
  8
0
  6
CONTINUOUS
 62
       7
  5
FB
 10
82.98257455
 20
12.14170402
 30
0.0
 11
85.46590788
 21
12.14170402
 31
0.0
  0
LINE
  8
0
  6
CONTINUOUS
 62
       7
  5
FC
 10
82.98257455
 20
29.47503735
 30
0.0
 11
85.63257455
 21
29.47503735
 31
0.0
  0
ARC
  8
0
  6
CONTINUOUS
 62
       7
  5
FD
 10
133.44090429
 20
20.80837068
 30
0.0
 40
9.50032382
 50
114.18189445
 51
245.81810555
  0
ARC
  8
0
  6
CONTINUOUS
 62
       7
  5
FE
 10
104.943271
 20
20.79968763
 30
0.0
 40
15.99498546
 50
326.94378696
 51
49.02064847
  0
ARC
  8
0
  6
CONTINUOUS
 62
       7
  5
FF
 10
142.44091297
 20
1.3167091
 30
0.0
 40
1.49168489
 50
359.67971872
 51
90.32028128
  0
ARC
  8
0
  6
CONTINUOUS
 62
       7
  5
100
 10
86.4940866
 20
8.80242321
 30
0.0
 40
5.99405474
 50
270.04927177
 51
33.09143215
  0
ARC
  8
0
  6
CONTINUOUS
 62
       7
  5
101
 10
123.38392125
 20
8.80938452
 30
0.0
 40
6.00104087
 50
147.03128152
 51
269.82801455
  0
ARC
  8
0
  6
CONTINUOUS
 62
       7
  5
102
 10
128.73611115
 20
34.31185017
 30
0.0
 40
4.90468539
 50
279.54292019
 51
351.16297371
  0
ARC
  8
0
  6
CONTINUOUS
 62
       7
  5
103
 10
133.53781278
 20
39.21302042
 30
0.0
 40
4.89476397
 50
279.93813775
 51
359.94557234
  0
ARC
  8
0
  6
CONTINUOUS
 62
       7
  5
104
 10
134.57214998
 20
33.40904494
 30
0.0
 40
1.00077855
 50
100.91940202
 51
171.41887664
  0
ARC
  8
0
  6
CONTINUOUS
 62
       7
  5
105
 10
128.74444003
 20
7.31311809
 30
0.0
 40
4.89519632
 50
8.75685384
 51
80.53725227
  0
ARC
  8
0
  6
CONTINUOUS
 62
       7
  5
106
 10
133.53696142
 20
2.42100837
 30
0.0
 40
4.89429955
 50
4.53945701
 51
80.05079102
  0
ARC
  8
0
  6
CONTINUOUS
 62
       7
  5
107
 10
134.57055297
 20
8.22601621
 30
0.0
 40
1.00210099
 50
189.63052632
 51
259.18815925
  0
ARC
  8
0
  6
CONTINUOUS
 62
       7
  5
108
 10
130.43407508
 20
20.81099379
 30
0.0
 40
9.49513481
 50
114.15078541
 51
145.60288352
  0
ARC
  8
0
  6
CONTINUOUS
 62
       7
  5
109
 10
130.44226804
 20
20.81555431
 30
0.0
 40
9.50743586
 50
214.41798915
 51
245.82834192
  0
ARC
  8
0
  6
CONTINUOUS
 62
       7
  5
10A
 10
104.93850834
 20
20.7979216
 30
0.0
 40
16.00796404
 50
49.01191983
 51
326.9583921
  0
CIRCLE
  8
0
  6
CONTINUOUS
 62
       2
  5
10B
 10
104.92424026
 20
20.81669893
 30
0.0
 40
10.50000032
  0
CIRCLE
  8
0
  6
CONTINUOUS
 62
       7
  5
10C
 10
104.92424026
 20
20.81669893
 30
0.0
 40
9.29999987
  0
LINE
  8
0
  6
CONTINUOUS
 62
       7
  5
10D
 10
138.43257455
 20
49.30837068
 30
0.0
 11
138.43257455
 21
39.20837068
 31
0.0
  0
LINE
  8
0
  6
CONTINUOUS
 62
       7
  5
10E
 10
71.43257455
 20
49.30837068
 30
0.0
 11
71.43257455
 21
38.30837068
 31
0.0
  0
LINE
  8
0
  6
CONTINUOUS
 62
       7
  5
10F
 10
72.43257455
 20
50.30837068
 30
0.0
 11
71.43257455
 21
49.30837068
 31
0.0
  0
LINE
  8
0
  6
CONTINUOUS
 62
       7
  5
110
 10
68.43257455
 20
35.30837068
 30
0.0
 11
68.43257455
 21
6.30837068
 31
0.0
  0
LINE
  8
0
  6
PHANTOM
 62
       2
  5
111
 10
71.43257455
 20
3.30837068
 30
0.0
 11
71.43257455
 21
-7.69162932
 31
0.0
  0
LINE
  8
0
  6
CONTINUOUS
 62
       7
  5
112
 10
65.93257455
 20
1.30837068
 30
0.0
 11
65.93257455
 21
-7.69162932
 31
0.0
  0
LINE
  8
0
  6
CONTINUOUS
 62
       7
  5
113
 10
66.93257455
 20
-8.69162932
 30
0.0
 11
65.93257455
 21
-7.69162932
 31
0.0
  0
LINE
  8
0
  6
PHANTOM
 62
       7
  5
114
 10
72.43257455
 20
-8.69162932
 30
0.0
 11
71.43257455
 21
-7.69162932
 31
0.0
  0
LINE
  8
0
  6
DASHED
 62
       2
  5
115
 10
74.83257455
 20
30.10837068
 30
0.0
 11
68.43257455
 21
30.10837068
 31
0.0
  0
LINE
  8
0
  6
DASHED
 62
       2
  5
116
 10
74.28257455
 20
31.12503735
 30
0.0
 11
68.43257455
 21
31.42503735
 31
0.0
  0
LINE
  8
0
  6
DASHED
 62
       2
  5
117
 10
75.03257455
 20
11.50837068
 30
0.0
 11
68.43257455
 21
11.50837068
 31
0.0
  0
LINE
  8
0
  6
DASHED
 62
       2
  5
118
 10
75.23257455
 20
10.54170402
 30
0.0
 11
68.43257455
 21
10.19170402
 31
0.0
  0
ARC
  8
0
  6
CONTINUOUS
 62
       7
  5
119
 10
69.93260787
 20
35.30833736
 30
0.0
 40
1.50003332
 50
90.00127274
 51
179.99872726
  0
ARC
  8
0
  6
CONTINUOUS
 62
       7
  5
11A
 10
69.94090025
 20
6.31669639
 30
0.0
 40
1.50834868
 50
180.31625985
 51
269.68374015
  0
ARC
  8
0
  6
CONTINUOUS
 62
       7
  5
11B
 10
69.93255901
 20
38.30838622
 30
0.0
 40
1.50001553
 50
270.00059332
 51
359.99940668
  0
ARC
  8
0
  6
CONTINUOUS
 62
       7
  5
11C
 10
69.94091042
 20
3.31670656
 30
0.0
 40
1.49168742
 50
359.67981695
 51
90.32018305
  0
ARC
  8
0
  6
CONTINUOUS
 62
       7
  5
11D
 10
67.43260281
 20
1.30834242
 30
0.0
 40
1.50002826
 50
90.00107955
 51
179.99892045
  0
ARC
  8
0
  6
CONTINUOUS
 62
       7
  5
11E
 10
76.34177858
 20
39.21624879
 30
0.0
 40
4.9090929
 50
217.54039434
 51
268.72533549
  0
ARC
  8
0
  6
CONTINUOUS
 62
       7
  5
11F
 10
81.14737043
 20
34.31013589
 30
0.0
 40
4.90606847
 50
188.81425496
 51
260.24262594
  0
ARC
  8
0
  6
CONTINUOUS
 62
       7
  5
120
 10
81.13903871
 20
7.31480118
 30
0.0
 40
4.89658405
 50
99.67754599
 51
171.26557312
  0
ARC
  8
0
  6
CONTINUOUS
 62
       7
  5
121
 10
76.33507566
 20
2.41372356
 30
0.0
 40
4.89572027
 50
91.19968258
 51
142.5345876
  0
ARC
  8
0
  6
CONTINUOUS
 62
       7
  5
122
 10
76.44129253
 20
20.80676229
 30
0.0
 40
9.50093901
 50
300.75129293
 51
63.71105629
  0
LINE
  8
0
  6
CONTINUOUS
 62
       7
  5
123
 10
76.63257455
 20
34.30837068
 30
0.0
 11
91.26590788
 21
34.30837068
 31
0.0
  0
LINE
  8
0
  6
CONTINUOUS
 62
       7
  5
124
 10
76.83257455
 20
7.30837068
 30
0.0
 11
87.96590788
 21
7.30837068
 31
0.0
  0
LINE
  8
0
  6
CONTINUOUS
 62
       7
  5
125
 10
143.93257455
 20
-7.69162932
 30
0.0
 11
65.93257455
 21
-7.69162932
 31
0.0
  0
LINE
  8
0
  6
CENTER
 62
       2
  5
126
 10
128.58257455
 20
20.80837068
 30
0.0
 11
58.35173258
 21
20.80837068
 31
0.0
  0
LINE
  8
0
  6
CONTINUOUS
 62
       7
  5
127
 10
86.49924121
 20
2.80837068
 30
0.0
 11
67.43257455
 21
2.80837068
 31
0.0
  0
LINE
  8
0
  6
CONTINUOUS
 62
       7
  5
128
 10
142.93257455
 20
-8.69162932
 30
0.0
 11
66.93257455
 21
-8.69162932
 31
0.0
  0
LINE
  8
0
  6
CONTINUOUS
 62
       7
  5
129
 10
71.43257455
 20
49.30837068
 30
0.0
 11
138.43257455
 21
49.30837068
 31
0.0
  0
LINE
  8
0
  6
CONTINUOUS
 62
       7
  5
12A
 10
137.43257455
 20
50.30837068
 30
0.0
 11
72.43257455
 21
50.30837068
 31
0.0
  0
LINE
  8
0
  6
CONTINUOUS
 62
       7
  5
12B
 10
-74.53868064
 20
70.50160092
 30
0.0
 11
-74.53868064
 21
50.30837068
 31
0.0
  0
LINE
  8
0
  6
CENTER
 62
       2
  5
12C
 10
78.34268718
 20
56.50337068
 30
0.0
 11
86.17989845
 21
56.50337068
 31
0.0
  0
LINE
  8
0
  6
CONTINUOUS
 62
       7
  5
12D
 10
83.23257455
 20
53.00337068
 30
0.0
 11
83.93257455
 21
53.00337068
 31
0.0
  0
LINE
  8
0
  6
CONTINUOUS
 62
       7
  5
12E
 10
83.23257455
 20
53.00337068
 30
0.0
 11
83.23257455
 21
56.50337068
 31
0.0
  0
LINE
  8
0
  6
CONTINUOUS
 62
       7
  5
12F
 10
83.23257455
 20
60.00337068
 30
0.0
 11
83.93257455
 21
60.00337068
 31
0.0
  0
LINE
  8
0
  6
CONTINUOUS
 62
       7
  5
130
 10
83.23257455
 20
60.00337068
 30
0.0
 11
83.23257455
 21
56.50337068
 31
0.0
  0
LINE
  8
0
  6
CONTINUOUS
 62
       7
  5
131
 10
80.63257455
 20
55.60337068
 30
0.0
 11
80.63257455
 21
57.40337068
 31
0.0
  0
ARC
  8
0
  6
CONTINUOUS
 62
       7
  5
132
 10
83.23258905
 20
55.60338519
 30
0.0
 40
2.60001451
 50
180.00031969
 51
269.99968031
  0
ARC
  8
0
  6
CONTINUOUS
 62
       7
  5
133
 10
83.22759438
 20
57.40835085
 30
0.0
 40
2.59502462
 50
89.89004246
 51
180.10995754
  0
LINE
  8
0
  6
CONTINUOUS
 62
       7
  5
134
 10
-116.53868064
 20
50.30837068
 30
0.0
 11
-116.53868064
 21
118.51335542
 31
0.0
  0
ARC
  8
0
  6
CONTINUOUS
 62
       7
  5
135
 10
-109.54367302
 20
118.50836305
 30
0.0
 40
6.99500941
 50
89.95910773
 51
180.04089227
  0
ARC
  8
0
  6
CONTINUOUS
 62
       7
  5
136
 10
-81.53485537
 20
118.50196826
 30
0.0
 40
7.00140347
 50
356.48538769
 51
90.03130399
  0
LINE
  8
0
  6
CONTINUOUS
 62
       7
  5
137
 10
-81.53868064
 20
125.50337068
 30
0.0
 11
-109.53868064
 21
125.50337068
 31
0.0
  0
LINE
  8
0
  6
CENTER
 62
       2
  5
138
 10
-60.79727821
 20
-78.50311176
 30
0.0
 11
-73.74727821
 21
-78.50311176
 31
0.0
  0
LINE
  8
0
  6
CENTER
 62
       2
  5
139
 10
-75.29997254
 20
-140.50309713
 30
0.0
 11
-60.73256154
 21
-140.50309713
 31
0.0
  0
LINE
  8
0
  6
CONTINUOUS
 62
       7
  5
13A
 10
282.09985352
 20
195.5
 30
0.0
 11
282.09985352
 21
-195.0
 31
0.0
  0
LINE
  8
0
  6
CONTINUOUS
 62
       7
  5
13B
 10
-281.25
 20
195.5
 30
0.0
 11
282.09985352
 21
195.5
 31
0.0
  0
LINE
  8
0
  6
CONTINUOUS
 62
       7
  5
13C
 10
-281.25
 20
195.5
 30
0.0
 11
-281.25
 21
-195.0
 31
0.0
  0
LINE
  8
0
  6
CONTINUOUS
 62
       7
  5
13D
 10
-281.25
 20
-195.0
 30
0.0
 11
282.09985352
 21
-195.0
 31
0.0
  0
TEXT
  8
0
  6
CONTINUOUS
 62
       7
  5
13E
 10
-268.26923083
 20
157.3499999
 30
0.0
 40
6.30000019
  1
MODEL:VA500AE1
 41
1.07692307
  7
MX_NOTE_STANDARD
 11
-268.26923083
 21
160.5
 31
0.0
 73
       2
  0
ENDSEC
  0
EOF
