  0
SECTION
  2
HEADER
  9
$ACADVER
  1
AC1009
  9
$DWGCODEPAGE
  3
dos932
  9
$INSBASE
 10
0.0
 20
0.0
 30
0.0
  9
$EXTMIN
 10
-194.25
 20
-133.5
 30
0.0
  9
$EXTMAX
 10
194.80000305
 20
132.6000061
 30
0.0
  9
$LIMMIN
 10
-194.25
 20
-133.5
  9
$LIMMAX
 10
194.80000305
 20
132.6000061
  9
$ORTHOMODE
 70
       0
  9
$REGENMODE
 70
       1
  9
$FILLMODE
 70
       1
  9
$QTEXTMODE
 70
       0
  9
$MIRRTEXT
 70
       1
  9
$DRAGMODE
 70
       2
  9
$LTSCALE
 40
1.0
  9
$OSMODE
 70
       0
  9
$ATTMODE
 70
       1
  9
$TEXTSIZE
 40
3.20000005
  9
$TRACEWID
 40
0.05
  9
$TEXTSTYLE
  7
MX_NOTE_STANDARD
  9
$CLAYER
  8
0
  9
$CELTYPE
  6
CONTINUOUS
  9
$CECOLOR
 62
     256
  9
$DIMSCALE
 40
1.0
  9
$DIMASZ
 40
2.5
  9
$DIMEXO
 40
1.5
  9
$DIMDLI
 40
3.75
  9
$DIMRND
 40
0.0
  9
$DIMDLE
 40
0.0
  9
$DIMEXE
 40
1.5
  9
$DIMTP
 40
0.0
  9
$DIMTM
 40
0.0
  9
$DIMTXT
 40
3.20000005
  9
$DIMCEN
 40
2.5
  9
$DIMTSZ
 40
0.0
  9
$DIMTOL
 70
       0
  9
$DIMLIM
 70
       0
  9
$DIMTIH
 70
       0
  9
$DIMTOH
 70
       0
  9
$DIMSE1
 70
       0
  9
$DIMSE2
 70
       0
  9
$DIMTAD
 70
       1
  9
$DIMZIN
 70
       8
  9
$DIMBLK
  1

  9
$DIMASO
 70
       1
  9
$DIMSHO
 70
       1
  9
$DIMPOST
  1

  9
$DIMAPOST
  1

  9
$DIMALT
 70
       0
  9
$DIMALTD
 70
       4
  9
$DIMALTF
 40
0.03937008
  9
$DIMLFAC
 40
1.0
  9
$DIMTOFL
 70
       1
  9
$DIMTVP
 40
0.0
  9
$DIMTIX
 70
       0
  9
$DIMSOXD
 70
       0
  9
$DIMSAH
 70
       0
  9
$DIMBLK1
  1

  9
$DIMBLK2
  1

  9
$DIMSTYLE
  2
MXDIMSTYLE
  9
$DIMCLRD
 70
       0
  9
$DIMCLRE
 70
       0
  9
$DIMCLRT
 70
       0
  9
$DIMTFAC
 40
1.0
  9
$DIMGAP
 40
1.0
  9
$LUNITS
 70
       2
  9
$LUPREC
 70
       4
  9
$AXISMODE
 70
       0
  9
$AXISUNIT
 10
0.0
 20
0.0
  9
$SKETCHINC
 40
0.1
  9
$FILLETRAD
 40
0.0
  9
$AUNITS
 70
       0
  9
$AUPREC
 70
       0
  9
$MENU
  1
acad
  9
$ELEVATION
 40
0.0
  9
$PELEVATION
 40
0.0
  9
$THICKNESS
 40
0.0
  9
$LIMCHECK
 70
       0
  9
$BLIPMODE
 70
       1
  9
$CHAMFERA
 40
0.0
  9
$CHAMFERB
 40
0.0
  9
$SKPOLY
 70
       0
  9
$TDCREATE
 40
2453510.778819445
  9
$TDUPDATE
 40
2453510.778819445
  9
$TDINDWG
 40
0.0000000000
  9
$TDUSRTIMER
 40
0.0000000000
  9
$USRTIMER
 70
       1
  9
$ANGBASE
 50
0.0
  9
$ANGDIR
 70
       0
  9
$PDMODE
 70
       0
  9
$PDSIZE
 40
0.0
  9
$PLINEWID
 40
0.0
  9
$COORDS
 70
       1
  9
$SPLFRAME
 70
       0
  9
$SPLINETYPE
 70
       6
  9
$SPLINESEGS
 70
       8
  9
$ATTDIA
 70
       0
  9
$ATTREQ
 70
       1
  9
$HANDLING
 70
       1
  9
$HANDSEED
  5
1F1
  9
$SURFTAB1
 70
       6
  9
$SURFTAB2
 70
       6
  9
$SURFTYPE
 70
       6
  9
$SURFU
 70
       6
  9
$SURFV
 70
       6
  9
$UCSNAME
  2

  9
$UCSORG
 10
0.0
 20
0.0
 30
0.0
  9
$UCSXDIR
 10
1.0
 20
0.0
 30
0.0
  9
$UCSYDIR
 10
0.0
 20
1.0
 30
0.0
  9
$PUCSNAME
  2

  9
$PUCSORG
 10
0.0
 20
0.0
 30
0.0
  9
$PUCSXDIR
 10
1.0
 20
0.0
 30
0.0
  9
$PUCSYDIR
 10
0.0
 20
1.0
 30
0.0
  9
$USERI1
 70
       0
  9
$USERI2
 70
       0
  9
$USERI3
 70
       0
  9
$USERI4
 70
       0
  9
$USERI5
 70
       0
  9
$USERR1
 40
0.0
  9
$USERR2
 40
0.0
  9
$USERR3
 40
0.0
  9
$USERR4
 40
0.0
  9
$USERR5
 40
0.0
  9
$WORLDVIEW
 70
       1
  9
$SHADEDGE
 70
       3
  9
$SHADEDIF
 70
      70
  9
$TILEMODE
 70
       1
  9
$MAXACTVP
 70
      16
  9
$PINSBASE
 10
0.0
 20
0.0
 30
0.0
  9
$PLIMCHECK
 70
       0
  9
$PEXTMIN
 10
1.00000000E+20
 20
1.00000000E+20
 30
1.00000000E+20
  9
$PEXTMAX
 10
-1.00000000E+20
 20
-1.00000000E+20
 30
-1.00000000E+20
  9
$PLIMMIN
 10
0.0
 20
0.0
  9
$PLIMMAX
 10
12.0
 20
9.0
  9
$UNITMODE
 70
       0
  9
$VISRETAIN
 70
       0
  9
$PLINEGEN
 70
       1
  9
$PSLTSCALE
 70
       0
  9
$TREEDEPTH
 70
    3020
  9
$DWGCODEPAGE
  3
dos932
  0
ENDSEC
  0
SECTION
  2
TABLES
  0
TABLE
  2
VPORT
 70
       1
  0
VPORT
  2
*ACTIVE
 70
       0
 10
0.0
 20
0.0
 11
1.0
 21
1.0
 12
0.27500153
 22
-0.44999695
 13
0.0
 23
0.0
 14
1.0
 24
1.0
 15
0.0
 25
0.0
 16
0.0
 26
0.0
 36
1.0
 17
0.0
 27
0.0
 37
0.0
 40
268.76100616
 41
1.73205081
 42
50.0
 43
0.0
 44
0.0
 50
0.0
 51
0.0
 71
       0
 72
     100
 73
       1
 74
       1
 75
       0
 76
       0
 77
       0
 78
       0
  0
ENDTAB
  0
TABLE
  2
LTYPE
 70
       3
  0
LTYPE
  2
CONTINUOUS
 70
      64
  3
Solid line
 72
      65
 73
       0
 40
0.0
  0
LTYPE
  2
DASHED
 70
      64
  3
Dashed __ __ __ __ __ __ __ __ __ __ __ __ __ _
 72
      65
 73
       2
 40
4.0
 49
2.0
 49
-2.0
  0
LTYPE
  2
PHANTOM
 70
      64
  3
Phantom ______  __  __  ______  __  __  ______
 72
      65
 73
       6
 40
30.0
 49
20.0
 49
-2.0
 49
2.0
 49
-2.0
 49
2.0
 49
-2.0
  0
ENDTAB
  0
TABLE
  2
LAYER
 70
       2
  0
LAYER
  2
0
 70
       0
 62
       7
  6
CONTINUOUS
  0
LAYER
  2
DEFPOINTS
 70
       0
 62
       7
  6
CONTINUOUS
  0
ENDTAB
  0
TABLE
  2
STYLE
 70
       1
  0
STYLE
  2
MX_NOTE_STANDARD
 70
       0
 40
0.0
 41
1.0
 50
0.0
 71
       0
 42
3.20000005
  3
txt.shx
  4
extfont.shx
  0
ENDTAB
  0
TABLE
  2
VIEW
 70
       0
  0
ENDTAB
  0
TABLE
  2
UCS
 70
       0
  0
ENDTAB
  0
TABLE
  2
APPID
 70
       1
  0
APPID
  2
ACAD
 70
       0
  0
ENDTAB
  0
TABLE
  2
DIMSTYLE
 70
       1
  0
DIMSTYLE
  2
MXDIMSTYLE
 70
       0
  3

  4

  5

  6

  7

 40
1.0
 41
2.5
 42
1.5
 43
3.75
 44
1.5
 45
0.0
 46
0.0
 47
0.0
 48
0.0
 71
       0
 72
       0
 73
       0
 74
       0
 75
       0
 76
       0
 77
       1
 78
       8
140
3.20000005
141
2.5
142
0.0
143
0.03937008
144
1.0
145
0.0
146
1.0
147
1.0
170
       0
171
       4
172
       1
173
       0
174
       0
175
       0
176
       0
177
       0
178
       0
  0
ENDTAB
  0
ENDSEC
  0
SECTION
  2
BLOCKS
  0
ENDSEC
  0
SECTION
  2
ENTITIES
  0
LINE
  8
0
  6
CONTINUOUS
 62
       2
  5
1E
 10
-88.78429136
 20
-103.70620649
 30
0.0
 11
-88.78429136
 21
-92.71904059
 31
0.0
  0
LINE
  8
0
  6
CONTINUOUS
 62
       2
  5
1F
 10
-83.29630662
 20
-98.21870649
 30
0.0
 11
-94.28347148
 21
-98.21870649
 31
0.0
  0
CIRCLE
  8
0
  6
CONTINUOUS
 62
       7
  5
20
 10
-88.78988905
 20
-98.21262354
 30
0.0
 40
2.74999976
  0
LINE
  8
0
  6
CONTINUOUS
 62
       2
  5
21
 10
-48.78429136
 20
-103.70620649
 30
0.0
 11
-48.78429136
 21
-92.71904059
 31
0.0
  0
LINE
  8
0
  6
CONTINUOUS
 62
       2
  5
22
 10
-54.27227611
 20
-98.21870649
 30
0.0
 11
-43.28511125
 21
-98.21870649
 31
0.0
  0
CIRCLE
  8
0
  6
CONTINUOUS
 62
       7
  5
23
 10
-48.77869368
 20
-98.21262354
 30
0.0
 40
2.74999976
  0
LINE
  8
0
  6
CONTINUOUS
 62
       2
  5
24
 10
-48.78429136
 20
-52.73120649
 30
0.0
 11
-48.78429136
 21
-63.71837238
 31
0.0
  0
LINE
  8
0
  6
CONTINUOUS
 62
       2
  5
25
 10
-54.27227611
 20
-58.21870649
 30
0.0
 11
-43.28511125
 21
-58.21870649
 31
0.0
  0
CIRCLE
  8
0
  6
CONTINUOUS
 62
       7
  5
26
 10
-48.77869368
 20
-58.22478943
 30
0.0
 40
2.74999976
  0
ARC
  8
0
  6
CONTINUOUS
 62
       7
  5
27
 10
-48.28429136
 20
-98.71870649
 30
0.0
 40
8.0
 50
270.0
 51
0.0
  0
ARC
  8
0
  6
CONTINUOUS
 62
       7
  5
28
 10
-89.28429136
 20
-98.71870649
 30
0.0
 40
8.0
 50
180.0
 51
270.0
  0
ARC
  8
0
  6
CONTINUOUS
 62
       7
  5
29
 10
-89.28429136
 20
-57.71870649
 30
0.0
 40
8.0
 50
90.0
 51
180.0
  0
ARC
  8
0
  6
CONTINUOUS
 62
       7
  5
2A
 10
-48.28429136
 20
-57.71870649
 30
0.0
 40
8.0
 50
0.0
 51
90.0
  0
LINE
  8
0
  6
CONTINUOUS
 62
       7
  5
2B
 10
-89.28429136
 20
-49.71870649
 30
0.0
 11
-48.28429136
 21
-49.71870649
 31
0.0
  0
LINE
  8
0
  6
CONTINUOUS
 62
       7
  5
2C
 10
-40.28429136
 20
-57.71870649
 30
0.0
 11
-40.28429136
 21
-98.71870649
 31
0.0
  0
LINE
  8
0
  6
CONTINUOUS
 62
       7
  5
2D
 10
-40.28429136
 20
-13.81870649
 30
0.0
 11
-40.28429136
 21
-15.01870649
 31
0.0
  0
LINE
  8
0
  6
CONTINUOUS
 62
       7
  5
2E
 10
125.20320864
 20
21.98129351
 30
0.0
 11
125.20320864
 21
-1.01870649
 31
0.0
  0
LINE
  8
0
  6
CONTINUOUS
 62
       2
  5
2F
 10
104.20320864
 20
106.64916616
 30
0.0
 11
104.20320864
 21
-17.10620649
 31
0.0
  0
LINE
  8
0
  6
CONTINUOUS
 62
       7
  5
30
 10
123.95320864
 20
21.98129351
 30
0.0
 11
123.95320864
 21
-1.01870649
 31
0.0
  0
LINE
  8
0
  6
CONTINUOUS
 62
       7
  5
31
 10
125.20320864
 20
-1.01870649
 30
0.0
 11
83.20320864
 21
-1.01870649
 31
0.0
  0
LINE
  8
0
  6
CONTINUOUS
 62
       2
  5
32
 10
129.10320864
 20
-6.51870649
 30
0.0
 11
124.44070864
 21
-6.51870649
 31
0.0
  0
LINE
  8
0
  6
CONTINUOUS
 62
       7
  5
33
 10
125.20320864
 20
21.98129351
 30
0.0
 11
83.20320864
 21
21.98129351
 31
0.0
  0
LINE
  8
0
  6
CONTINUOUS
 62
       7
  5
34
 10
83.20320864
 20
21.98129351
 30
0.0
 11
83.20320864
 21
-1.01870649
 31
0.0
  0
LINE
  8
0
  6
DASHED
 62
       2
  5
36
 10
117.55320864
 20
4.38129351
 30
0.0
 11
125.20320864
 21
3.98129351
 31
0.0
  0
LINE
  8
0
  6
DASHED
 62
       2
  5
37
 10
125.20320864
 20
4.98129351
 30
0.0
 11
117.40320864
 21
4.98129351
 31
0.0
  0
LINE
  8
0
  6
CONTINUOUS
 62
       2
  5
38
 10
79.30320864
 20
-6.51870649
 30
0.0
 11
83.91570864
 21
-6.51870649
 31
0.0
  0
LINE
  8
0
  6
DASHED
 62
       2
  5
39
 10
117.55320864
 20
16.58129351
 30
0.0
 11
125.20320864
 21
16.98129351
 31
0.0
  0
LINE
  8
0
  6
DASHED
 62
       2
  5
3A
 10
125.20320864
 20
15.98129351
 30
0.0
 11
117.40320864
 21
15.98129351
 31
0.0
  0
LINE
  8
0
  6
CONTINUOUS
 62
       7
  5
3B
 10
125.25320864
 20
-1.01870649
 30
0.0
 11
125.25320864
 21
-11.81870649
 31
0.0
  0
LINE
  8
0
  6
CONTINUOUS
 62
       7
  5
3C
 10
132.70320864
 20
-15.01870649
 30
0.0
 11
75.70320864
 21
-15.01870649
 31
0.0
  0
LINE
  8
0
  6
CONTINUOUS
 62
       7
  5
3D
 10
132.70320864
 20
-13.81870649
 30
0.0
 11
132.70320864
 21
-15.01870649
 31
0.0
  0
LINE
  8
0
  6
CONTINUOUS
 62
       7
  5
3E
 10
132.70320864
 20
-13.81870649
 30
0.0
 11
75.70320864
 21
-13.81870649
 31
0.0
  0
LINE
  8
0
  6
CONTINUOUS
 62
       7
  5
3F
 10
83.15320864
 20
-1.01870649
 30
0.0
 11
83.15320864
 21
-11.81870649
 31
0.0
  0
LINE
  8
0
  6
CONTINUOUS
 62
       7
  5
40
 10
75.70320864
 20
-13.81870649
 30
0.0
 11
75.70320864
 21
-15.01870649
 31
0.0
  0
LINE
  8
0
  6
CONTINUOUS
 62
       7
  5
41
 10
-89.28429136
 20
-106.71870649
 30
0.0
 11
-48.28429136
 21
-106.71870649
 31
0.0
  0
LINE
  8
0
  6
CONTINUOUS
 62
       7
  5
42
 10
-97.28429136
 20
-57.71870649
 30
0.0
 11
-97.28429136
 21
-98.71870649
 31
0.0
  0
LINE
  8
0
  6
CONTINUOUS
 62
       2
  5
43
 10
-105.78632168
 20
-78.21870649
 30
0.0
 11
-31.78226105
 21
-78.21870649
 31
0.0
  0
LINE
  8
0
  6
CONTINUOUS
 62
       2
  5
44
 10
-68.78429136
 20
-41.21667617
 30
0.0
 11
-68.78429136
 21
-115.2207368
 31
0.0
  0
LINE
  8
0
  6
CONTINUOUS
 62
       2
  5
45
 10
-88.78429136
 20
-52.73120649
 30
0.0
 11
-88.78429136
 21
-63.71837238
 31
0.0
  0
LINE
  8
0
  6
CONTINUOUS
 62
       2
  5
46
 10
-83.29630662
 20
-58.21870649
 30
0.0
 11
-94.28347148
 21
-58.21870649
 31
0.0
  0
LINE
  8
0
  6
CONTINUOUS
 62
       7
  5
47
 10
82.70320864
 20
-3.01870649
 30
0.0
 11
82.70320864
 21
-10.01870649
 31
0.0
  0
LINE
  8
0
  6
CONTINUOUS
 62
       7
  5
48
 10
80.10320864
 20
-5.61870649
 30
0.0
 11
80.10320864
 21
-7.41870649
 31
0.0
  0
LINE
  8
0
  6
CONTINUOUS
 62
       7
  5
49
 10
82.70320864
 20
-3.01870649
 30
0.0
 11
83.15320864
 21
-3.01870649
 31
0.0
  0
LINE
  8
0
  6
CONTINUOUS
 62
       7
  5
4A
 10
82.70320864
 20
-10.01870649
 30
0.0
 11
83.15320864
 21
-10.01870649
 31
0.0
  0
LINE
  8
0
  6
CONTINUOUS
 62
       2
  5
4B
 10
108.34070864
 20
-6.51870649
 30
0.0
 11
99.96570864
 21
-6.51870649
 31
0.0
  0
LINE
  8
0
  6
CONTINUOUS
 62
       7
  5
4C
 10
103.07820864
 20
-7.63120649
 30
0.0
 11
105.46570864
 21
-5.25620649
 31
0.0
  0
LINE
  8
0
  6
CONTINUOUS
 62
       7
  5
4D
 10
102.91570864
 20
-5.23120649
 30
0.0
 11
105.27820864
 21
-7.58120649
 31
0.0
  0
LINE
  8
0
  6
CONTINUOUS
 62
       7
  5
4E
 10
125.70320864
 20
-3.01870649
 30
0.0
 11
125.70320864
 21
-10.01870649
 31
0.0
  0
LINE
  8
0
  6
CONTINUOUS
 62
       7
  5
4F
 10
125.70320864
 20
-10.01870649
 30
0.0
 11
125.25320864
 21
-10.01870649
 31
0.0
  0
LINE
  8
0
  6
CONTINUOUS
 62
       7
  5
50
 10
125.70320864
 20
-3.01870649
 30
0.0
 11
125.25320864
 21
-3.01870649
 31
0.0
  0
LINE
  8
0
  6
CONTINUOUS
 62
       7
  5
51
 10
128.30320864
 20
-5.61870649
 30
0.0
 11
128.30320864
 21
-7.41870649
 31
0.0
  0
LINE
  8
0
  6
CONTINUOUS
 62
       7
  5
52
 10
-47.79679136
 20
21.98129351
 30
0.0
 11
-47.79679136
 21
-1.01870649
 31
0.0
  0
LINE
  8
0
  6
CONTINUOUS
 62
       7
  5
53
 10
-49.04679136
 20
21.98129351
 30
0.0
 11
-49.04679136
 21
-1.01870649
 31
0.0
  0
LINE
  8
0
  6
CONTINUOUS
 62
       2
  5
54
 10
-44.39145304
 20
10.48129351
 30
0.0
 11
-94.13818714
 21
10.48129351
 31
0.0
  0
LINE
  8
0
  6
CONTINUOUS
 62
       7
  5
55
 10
-47.79679136
 20
-1.01870649
 30
0.0
 11
-89.78429136
 21
-1.01870649
 31
0.0
  0
LINE
  8
0
  6
CONTINUOUS
 62
       2
  5
56
 10
-43.14915355
 20
-6.51870649
 30
0.0
 11
-49.45621247
 21
-6.51870649
 31
0.0
  0
LINE
  8
0
  6
DASHED
 62
       2
  5
57
 10
-47.79679136
 20
15.98129351
 30
0.0
 11
-55.58429136
 21
15.98129351
 31
0.0
  0
LINE
  8
0
  6
DASHED
 62
       2
  5
58
 10
-55.44679136
 20
16.58129351
 30
0.0
 11
-47.79679136
 21
16.98129351
 31
0.0
  0
LINE
  8
0
  6
DASHED
 62
       2
  5
59
 10
-47.79679136
 20
4.98129351
 30
0.0
 11
-55.58429136
 21
4.98129351
 31
0.0
  0
LINE
  8
0
  6
DASHED
 62
       2
  5
5A
 10
-55.44679136
 20
4.38129351
 30
0.0
 11
-47.79679136
 21
3.98129351
 31
0.0
  0
LINE
  8
0
  6
CONTINUOUS
 62
       7
  5
5B
 10
-47.79679136
 20
21.98129351
 30
0.0
 11
-89.78429136
 21
21.98129351
 31
0.0
  0
LINE
  8
0
  6
CONTINUOUS
 62
       7
  5
5C
 10
-89.78429136
 20
21.98129351
 30
0.0
 11
-89.78429136
 21
-1.01870649
 31
0.0
  0
LINE
  8
0
  6
CONTINUOUS
 62
       7
  5
5D
 10
-88.53429136
 20
21.98129351
 30
0.0
 11
-88.53429136
 21
-1.01870649
 31
0.0
  0
LINE
  8
0
  6
DASHED
 62
       2
  5
5E
 10
-82.13429136
 20
4.38129351
 30
0.0
 11
-89.78429136
 21
3.98129351
 31
0.0
  0
LINE
  8
0
  6
DASHED
 62
       2
  5
5F
 10
-89.78429136
 20
4.98129351
 30
0.0
 11
-81.98429136
 21
4.98129351
 31
0.0
  0
LINE
  8
0
  6
CONTINUOUS
 62
       2
  5
60
 10
-95.23017039
 20
-6.51870649
 30
0.0
 11
-88.15861948
 21
-6.51870649
 31
0.0
  0
LINE
  8
0
  6
DASHED
 62
       2
  5
61
 10
-82.13429136
 20
16.58129351
 30
0.0
 11
-89.78429136
 21
16.98129351
 31
0.0
  0
LINE
  8
0
  6
DASHED
 62
       2
  5
62
 10
-89.78429136
 20
15.98129351
 30
0.0
 11
-81.98429136
 21
15.98129351
 31
0.0
  0
LINE
  8
0
  6
CONTINUOUS
 62
       7
  5
63
 10
-47.74679136
 20
-1.01870649
 30
0.0
 11
-47.74679136
 21
-11.81870649
 31
0.0
  0
LINE
  8
0
  6
CONTINUOUS
 62
       7
  5
64
 10
-40.28429136
 20
-15.01870649
 30
0.0
 11
-97.28429136
 21
-15.01870649
 31
0.0
  0
LINE
  8
0
  6
CONTINUOUS
 62
       7
  5
65
 10
-40.28429136
 20
-13.81870649
 30
0.0
 11
-97.28429136
 21
-13.81870649
 31
0.0
  0
LINE
  8
0
  6
CONTINUOUS
 62
       7
  5
66
 10
-89.83429136
 20
-1.01870649
 30
0.0
 11
-89.83429136
 21
-11.81870649
 31
0.0
  0
LINE
  8
0
  6
CONTINUOUS
 62
       7
  5
67
 10
-97.28429136
 20
-13.81870649
 30
0.0
 11
-97.28429136
 21
-15.01870649
 31
0.0
  0
LINE
  8
0
  6
CONTINUOUS
 62
       7
  5
68
 10
-90.28429136
 20
-3.01870649
 30
0.0
 11
-90.28429136
 21
-10.01870649
 31
0.0
  0
LINE
  8
0
  6
CONTINUOUS
 62
       7
  5
69
 10
-92.88429136
 20
-5.61870649
 30
0.0
 11
-92.88429136
 21
-7.41870649
 31
0.0
  0
LINE
  8
0
  6
CONTINUOUS
 62
       7
  5
6A
 10
-90.28429136
 20
-3.01870649
 30
0.0
 11
-89.83429136
 21
-3.01870649
 31
0.0
  0
LINE
  8
0
  6
CONTINUOUS
 62
       7
  5
6B
 10
-90.28429136
 20
-10.01870649
 30
0.0
 11
-89.83429136
 21
-10.01870649
 31
0.0
  0
LINE
  8
0
  6
CONTINUOUS
 62
       2
  5
6C
 10
-63.88599879
 20
-6.51870649
 30
0.0
 11
-73.72883316
 21
-6.51870649
 31
0.0
  0
LINE
  8
0
  6
CONTINUOUS
 62
       7
  5
6D
 10
-69.90929136
 20
-7.63120649
 30
0.0
 11
-67.52179136
 21
-5.25620649
 31
0.0
  0
LINE
  8
0
  6
CONTINUOUS
 62
       7
  5
6E
 10
-70.07179136
 20
-5.23120649
 30
0.0
 11
-67.72179136
 21
-7.58120649
 31
0.0
  0
LINE
  8
0
  6
CONTINUOUS
 62
       7
  5
6F
 10
-47.29679136
 20
-3.01870649
 30
0.0
 11
-47.29679136
 21
-10.01870649
 31
0.0
  0
LINE
  8
0
  6
CONTINUOUS
 62
       7
  5
70
 10
-47.29679136
 20
-10.01870649
 30
0.0
 11
-47.74679136
 21
-10.01870649
 31
0.0
  0
LINE
  8
0
  6
CONTINUOUS
 62
       7
  5
71
 10
-47.29679136
 20
-3.01870649
 30
0.0
 11
-47.74679136
 21
-3.01870649
 31
0.0
  0
LINE
  8
0
  6
CONTINUOUS
 62
       7
  5
72
 10
-44.69679136
 20
-5.61870649
 30
0.0
 11
-44.69679136
 21
-7.41870649
 31
0.0
  0
LINE
  8
0
  6
CONTINUOUS
 62
       2
  5
73
 10
78.34395068
 20
10.48129351
 30
0.0
 11
130.0624666
 21
10.48129351
 31
0.0
  0
LINE
  8
0
  6
CONTINUOUS
 62
       7
  5
74
 10
-56.20929136
 20
-79.21870649
 30
0.0
 11
-60.94679136
 21
-79.21870649
 31
0.0
  0
LINE
  8
0
  6
CONTINUOUS
 62
       7
  5
75
 10
-56.20929136
 20
-77.21870649
 30
0.0
 11
-60.94679136
 21
-77.21870649
 31
0.0
  0
LINE
  8
0
  6
CONTINUOUS
 62
       7
  5
76
 10
-61.44679136
 20
-77.71870649
 30
0.0
 11
-61.44679136
 21
-78.71870649
 31
0.0
  0
LINE
  8
0
  6
CONTINUOUS
 62
       7
  5
77
 10
-60.94679136
 20
-77.21870649
 30
0.0
 11
-61.44679136
 21
-77.71870649
 31
0.0
  0
LINE
  8
0
  6
CONTINUOUS
 62
       7
  5
78
 10
-60.94679136
 20
-79.21870649
 30
0.0
 11
-61.44679136
 21
-78.71870649
 31
0.0
  0
LINE
  8
0
  6
CONTINUOUS
 62
       7
  5
79
 10
-67.78429136
 20
-65.63120649
 30
0.0
 11
-67.78429136
 21
-70.36870649
 31
0.0
  0
LINE
  8
0
  6
CONTINUOUS
 62
       7
  5
7A
 10
-67.78429136
 20
-70.36870649
 30
0.0
 11
-68.28429136
 21
-70.86870649
 31
0.0
  0
LINE
  8
0
  6
CONTINUOUS
 62
       7
  5
7B
 10
-69.28429136
 20
-70.86870649
 30
0.0
 11
-68.28429136
 21
-70.86870649
 31
0.0
  0
LINE
  8
0
  6
CONTINUOUS
 62
       7
  5
7C
 10
-69.78429136
 20
-70.36870649
 30
0.0
 11
-69.28429136
 21
-70.86870649
 31
0.0
  0
LINE
  8
0
  6
CONTINUOUS
 62
       7
  5
7D
 10
-69.78429136
 20
-65.63120649
 30
0.0
 11
-69.78429136
 21
-70.36870649
 31
0.0
  0
LINE
  8
0
  6
CONTINUOUS
 62
       7
  5
7E
 10
-81.37179136
 20
-77.21870649
 30
0.0
 11
-76.63429136
 21
-77.21870649
 31
0.0
  0
LINE
  8
0
  6
CONTINUOUS
 62
       7
  5
7F
 10
-76.63429136
 20
-77.21870649
 30
0.0
 11
-76.13429136
 21
-77.71870649
 31
0.0
  0
LINE
  8
0
  6
CONTINUOUS
 62
       7
  5
80
 10
-76.13429136
 20
-78.71870649
 30
0.0
 11
-76.13429136
 21
-77.71870649
 31
0.0
  0
LINE
  8
0
  6
CONTINUOUS
 62
       7
  5
81
 10
-76.63429136
 20
-79.21870649
 30
0.0
 11
-76.13429136
 21
-78.71870649
 31
0.0
  0
LINE
  8
0
  6
CONTINUOUS
 62
       7
  5
82
 10
-81.37179136
 20
-79.21870649
 30
0.0
 11
-76.63429136
 21
-79.21870649
 31
0.0
  0
LINE
  8
0
  6
CONTINUOUS
 62
       7
  5
83
 10
-69.78429136
 20
-90.80620649
 30
0.0
 11
-69.78429136
 21
-86.06870649
 31
0.0
  0
LINE
  8
0
  6
CONTINUOUS
 62
       7
  5
84
 10
-69.78429136
 20
-86.06870649
 30
0.0
 11
-69.28429136
 21
-85.56870649
 31
0.0
  0
LINE
  8
0
  6
CONTINUOUS
 62
       7
  5
85
 10
-68.28429136
 20
-85.56870649
 30
0.0
 11
-69.28429136
 21
-85.56870649
 31
0.0
  0
LINE
  8
0
  6
CONTINUOUS
 62
       7
  5
86
 10
-67.78429136
 20
-86.06870649
 30
0.0
 11
-68.28429136
 21
-85.56870649
 31
0.0
  0
LINE
  8
0
  6
CONTINUOUS
 62
       7
  5
87
 10
-67.78429136
 20
-90.80620649
 30
0.0
 11
-67.78429136
 21
-86.06870649
 31
0.0
  0
ARC
  8
0
  6
CONTINUOUS
 62
       7
  5
88
 10
127.26153855
 20
-11.81037657
 30
0.0
 40
2.00834719
 50
180.23764326
 51
269.76235674
  0
ARC
  8
0
  6
CONTINUOUS
 62
       7
  5
89
 10
81.15174507
 20
-11.81724292
 30
0.0
 40
2.0014641
 50
270.04189733
 51
359.95810267
  0
CIRCLE
  8
0
  6
CONTINUOUS
 62
       7
  5
8A
 10
-88.78988905
 20
-58.22478943
 30
0.0
 40
2.74999976
  0
CIRCLE
  8
0
  6
CONTINUOUS
 62
       7
  5
8B
 10
-68.78429136
 20
-78.21870649
 30
0.0
 40
19.85000014
  0
CIRCLE
  8
0
  6
CONTINUOUS
 62
       7
  5
8C
 10
-68.78429136
 20
-78.21870649
 30
0.0
 40
15.95000029
  0
CIRCLE
  8
0
  6
CONTINUOUS
 62
       7
  5
8D
 10
-68.78429136
 20
-78.21870649
 30
0.0
 40
18.75
  0
CIRCLE
  8
0
  6
CONTINUOUS
 62
       7
  5
8E
 10
-68.78989382
 20
-78.22477796
 30
0.0
 40
6.3499999
  0
ARC
  8
0
  6
CONTINUOUS
 62
       7
  5
8F
 10
-68.78975318
 20
-79.72477406
 30
0.0
 40
14.74122138
 50
318.88236606
 51
221.18215621
  0
CIRCLE
  8
0
  6
CONTINUOUS
 62
       7
  5
90
 10
-62.90573878
 20
-90.93918302
 30
0.0
 40
1.25
  0
CIRCLE
  8
0
  6
CONTINUOUS
 62
       7
  5
91
 10
-74.67404885
 20
-90.93918302
 30
0.0
 40
1.25
  0
ARC
  8
0
  6
CONTINUOUS
 62
       7
  5
92
 10
82.71004548
 20
-7.41186965
 30
0.0
 40
2.60684581
 50
180.15026685
 51
269.84973315
  0
ARC
  8
0
  6
CONTINUOUS
 62
       7
  5
93
 10
82.70027344
 20
-5.61577129
 30
0.0
 40
2.59706646
 50
89.93524451
 51
180.06475549
  0
CIRCLE
  8
0
  6
CONTINUOUS
 62
       7
  5
94
 10
104.21011095
 20
-6.50892713
 30
0.0
 40
3.49999905
  0
ARC
  8
0
  6
CONTINUOUS
 62
       7
  5
95
 10
125.70324764
 20
-7.41874549
 30
0.0
 40
2.599961
 50
269.99914058
 51
0.00085942
  0
ARC
  8
0
  6
CONTINUOUS
 62
       7
  5
96
 10
125.7130456
 20
-5.60886953
 30
0.0
 40
2.59018172
 50
359.78240229
 51
90.21759771
  0
CIRCLE
  8
0
  6
DASHED
 62
       7
  5
97
 10
-68.78989382
 20
10.4910805
 30
0.0
 40
5.49999952
  0
CIRCLE
  8
0
  6
DASHED
 62
       2
  5
98
 10
-68.78989382
 20
10.4910805
 30
0.0
 40
6.49999976
  0
ARC
  8
0
  6
CONTINUOUS
 62
       7
  5
99
 10
-45.73846145
 20
-11.81037657
 30
0.0
 40
2.00834719
 50
180.23764326
 51
269.76235674
  0
ARC
  8
0
  6
CONTINUOUS
 62
       7
  5
9A
 10
-91.84198861
 20
-11.81100924
 30
0.0
 40
2.007712
 50
270.21966347
 51
359.78033653
  0
ARC
  8
0
  6
CONTINUOUS
 62
       7
  5
9B
 10
-90.28368043
 20
-7.41809556
 30
0.0
 40
2.600611
 50
180.01345977
 51
269.98654023
  0
ARC
  8
0
  6
CONTINUOUS
 62
       7
  5
9C
 10
-90.29347594
 20
-5.60952191
 30
0.0
 40
2.5908317
 50
89.79688427
 51
180.20311573
  0
CIRCLE
  8
0
  6
CONTINUOUS
 62
       7
  5
9D
 10
-68.78989382
 20
-6.50892713
 30
0.0
 40
3.49999905
  0
ARC
  8
0
  6
CONTINUOUS
 62
       7
  5
9E
 10
-47.29675236
 20
-7.41874549
 30
0.0
 40
2.599961
 50
269.99914058
 51
0.00085942
  0
ARC
  8
0
  6
CONTINUOUS
 62
       7
  5
9F
 10
-47.2869544
 20
-5.60886953
 30
0.0
 40
2.59018172
 50
359.78240229
 51
90.21759771
  0
ARC
  8
0
  6
CONTINUOUS
 62
       7
  5
A0
 10
-68.76952081
 20
-78.21538386
 30
0.0
 40
13.74170723
 50
289.65777843
 51
299.76857533
  0
ARC
  8
0
  6
CONTINUOUS
 62
       7
  5
A1
 10
-68.79099869
 20
-78.21505968
 30
0.0
 40
13.74705541
 50
140.48838247
 51
232.56765729
  0
ARC
  8
0
  6
CONTINUOUS
 62
       7
  5
A2
 10
-56.19924409
 20
-76.22656922
 30
0.0
 40
0.99218814
 50
269.41979142
 51
9.88691175
  0
ARC
  8
0
  6
CONTINUOUS
 62
       7
  5
A3
 10
-56.20527805
 20
-80.21596937
 30
0.0
 40
0.99727096
 50
350.46272115
 51
90.23057568
  0
ARC
  8
0
  6
CONTINUOUS
 62
       7
  5
A4
 10
-70.78855084
 20
-65.6365108
 30
0.0
 40
1.00427349
 50
0.3026227
 51
37.96466372
  0
ARC
  8
0
  6
CONTINUOUS
 62
       7
  5
A5
 10
-66.7900331
 20
-65.63304098
 30
0.0
 40
0.99425995
 50
141.83842947
 51
179.89428412
  0
ARC
  8
0
  6
CONTINUOUS
 62
       7
  5
A6
 10
-81.37505358
 20
-80.2166074
 30
0.0
 40
0.99790625
 50
89.81269632
 51
189.49400685
  0
ARC
  8
0
  6
CONTINUOUS
 62
       7
  5
A7
 10
-81.38108134
 20
-76.22592593
 30
0.0
 40
0.99282402
 50
170.15716518
 51
270.53613165
  0
ARC
  8
0
  6
CONTINUOUS
 62
       7
  5
A8
 10
-66.79255818
 20
-90.81464695
 30
0.0
 40
0.99176911
 50
179.5123776
 51
279.18253622
  0
ARC
  8
0
  6
CONTINUOUS
 62
       7
  5
A9
 10
-70.78175598
 20
-90.80998231
 30
0.0
 40
0.99747177
 50
260.47640903
 51
0.2168878
  0
ARC
  8
0
  6
CONTINUOUS
 62
       7
  5
AA
 10
-68.81133306
 20
-78.21488659
 30
0.0
 40
13.74225251
 50
240.23162579
 51
250.34202045
  0
ARC
  8
0
  6
CONTINUOUS
 62
       7
  5
AB
 10
-68.78211136
 20
-78.22474785
 30
0.0
 40
13.74072066
 50
255.55693807
 51
284.85526001
  0
ARC
  8
0
  6
CONTINUOUS
 62
       7
  5
AC
 10
-68.7887962
 20
-78.21520705
 30
0.0
 40
13.74615564
 50
307.42845359
 51
39.51550665
  0
POLYLINE
  8
0
  6
CONTINUOUS
 62
       7
  5
AD
 66
       1
 10
0.0
 20
0.0
 30
0.0
  0
VERTEX
  8
0
  6
CONTINUOUS
 62
       7
  5
12C
 10
-57.67075747
 20
-89.42115286
 30
0.0
  0
VERTEX
  8
0
  6
CONTINUOUS
 62
       7
  5
12D
 10
-57.75135267
 20
-89.45299972
 30
0.0
  0
VERTEX
  8
0
  6
CONTINUOUS
 62
       7
  5
12E
 10
-57.83302298
 20
-89.48355999
 30
0.0
  0
VERTEX
  8
0
  6
CONTINUOUS
 62
       7
  5
12F
 10
-57.91564786
 20
-89.51266382
 30
0.0
  0
VERTEX
  8
0
  6
CONTINUOUS
 62
       7
  5
130
 10
-57.99910678
 20
-89.5401414
 30
0.0
  0
VERTEX
  8
0
  6
CONTINUOUS
 62
       7
  5
131
 10
-58.08327918
 20
-89.5658229
 30
0.0
  0
VERTEX
  8
0
  6
CONTINUOUS
 62
       7
  5
132
 10
-58.16804454
 20
-89.58953847
 30
0.0
  0
VERTEX
  8
0
  6
CONTINUOUS
 62
       7
  5
133
 10
-58.2532823
 20
-89.61111831
 30
0.0
  0
VERTEX
  8
0
  6
CONTINUOUS
 62
       7
  5
134
 10
-58.33887194
 20
-89.63039257
 30
0.0
  0
VERTEX
  8
0
  6
CONTINUOUS
 62
       7
  5
135
 10
-58.4246929
 20
-89.64719142
 30
0.0
  0
VERTEX
  8
0
  6
CONTINUOUS
 62
       7
  5
136
 10
-58.51062465
 20
-89.66134505
 30
0.0
  0
VERTEX
  8
0
  6
CONTINUOUS
 62
       7
  5
137
 10
-58.59654664
 20
-89.67268361
 30
0.0
  0
VERTEX
  8
0
  6
CONTINUOUS
 62
       7
  5
138
 10
-58.68233834
 20
-89.68103728
 30
0.0
  0
VERTEX
  8
0
  6
CONTINUOUS
 62
       7
  5
139
 10
-58.7678792
 20
-89.68623624
 30
0.0
  0
VERTEX
  8
0
  6
CONTINUOUS
 62
       7
  5
13A
 10
-58.85304869
 20
-89.68811064
 30
0.0
  0
VERTEX
  8
0
  6
CONTINUOUS
 62
       7
  5
13B
 10
-58.93772626
 20
-89.68649067
 30
0.0
  0
VERTEX
  8
0
  6
CONTINUOUS
 62
       7
  5
13C
 10
-59.02179136
 20
-89.68120649
 30
0.0
  0
VERTEX
  8
0
  6
CONTINUOUS
 62
       7
  5
13D
 10
-59.1683164
 20
-89.6628198
 30
0.0
  0
VERTEX
  8
0
  6
CONTINUOUS
 62
       7
  5
13E
 10
-59.31286306
 20
-89.63368869
 30
0.0
  0
VERTEX
  8
0
  6
CONTINUOUS
 62
       7
  5
13F
 10
-59.45564208
 20
-89.59492211
 30
0.0
  0
VERTEX
  8
0
  6
CONTINUOUS
 62
       7
  5
140
 10
-59.59686418
 20
-89.54762902
 30
0.0
  0
VERTEX
  8
0
  6
CONTINUOUS
 62
       7
  5
141
 10
-59.73674007
 20
-89.4929184
 30
0.0
  0
VERTEX
  8
0
  6
CONTINUOUS
 62
       7
  5
142
 10
-59.87548048
 20
-89.43189918
 30
0.0
  0
VERTEX
  8
0
  6
CONTINUOUS
 62
       7
  5
143
 10
-60.01329612
 20
-89.36568035
 30
0.0
  0
VERTEX
  8
0
  6
CONTINUOUS
 62
       7
  5
144
 10
-60.15039772
 20
-89.29537086
 30
0.0
  0
VERTEX
  8
0
  6
CONTINUOUS
 62
       7
  5
145
 10
-60.286996
 20
-89.22207966
 30
0.0
  0
VERTEX
  8
0
  6
CONTINUOUS
 62
       7
  5
146
 10
-60.42330167
 20
-89.14691573
 30
0.0
  0
VERTEX
  8
0
  6
CONTINUOUS
 62
       7
  5
147
 10
-60.55952546
 20
-89.07098802
 30
0.0
  0
VERTEX
  8
0
  6
CONTINUOUS
 62
       7
  5
148
 10
-60.69587808
 20
-88.9954055
 30
0.0
  0
VERTEX
  8
0
  6
CONTINUOUS
 62
       7
  5
149
 10
-60.83257027
 20
-88.92127713
 30
0.0
  0
VERTEX
  8
0
  6
CONTINUOUS
 62
       7
  5
14A
 10
-60.96981273
 20
-88.84971186
 30
0.0
  0
VERTEX
  8
0
  6
CONTINUOUS
 62
       7
  5
14B
 10
-61.10781619
 20
-88.78181866
 30
0.0
  0
VERTEX
  8
0
  6
CONTINUOUS
 62
       7
  5
14C
 10
-61.24679136
 20
-88.71870649
 30
0.0
  0
VERTEX
  8
0
  6
CONTINUOUS
 62
       7
  5
14D
 10
-61.35203141
 20
-88.67495675
 30
0.0
  0
VERTEX
  8
0
  6
CONTINUOUS
 62
       7
  5
14E
 10
-61.45796227
 20
-88.63448799
 30
0.0
  0
VERTEX
  8
0
  6
CONTINUOUS
 62
       7
  5
14F
 10
-61.56464333
 20
-88.59733375
 30
0.0
  0
VERTEX
  8
0
  6
CONTINUOUS
 62
       7
  5
150
 10
-61.672134
 20
-88.56352754
 30
0.0
  0
VERTEX
  8
0
  6
CONTINUOUS
 62
       7
  5
151
 10
-61.78049367
 20
-88.53310292
 30
0.0
  0
VERTEX
  8
0
  6
CONTINUOUS
 62
       7
  5
152
 10
-61.88978174
 20
-88.5060934
 30
0.0
  0
VERTEX
  8
0
  6
CONTINUOUS
 62
       7
  5
153
 10
-62.00005759
 20
-88.48253253
 30
0.0
  0
VERTEX
  8
0
  6
CONTINUOUS
 62
       7
  5
154
 10
-62.11138064
 20
-88.46245383
 30
0.0
  0
VERTEX
  8
0
  6
CONTINUOUS
 62
       7
  5
155
 10
-62.22381027
 20
-88.44589084
 30
0.0
  0
VERTEX
  8
0
  6
CONTINUOUS
 62
       7
  5
156
 10
-62.33740588
 20
-88.43287709
 30
0.0
  0
VERTEX
  8
0
  6
CONTINUOUS
 62
       7
  5
157
 10
-62.45222687
 20
-88.42344612
 30
0.0
  0
VERTEX
  8
0
  6
CONTINUOUS
 62
       7
  5
158
 10
-62.56833264
 20
-88.41763145
 30
0.0
  0
VERTEX
  8
0
  6
CONTINUOUS
 62
       7
  5
159
 10
-62.68578257
 20
-88.41546662
 30
0.0
  0
VERTEX
  8
0
  6
CONTINUOUS
 62
       7
  5
15A
 10
-62.80463607
 20
-88.41698516
 30
0.0
  0
VERTEX
  8
0
  6
CONTINUOUS
 62
       7
  5
15B
 10
-62.92495254
 20
-88.4222206
 30
0.0
  0
VERTEX
  8
0
  6
CONTINUOUS
 62
       7
  5
15C
 10
-63.04679136
 20
-88.43120649
 30
0.0
  0
VERTEX
  8
0
  6
CONTINUOUS
 62
       7
  5
15D
 10
-63.2280703
 20
-88.45099568
 30
0.0
  0
VERTEX
  8
0
  6
CONTINUOUS
 62
       7
  5
15E
 10
-63.41137982
 20
-88.47848952
 30
0.0
  0
VERTEX
  8
0
  6
CONTINUOUS
 62
       7
  5
15F
 10
-63.59532415
 20
-88.51370376
 30
0.0
  0
VERTEX
  8
0
  6
CONTINUOUS
 62
       7
  5
160
 10
-63.77850751
 20
-88.55665414
 30
0.0
  0
VERTEX
  8
0
  6
CONTINUOUS
 62
       7
  5
161
 10
-63.95953415
 20
-88.6073564
 30
0.0
  0
VERTEX
  8
0
  6
CONTINUOUS
 62
       7
  5
162
 10
-64.13700827
 20
-88.66582627
 30
0.0
  0
VERTEX
  8
0
  6
CONTINUOUS
 62
       7
  5
163
 10
-64.30953411
 20
-88.73207949
 30
0.0
  0
VERTEX
  8
0
  6
CONTINUOUS
 62
       7
  5
164
 10
-64.4757159
 20
-88.80613181
 30
0.0
  0
VERTEX
  8
0
  6
CONTINUOUS
 62
       7
  5
165
 10
-64.63415785
 20
-88.88799896
 30
0.0
  0
VERTEX
  8
0
  6
CONTINUOUS
 62
       7
  5
166
 10
-64.78346421
 20
-88.97769668
 30
0.0
  0
VERTEX
  8
0
  6
CONTINUOUS
 62
       7
  5
167
 10
-64.92223918
 20
-89.07524072
 30
0.0
  0
VERTEX
  8
0
  6
CONTINUOUS
 62
       7
  5
168
 10
-65.04908701
 20
-89.18064681
 30
0.0
  0
VERTEX
  8
0
  6
CONTINUOUS
 62
       7
  5
169
 10
-65.16261192
 20
-89.29393069
 30
0.0
  0
VERTEX
  8
0
  6
CONTINUOUS
 62
       7
  5
16A
 10
-65.26141813
 20
-89.41510811
 30
0.0
  0
VERTEX
  8
0
  6
CONTINUOUS
 62
       7
  5
16B
 10
-65.34410987
 20
-89.54419479
 30
0.0
  0
VERTEX
  8
0
  6
CONTINUOUS
 62
       7
  5
16C
 10
-65.40929136
 20
-89.68120649
 30
0.0
  0
VERTEX
  8
0
  6
CONTINUOUS
 62
       7
  5
16D
 10
-65.44314349
 20
-89.77894504
 30
0.0
  0
VERTEX
  8
0
  6
CONTINUOUS
 62
       7
  5
16E
 10
-65.46892843
 20
-89.88020128
 30
0.0
  0
VERTEX
  8
0
  6
CONTINUOUS
 62
       7
  5
16F
 10
-65.48716211
 20
-89.98466549
 30
0.0
  0
VERTEX
  8
0
  6
CONTINUOUS
 62
       7
  5
170
 10
-65.49836049
 20
-90.09202795
 30
0.0
  0
VERTEX
  8
0
  6
CONTINUOUS
 62
       7
  5
171
 10
-65.50303951
 20
-90.20197897
 30
0.0
  0
VERTEX
  8
0
  6
CONTINUOUS
 62
       7
  5
172
 10
-65.50171512
 20
-90.31420882
 30
0.0
  0
VERTEX
  8
0
  6
CONTINUOUS
 62
       7
  5
173
 10
-65.49490325
 20
-90.42840779
 30
0.0
  0
VERTEX
  8
0
  6
CONTINUOUS
 62
       7
  5
174
 10
-65.48311987
 20
-90.54426617
 30
0.0
  0
VERTEX
  8
0
  6
CONTINUOUS
 62
       7
  5
175
 10
-65.4668809
 20
-90.66147424
 30
0.0
  0
VERTEX
  8
0
  6
CONTINUOUS
 62
       7
  5
176
 10
-65.44670231
 20
-90.77972231
 30
0.0
  0
VERTEX
  8
0
  6
CONTINUOUS
 62
       7
  5
177
 10
-65.42310002
 20
-90.89870064
 30
0.0
  0
VERTEX
  8
0
  6
CONTINUOUS
 62
       7
  5
178
 10
-65.39658999
 20
-91.01809954
 30
0.0
  0
VERTEX
  8
0
  6
CONTINUOUS
 62
       7
  5
179
 10
-65.36768817
 20
-91.13760928
 30
0.0
  0
VERTEX
  8
0
  6
CONTINUOUS
 62
       7
  5
17A
 10
-65.33691049
 20
-91.25692016
 30
0.0
  0
VERTEX
  8
0
  6
CONTINUOUS
 62
       7
  5
17B
 10
-65.30477291
 20
-91.37572247
 30
0.0
  0
VERTEX
  8
0
  6
CONTINUOUS
 62
       7
  5
17C
 10
-65.27179136
 20
-91.49370649
 30
0.0
  0
VERTEX
  8
0
  6
CONTINUOUS
 62
       7
  5
17D
 10
-65.2313415
 20
-91.63513421
 30
0.0
  0
VERTEX
  8
0
  6
CONTINUOUS
 62
       7
  5
17E
 10
-65.19039522
 20
-91.77496451
 30
0.0
  0
VERTEX
  8
0
  6
CONTINUOUS
 62
       7
  5
17F
 10
-65.14884472
 20
-91.91323081
 30
0.0
  0
VERTEX
  8
0
  6
CONTINUOUS
 62
       7
  5
180
 10
-65.10658221
 20
-92.04996654
 30
0.0
  0
VERTEX
  8
0
  6
CONTINUOUS
 62
       7
  5
181
 10
-65.06349989
 20
-92.18520514
 30
0.0
  0
VERTEX
  8
0
  6
CONTINUOUS
 62
       7
  5
182
 10
-65.01948996
 20
-92.31898004
 30
0.0
  0
VERTEX
  8
0
  6
CONTINUOUS
 62
       7
  5
183
 10
-64.97444464
 20
-92.45132466
 30
0.0
  0
VERTEX
  8
0
  6
CONTINUOUS
 62
       7
  5
184
 10
-64.92825612
 20
-92.58227245
 30
0.0
  0
VERTEX
  8
0
  6
CONTINUOUS
 62
       7
  5
185
 10
-64.88081661
 20
-92.71185682
 30
0.0
  0
VERTEX
  8
0
  6
CONTINUOUS
 62
       7
  5
186
 10
-64.83201832
 20
-92.84011122
 30
0.0
  0
VERTEX
  8
0
  6
CONTINUOUS
 62
       7
  5
187
 10
-64.78175344
 20
-92.96706908
 30
0.0
  0
VERTEX
  8
0
  6
CONTINUOUS
 62
       7
  5
188
 10
-64.72991419
 20
-93.09276382
 30
0.0
  0
VERTEX
  8
0
  6
CONTINUOUS
 62
       7
  5
189
 10
-64.67639277
 20
-93.21722888
 30
0.0
  0
VERTEX
  8
0
  6
CONTINUOUS
 62
       7
  5
18A
 10
-64.62108137
 20
-93.34049768
 30
0.0
  0
VERTEX
  8
0
  6
CONTINUOUS
 62
       7
  5
18B
 10
-64.56387222
 20
-93.46260367
 30
0.0
  0
VERTEX
  8
0
  6
CONTINUOUS
 62
       7
  5
18C
 10
-64.5046575
 20
-93.58358027
 30
0.0
  0
SEQEND
  8
0
  6
CONTINUOUS
 62
       7
  5
18D
  0
POLYLINE
  8
0
  6
CONTINUOUS
 62
       7
  5
AE
 66
       1
 10
0.0
 20
0.0
 30
0.0
  0
VERTEX
  8
0
  6
CONTINUOUS
 62
       7
  5
18E
 10
-79.91032526
 20
-89.42115286
 30
0.0
  0
VERTEX
  8
0
  6
CONTINUOUS
 62
       7
  5
18F
 10
-79.82973006
 20
-89.45299972
 30
0.0
  0
VERTEX
  8
0
  6
CONTINUOUS
 62
       7
  5
190
 10
-79.74805975
 20
-89.48355999
 30
0.0
  0
VERTEX
  8
0
  6
CONTINUOUS
 62
       7
  5
191
 10
-79.66543487
 20
-89.51266382
 30
0.0
  0
VERTEX
  8
0
  6
CONTINUOUS
 62
       7
  5
192
 10
-79.58197595
 20
-89.5401414
 30
0.0
  0
VERTEX
  8
0
  6
CONTINUOUS
 62
       7
  5
193
 10
-79.49780354
 20
-89.5658229
 30
0.0
  0
VERTEX
  8
0
  6
CONTINUOUS
 62
       7
  5
194
 10
-79.41303819
 20
-89.58953847
 30
0.0
  0
VERTEX
  8
0
  6
CONTINUOUS
 62
       7
  5
195
 10
-79.32780042
 20
-89.61111831
 30
0.0
  0
VERTEX
  8
0
  6
CONTINUOUS
 62
       7
  5
196
 10
-79.24221079
 20
-89.63039257
 30
0.0
  0
VERTEX
  8
0
  6
CONTINUOUS
 62
       7
  5
197
 10
-79.15638983
 20
-89.64719142
 30
0.0
  0
VERTEX
  8
0
  6
CONTINUOUS
 62
       7
  5
198
 10
-79.07045808
 20
-89.66134505
 30
0.0
  0
VERTEX
  8
0
  6
CONTINUOUS
 62
       7
  5
199
 10
-78.98453608
 20
-89.67268361
 30
0.0
  0
VERTEX
  8
0
  6
CONTINUOUS
 62
       7
  5
19A
 10
-78.89874438
 20
-89.68103728
 30
0.0
  0
VERTEX
  8
0
  6
CONTINUOUS
 62
       7
  5
19B
 10
-78.81320352
 20
-89.68623624
 30
0.0
  0
VERTEX
  8
0
  6
CONTINUOUS
 62
       7
  5
19C
 10
-78.72803404
 20
-89.68811064
 30
0.0
  0
VERTEX
  8
0
  6
CONTINUOUS
 62
       7
  5
19D
 10
-78.64335647
 20
-89.68649067
 30
0.0
  0
VERTEX
  8
0
  6
CONTINUOUS
 62
       7
  5
19E
 10
-78.55929136
 20
-89.68120649
 30
0.0
  0
VERTEX
  8
0
  6
CONTINUOUS
 62
       7
  5
19F
 10
-78.41276633
 20
-89.6628198
 30
0.0
  0
VERTEX
  8
0
  6
CONTINUOUS
 62
       7
  5
1A0
 10
-78.26821966
 20
-89.63368869
 30
0.0
  0
VERTEX
  8
0
  6
CONTINUOUS
 62
       7
  5
1A1
 10
-78.12544064
 20
-89.59492211
 30
0.0
  0
VERTEX
  8
0
  6
CONTINUOUS
 62
       7
  5
1A2
 10
-77.98421855
 20
-89.54762902
 30
0.0
  0
VERTEX
  8
0
  6
CONTINUOUS
 62
       7
  5
1A3
 10
-77.84434265
 20
-89.4929184
 30
0.0
  0
VERTEX
  8
0
  6
CONTINUOUS
 62
       7
  5
1A4
 10
-77.70560225
 20
-89.43189918
 30
0.0
  0
VERTEX
  8
0
  6
CONTINUOUS
 62
       7
  5
1A5
 10
-77.5677866
 20
-89.36568035
 30
0.0
  0
VERTEX
  8
0
  6
CONTINUOUS
 62
       7
  5
1A6
 10
-77.430685
 20
-89.29537086
 30
0.0
  0
VERTEX
  8
0
  6
CONTINUOUS
 62
       7
  5
1A7
 10
-77.29408673
 20
-89.22207966
 30
0.0
  0
VERTEX
  8
0
  6
CONTINUOUS
 62
       7
  5
1A8
 10
-77.15778106
 20
-89.14691573
 30
0.0
  0
VERTEX
  8
0
  6
CONTINUOUS
 62
       7
  5
1A9
 10
-77.02155727
 20
-89.07098802
 30
0.0
  0
VERTEX
  8
0
  6
CONTINUOUS
 62
       7
  5
1AA
 10
-76.88520464
 20
-88.9954055
 30
0.0
  0
VERTEX
  8
0
  6
CONTINUOUS
 62
       7
  5
1AB
 10
-76.74851246
 20
-88.92127713
 30
0.0
  0
VERTEX
  8
0
  6
CONTINUOUS
 62
       7
  5
1AC
 10
-76.61127
 20
-88.84971186
 30
0.0
  0
VERTEX
  8
0
  6
CONTINUOUS
 62
       7
  5
1AD
 10
-76.47326654
 20
-88.78181866
 30
0.0
  0
VERTEX
  8
0
  6
CONTINUOUS
 62
       7
  5
1AE
 10
-76.33429136
 20
-88.71870649
 30
0.0
  0
VERTEX
  8
0
  6
CONTINUOUS
 62
       7
  5
1AF
 10
-76.22905132
 20
-88.67495675
 30
0.0
  0
VERTEX
  8
0
  6
CONTINUOUS
 62
       7
  5
1B0
 10
-76.12312046
 20
-88.63448799
 30
0.0
  0
VERTEX
  8
0
  6
CONTINUOUS
 62
       7
  5
1B1
 10
-76.01643939
 20
-88.59733375
 30
0.0
  0
VERTEX
  8
0
  6
CONTINUOUS
 62
       7
  5
1B2
 10
-75.90894872
 20
-88.56352754
 30
0.0
  0
VERTEX
  8
0
  6
CONTINUOUS
 62
       7
  5
1B3
 10
-75.80058905
 20
-88.53310292
 30
0.0
  0
VERTEX
  8
0
  6
CONTINUOUS
 62
       7
  5
1B4
 10
-75.69130099
 20
-88.5060934
 30
0.0
  0
VERTEX
  8
0
  6
CONTINUOUS
 62
       7
  5
1B5
 10
-75.58102513
 20
-88.48253253
 30
0.0
  0
VERTEX
  8
0
  6
CONTINUOUS
 62
       7
  5
1B6
 10
-75.46970209
 20
-88.46245383
 30
0.0
  0
VERTEX
  8
0
  6
CONTINUOUS
 62
       7
  5
1B7
 10
-75.35727246
 20
-88.44589084
 30
0.0
  0
VERTEX
  8
0
  6
CONTINUOUS
 62
       7
  5
1B8
 10
-75.24367685
 20
-88.43287709
 30
0.0
  0
VERTEX
  8
0
  6
CONTINUOUS
 62
       7
  5
1B9
 10
-75.12885586
 20
-88.42344612
 30
0.0
  0
VERTEX
  8
0
  6
CONTINUOUS
 62
       7
  5
1BA
 10
-75.01275009
 20
-88.41763145
 30
0.0
  0
VERTEX
  8
0
  6
CONTINUOUS
 62
       7
  5
1BB
 10
-74.89530016
 20
-88.41546662
 30
0.0
  0
VERTEX
  8
0
  6
CONTINUOUS
 62
       7
  5
1BC
 10
-74.77644665
 20
-88.41698516
 30
0.0
  0
VERTEX
  8
0
  6
CONTINUOUS
 62
       7
  5
1BD
 10
-74.65613019
 20
-88.4222206
 30
0.0
  0
VERTEX
  8
0
  6
CONTINUOUS
 62
       7
  5
1BE
 10
-74.53429136
 20
-88.43120649
 30
0.0
  0
VERTEX
  8
0
  6
CONTINUOUS
 62
       7
  5
1BF
 10
-74.35301243
 20
-88.45099568
 30
0.0
  0
VERTEX
  8
0
  6
CONTINUOUS
 62
       7
  5
1C0
 10
-74.16970291
 20
-88.47848952
 30
0.0
  0
VERTEX
  8
0
  6
CONTINUOUS
 62
       7
  5
1C1
 10
-73.98575858
 20
-88.51370376
 30
0.0
  0
VERTEX
  8
0
  6
CONTINUOUS
 62
       7
  5
1C2
 10
-73.80257521
 20
-88.55665414
 30
0.0
  0
VERTEX
  8
0
  6
CONTINUOUS
 62
       7
  5
1C3
 10
-73.62154858
 20
-88.6073564
 30
0.0
  0
VERTEX
  8
0
  6
CONTINUOUS
 62
       7
  5
1C4
 10
-73.44407446
 20
-88.66582627
 30
0.0
  0
VERTEX
  8
0
  6
CONTINUOUS
 62
       7
  5
1C5
 10
-73.27154862
 20
-88.73207949
 30
0.0
  0
VERTEX
  8
0
  6
CONTINUOUS
 62
       7
  5
1C6
 10
-73.10536683
 20
-88.80613181
 30
0.0
  0
VERTEX
  8
0
  6
CONTINUOUS
 62
       7
  5
1C7
 10
-72.94692487
 20
-88.88799896
 30
0.0
  0
VERTEX
  8
0
  6
CONTINUOUS
 62
       7
  5
1C8
 10
-72.79761852
 20
-88.97769668
 30
0.0
  0
VERTEX
  8
0
  6
CONTINUOUS
 62
       7
  5
1C9
 10
-72.65884354
 20
-89.07524072
 30
0.0
  0
VERTEX
  8
0
  6
CONTINUOUS
 62
       7
  5
1CA
 10
-72.53199571
 20
-89.18064681
 30
0.0
  0
VERTEX
  8
0
  6
CONTINUOUS
 62
       7
  5
1CB
 10
-72.41847081
 20
-89.29393069
 30
0.0
  0
VERTEX
  8
0
  6
CONTINUOUS
 62
       7
  5
1CC
 10
-72.3196646
 20
-89.41510811
 30
0.0
  0
VERTEX
  8
0
  6
CONTINUOUS
 62
       7
  5
1CD
 10
-72.23697286
 20
-89.54419479
 30
0.0
  0
VERTEX
  8
0
  6
CONTINUOUS
 62
       7
  5
1CE
 10
-72.17179136
 20
-89.68120649
 30
0.0
  0
VERTEX
  8
0
  6
CONTINUOUS
 62
       7
  5
1CF
 10
-72.13793923
 20
-89.77894504
 30
0.0
  0
VERTEX
  8
0
  6
CONTINUOUS
 62
       7
  5
1D0
 10
-72.1121543
 20
-89.88020128
 30
0.0
  0
VERTEX
  8
0
  6
CONTINUOUS
 62
       7
  5
1D1
 10
-72.09392062
 20
-89.98466549
 30
0.0
  0
VERTEX
  8
0
  6
CONTINUOUS
 62
       7
  5
1D2
 10
-72.08272224
 20
-90.09202795
 30
0.0
  0
VERTEX
  8
0
  6
CONTINUOUS
 62
       7
  5
1D3
 10
-72.07804322
 20
-90.20197897
 30
0.0
  0
VERTEX
  8
0
  6
CONTINUOUS
 62
       7
  5
1D4
 10
-72.07936761
 20
-90.31420882
 30
0.0
  0
VERTEX
  8
0
  6
CONTINUOUS
 62
       7
  5
1D5
 10
-72.08617947
 20
-90.42840779
 30
0.0
  0
VERTEX
  8
0
  6
CONTINUOUS
 62
       7
  5
1D6
 10
-72.09796286
 20
-90.54426617
 30
0.0
  0
VERTEX
  8
0
  6
CONTINUOUS
 62
       7
  5
1D7
 10
-72.11420182
 20
-90.66147424
 30
0.0
  0
VERTEX
  8
0
  6
CONTINUOUS
 62
       7
  5
1D8
 10
-72.13438042
 20
-90.77972231
 30
0.0
  0
VERTEX
  8
0
  6
CONTINUOUS
 62
       7
  5
1D9
 10
-72.1579827
 20
-90.89870064
 30
0.0
  0
VERTEX
  8
0
  6
CONTINUOUS
 62
       7
  5
1DA
 10
-72.18449273
 20
-91.01809954
 30
0.0
  0
VERTEX
  8
0
  6
CONTINUOUS
 62
       7
  5
1DB
 10
-72.21339456
 20
-91.13760928
 30
0.0
  0
VERTEX
  8
0
  6
CONTINUOUS
 62
       7
  5
1DC
 10
-72.24417223
 20
-91.25692016
 30
0.0
  0
VERTEX
  8
0
  6
CONTINUOUS
 62
       7
  5
1DD
 10
-72.27630982
 20
-91.37572247
 30
0.0
  0
VERTEX
  8
0
  6
CONTINUOUS
 62
       7
  5
1DE
 10
-72.30929136
 20
-91.49370649
 30
0.0
  0
VERTEX
  8
0
  6
CONTINUOUS
 62
       7
  5
1DF
 10
-72.34974125
 20
-91.63513429
 30
0.0
  0
VERTEX
  8
0
  6
CONTINUOUS
 62
       7
  5
1E0
 10
-72.39068755
 20
-91.77496466
 30
0.0
  0
VERTEX
  8
0
  6
CONTINUOUS
 62
       7
  5
1E1
 10
-72.43223807
 20
-91.91323103
 30
0.0
  0
VERTEX
  8
0
  6
CONTINUOUS
 62
       7
  5
1E2
 10
-72.47450061
 20
-92.04996684
 30
0.0
  0
VERTEX
  8
0
  6
CONTINUOUS
 62
       7
  5
1E3
 10
-72.51758296
 20
-92.18520551
 30
0.0
  0
VERTEX
  8
0
  6
CONTINUOUS
 62
       7
  5
1E4
 10
-72.56159291
 20
-92.31898048
 30
0.0
  0
VERTEX
  8
0
  6
CONTINUOUS
 62
       7
  5
1E5
 10
-72.60663826
 20
-92.45132517
 30
0.0
  0
VERTEX
  8
0
  6
CONTINUOUS
 62
       7
  5
1E6
 10
-72.65282681
 20
-92.58227303
 30
0.0
  0
VERTEX
  8
0
  6
CONTINUOUS
 62
       7
  5
1E7
 10
-72.70026635
 20
-92.71185747
 30
0.0
  0
VERTEX
  8
0
  6
CONTINUOUS
 62
       7
  5
1E8
 10
-72.74906467
 20
-92.84011193
 30
0.0
  0
VERTEX
  8
0
  6
CONTINUOUS
 62
       7
  5
1E9
 10
-72.79932959
 20
-92.96706985
 30
0.0
  0
VERTEX
  8
0
  6
CONTINUOUS
 62
       7
  5
1EA
 10
-72.85116888
 20
-93.09276466
 30
0.0
  0
VERTEX
  8
0
  6
CONTINUOUS
 62
       7
  5
1EB
 10
-72.90469034
 20
-93.21722977
 30
0.0
  0
VERTEX
  8
0
  6
CONTINUOUS
 62
       7
  5
1EC
 10
-72.96000178
 20
-93.34049864
 30
0.0
  0
VERTEX
  8
0
  6
CONTINUOUS
 62
       7
  5
1ED
 10
-73.01721098
 20
-93.46260469
 30
0.0
  0
VERTEX
  8
0
  6
CONTINUOUS
 62
       7
  5
1EE
 10
-73.07642575
 20
-93.58358134
 30
0.0
  0
SEQEND
  8
0
  6
CONTINUOUS
 62
       7
  5
1EF
  0
CIRCLE
  8
0
  6
CONTINUOUS
 62
       7
  5
AF
 10
104.19760618
 20
10.4910805
 30
0.0
 40
5.49999952
  0
CIRCLE
  8
0
  6
CONTINUOUS
 62
       2
  5
B0
 10
104.19760618
 20
10.4910805
 30
0.0
 40
6.49999976
  0
LINE
  8
0
  6
CONTINUOUS
 62
       7
  5
B1
 10
112.70320864
 20
21.98129351
 30
0.0
 11
112.70320864
 21
-1.01870649
 31
0.0
  0
LINE
  8
0
  6
CONTINUOUS
 62
       7
  5
B2
 10
95.70320864
 20
21.98129351
 30
0.0
 11
95.70320864
 21
-1.01870649
 31
0.0
  0
LINE
  8
0
  6
CONTINUOUS
 62
       7
  5
B3
 10
-89.79223085
 20
12.96409127
 30
0.0
 11
-89.79223085
 21
91.48129351
 31
0.0
  0
ARC
  8
0
  6
CONTINUOUS
 62
       7
  5
B4
 10
-84.79223085
 20
91.48129351
 30
0.0
 40
5.0
 50
90.0
 51
180.0
  0
LINE
  8
0
  6
CONTINUOUS
 62
       7
  5
B5
 10
-46.30095803
 20
74.48129351
 30
0.0
 11
-47.80095803
 21
81.48129351
 31
0.0
  0
LINE
  8
0
  6
CONTINUOUS
 62
       7
  5
B6
 10
-46.30095803
 20
74.48129351
 30
0.0
 11
-46.30095803
 21
48.48129351
 31
0.0
  0
ARC
  8
0
  6
CONTINUOUS
 62
       7
  5
B7
 10
-45.68378085
 20
61.4952387
 30
0.0
 40
20.09788113
 50
96.02192778
 51
161.27267044
  0
LINE
  8
0
  6
CONTINUOUS
 62
       7
  5
B8
 10
-46.30095803
 20
74.48129351
 30
0.0
 11
-26.80095803
 21
74.48129351
 31
0.0
  0
ARC
  8
0
  6
CONTINUOUS
 62
       7
  5
B9
 10
-52.59518388
 20
91.48129351
 30
0.0
 40
5.0
 50
12.09475708
 51
90.0
  0
ARC
  8
0
  6
CONTINUOUS
 62
       7
  5
BA
 10
-45.67045628
 20
61.48400403
 30
0.0
 40
20.11585111
 50
198.76007311
 51
263.92031039
  0
LINE
  8
0
  6
CONTINUOUS
 62
       7
  5
BB
 10
-84.79223085
 20
96.48129351
 30
0.0
 11
-52.59518388
 21
96.48129351
 31
0.0
  0
LINE
  8
0
  6
CONTINUOUS
 62
       7
  5
BC
 10
-29.80095803
 20
74.48129351
 30
0.0
 11
-29.80095803
 21
48.48129351
 31
0.0
  0
LINE
  8
0
  6
CONTINUOUS
 62
       2
  5
BD
 10
-94.42586588
 20
61.48129351
 30
0.0
 11
28.35123461
 21
61.48129351
 31
0.0
  0
ARC
  8
0
  6
CONTINUOUS
 62
       7
  5
BE
 10
-26.80095803
 20
49.48129351
 30
0.0
 40
1.0
 50
270.0
 51
0.0
  0
LINE
  8
0
  6
CONTINUOUS
 62
       7
  5
BF
 10
7.93564878
 20
64.73129351
 30
0.0
 11
17.93564878
 21
64.73129351
 31
0.0
  0
LINE
  8
0
  6
CONTINUOUS
 62
       7
  5
C0
 10
7.93564878
 20
63.73129351
 30
0.0
 11
17.93564878
 21
63.73129351
 31
0.0
  0
LINE
  8
0
  6
CONTINUOUS
 62
       7
  5
C1
 10
7.93564878
 20
59.23129351
 30
0.0
 11
17.93564878
 21
59.23129351
 31
0.0
  0
LINE
  8
0
  6
CONTINUOUS
 62
       7
  5
C2
 10
7.93564878
 20
58.23129351
 30
0.0
 11
17.93564878
 21
58.23129351
 31
0.0
  0
LINE
  8
0
  6
CONTINUOUS
 62
       7
  5
C3
 10
7.93564878
 20
62.98129351
 30
0.0
 11
7.93564878
 21
65.48129357
 31
0.0
  0
LINE
  8
0
  6
CONTINUOUS
 62
       7
  5
C4
 10
7.93564878
 20
57.48129357
 30
0.0
 11
7.93564878
 21
59.98129351
 31
0.0
  0
LINE
  8
0
  6
CONTINUOUS
 62
       7
  5
C5
 10
-10.69246368
 20
57.48129351
 30
0.0
 11
7.93564878
 21
57.48129351
 31
0.0
  0
LINE
  8
0
  6
CONTINUOUS
 62
       7
  5
C6
 10
-10.25164623
 20
59.98129351
 30
0.0
 11
7.93564878
 21
59.98129351
 31
0.0
  0
LINE
  8
0
  6
CONTINUOUS
 62
       7
  5
C7
 10
-9.72266529
 20
62.98129351
 30
0.0
 11
7.93564878
 21
62.98129351
 31
0.0
  0
LINE
  8
0
  6
CONTINUOUS
 62
       7
  5
C8
 10
-9.28184784
 20
65.48129351
 30
0.0
 11
7.93564878
 21
65.48129351
 31
0.0
  0
LINE
  8
0
  6
PHANTOM
 62
       7
  5
CA
 10
-14.48924039
 20
53.22501434
 30
0.0
 11
-11.61296927
 21
69.53715838
 31
0.0
  0
LINE
  8
0
  6
PHANTOM
 62
       7
  5
CB
 10
-11.53481714
 20
52.70406963
 30
0.0
 11
-8.65854598
 21
69.01621403
 31
0.0
  0
ARC
  8
0
  6
CONTINUOUS
 62
       7
  5
CC
 10
-23.80095803
 20
54.98129351
 30
0.0
 40
1.0
 50
270.0
 51
0.0
  0
ARC
  8
0
  6
CONTINUOUS
 62
       7
  5
CD
 10
-23.80095803
 20
67.98129351
 30
0.0
 40
1.0
 50
0.0
 51
90.0
  0
LINE
  8
0
  6
CONTINUOUS
 62
       7
  5
CE
 10
-22.80095803
 20
67.98129351
 30
0.0
 11
-22.80095803
 21
54.98129351
 31
0.0
  0
LINE
  8
0
  6
CONTINUOUS
 62
       7
  5
CF
 10
-25.80095803
 20
53.98129351
 30
0.0
 11
-23.80095803
 21
53.98129351
 31
0.0
  0
LINE
  8
0
  6
CONTINUOUS
 62
       7
  5
D0
 10
-25.80095803
 20
68.98129351
 30
0.0
 11
-23.80095803
 21
68.98129351
 31
0.0
  0
ARC
  8
0
  6
CONTINUOUS
 62
       7
  5
D1
 10
-26.80095803
 20
73.48129351
 30
0.0
 40
1.0
 50
0.0
 51
90.0
  0
LINE
  8
0
  6
CONTINUOUS
 62
       7
  5
D2
 10
-25.80095803
 20
73.48129351
 30
0.0
 11
-25.80095803
 21
49.48129351
 31
0.0
  0
LINE
  8
0
  6
CONTINUOUS
 62
       7
  5
D3
 10
-29.80095803
 20
73.98129351
 30
0.0
 11
-25.93493263
 21
73.98129351
 31
0.0
  0
LINE
  8
0
  6
CONTINUOUS
 62
       7
  5
D4
 10
-29.80095803
 20
72.98129351
 30
0.0
 11
-25.80095803
 21
72.98129351
 31
0.0
  0
LINE
  8
0
  6
CONTINUOUS
 62
       7
  5
D5
 10
-29.80095803
 20
71.48129351
 30
0.0
 11
-25.80095803
 21
71.48129351
 31
0.0
  0
LINE
  8
0
  6
CONTINUOUS
 62
       7
  5
D6
 10
-29.80095803
 20
69.48129351
 30
0.0
 11
-25.80095803
 21
69.48129351
 31
0.0
  0
LINE
  8
0
  6
CONTINUOUS
 62
       7
  5
D7
 10
-29.80095803
 20
66.98129351
 30
0.0
 11
-25.80095803
 21
66.98129351
 31
0.0
  0
LINE
  8
0
  6
CONTINUOUS
 62
       7
  5
D8
 10
-29.80095803
 20
64.48129351
 30
0.0
 11
-25.80095803
 21
64.48129351
 31
0.0
  0
LINE
  8
0
  6
CONTINUOUS
 62
       7
  5
D9
 10
-22.80095803
 20
65.48129351
 30
0.0
 11
-12.32812768
 21
65.48129351
 31
0.0
  0
LINE
  8
0
  6
CONTINUOUS
 62
       7
  5
DA
 10
-22.80095803
 20
59.98129351
 30
0.0
 11
-13.29792608
 21
59.98129351
 31
0.0
  0
LINE
  8
0
  6
CONTINUOUS
 62
       7
  5
DB
 10
-22.80095803
 20
57.48129351
 30
0.0
 11
-13.73874353
 21
57.48129351
 31
0.0
  0
LINE
  8
0
  6
CONTINUOUS
 62
       7
  5
DC
 10
17.93564878
 20
59.23129351
 30
0.0
 11
17.93564878
 21
58.23129351
 31
0.0
  0
LINE
  8
0
  6
CONTINUOUS
 62
       7
  5
DD
 10
17.93564878
 20
64.73129351
 30
0.0
 11
17.93564878
 21
63.73129351
 31
0.0
  0
CIRCLE
  8
0
  6
CONTINUOUS
 62
       7
  5
DE
 10
-68.78429136
 20
27.48129351
 30
0.0
 40
3.50926276
  0
LINE
  8
0
  6
CONTINUOUS
 62
       7
  5
DF
 10
-67.53960022
 20
26.23660237
 30
0.0
 11
-70.17298462
 21
28.86998677
 31
0.0
  0
LINE
  8
0
  6
CONTINUOUS
 62
       7
  5
E0
 10
-70.02898251
 20
26.23660237
 30
0.0
 11
-67.3955981
 21
28.86998677
 31
0.0
  0
LINE
  8
0
  6
CONTINUOUS
 62
       2
  5
E1
 10
-74.68034219
 20
27.48129351
 30
0.0
 11
-63.42035367
 21
27.48129351
 31
0.0
  0
LINE
  8
0
  6
CONTINUOUS
 62
       7
  5
E2
 10
-47.79223089
 20
12.96409127
 30
0.0
 11
-47.79223089
 21
41.48036591
 31
0.0
  0
LINE
  8
0
  6
CONTINUOUS
 62
       7
  5
E3
 10
-46.30095803
 20
48.48129351
 30
0.0
 11
-26.80095803
 21
48.48129351
 31
0.0
  0
LINE
  8
0
  6
CONTINUOUS
 62
       7
  5
E4
 10
-46.30095803
 20
48.48129351
 30
0.0
 11
-47.80095803
 21
41.48129351
 31
0.0
  0
ARC
  8
0
  6
CONTINUOUS
 62
       7
  5
E5
 10
90.194941
 20
89.48162166
 30
0.0
 40
6.99967248
 50
89.97565104
 51
180.02434896
  0
ARC
  8
0
  6
CONTINUOUS
 62
       7
  5
E6
 10
118.21461409
 20
89.48475948
 30
0.0
 40
6.99653671
 50
359.94994407
 51
90.05005593
  0
LINE
  8
0
  6
CONTINUOUS
 62
       7
  5
E7
 10
83.19526915
 20
21.98129351
 30
0.0
 11
83.19526915
 21
89.47864702
 31
0.0
  0
LINE
  8
0
  6
CONTINUOUS
 62
       7
  5
E8
 10
125.21114813
 20
21.98129351
 30
0.0
 11
125.21114813
 21
89.47864702
 31
0.0
  0
CIRCLE
  8
0
  6
CONTINUOUS
 62
       7
  5
E9
 10
104.20320864
 20
64.23129351
 30
0.0
 40
2.5
  0
CIRCLE
  8
0
  6
CONTINUOUS
 62
       7
  5
EA
 10
104.20320864
 20
61.48129351
 30
0.0
 40
7.5
  0
CIRCLE
  8
0
  6
CONTINUOUS
 62
       7
  5
EB
 10
104.20320864
 20
61.48129351
 30
0.0
 40
13.0
  0
ARC
  8
0
  6
CONTINUOUS
 62
       7
  5
EC
 10
104.20320864
 20
61.48129351
 30
0.0
 40
20.0
 50
14.47751219
 51
165.52248781
  0
LINE
  8
0
  6
CONTINUOUS
 62
       7
  5
ED
 10
118.20850163
 20
96.48129351
 30
0.0
 11
90.19791564
 21
96.48129351
 31
0.0
  0
ARC
  8
0
  6
CONTINUOUS
 62
       7
  5
EE
 10
104.20320864
 20
61.48129351
 30
0.0
 40
20.0
 50
194.47751219
 51
345.52248781
  0
LINE
  8
0
  6
CONTINUOUS
 62
       2
  5
EF
 10
77.20317022
 20
61.48129351
 30
0.0
 11
132.03294068
 21
61.48129351
 31
0.0
  0
LINE
  8
0
  6
CONTINUOUS
 62
       2
  5
F0
 10
99.43344797
 20
58.73129351
 30
0.0
 11
108.9729693
 21
58.73129351
 31
0.0
  0
CIRCLE
  8
0
  6
CONTINUOUS
 62
       7
  5
F1
 10
104.20320864
 20
58.73129351
 30
0.0
 40
2.5
  0
CIRCLE
  8
0
  6
CONTINUOUS
 62
       7
  5
F2
 10
104.20320864
 20
58.73129351
 30
0.0
 40
1.0
  0
LINE
  8
0
  6
CONTINUOUS
 62
       2
  5
F3
 10
99.43344797
 20
64.23129351
 30
0.0
 11
108.9729693
 21
64.23129351
 31
0.0
  0
CIRCLE
  8
0
  6
CONTINUOUS
 62
       7
  5
F4
 10
104.20320864
 20
64.23129351
 30
0.0
 40
1.0
  0
LINE
  8
0
  6
CONTINUOUS
 62
       7
  5
F5
 10
-47.79223089
 20
81.48221608
 30
0.0
 11
-47.79223089
 21
92.52893896
 31
0.0
  0
LINE
  8
0
  6
CONTINUOUS
 62
       2
  5
F6
 10
-68.78429136
 20
102.32256703
 30
0.0
 11
-68.78429136
 21
-17.10620649
 31
0.0
  0
LINE
  8
0
  6
CONTINUOUS
 62
       2
  5
F7
 10
129.06114813
 20
27.48129351
 30
0.0
 11
124.39864813
 21
27.48129351
 31
0.0
  0
LINE
  8
0
  6
CONTINUOUS
 62
       7
  5
F8
 10
125.66114813
 20
23.98129351
 30
0.0
 11
125.21114813
 21
23.98129351
 31
0.0
  0
LINE
  8
0
  6
CONTINUOUS
 62
       7
  5
F9
 10
125.66114813
 20
30.98129351
 30
0.0
 11
125.21114813
 21
30.98129351
 31
0.0
  0
ARC
  8
0
  6
CONTINUOUS
 62
       7
  5
FA
 10
125.67098509
 20
28.39113047
 30
0.0
 40
2.59018172
 50
359.78240229
 51
90.21759771
  0
ARC
  8
0
  6
CONTINUOUS
 62
       7
  5
FB
 10
125.66118713
 20
26.58125451
 30
0.0
 40
2.599961
 50
269.99914058
 51
0.00085942
  0
LINE
  8
0
  6
CONTINUOUS
 62
       7
  5
FC
 10
128.26114813
 20
28.38129351
 30
0.0
 11
128.26114813
 21
26.58129351
 31
0.0
  0
LINE
  8
0
  6
CONTINUOUS
 62
       7
  5
FD
 10
125.66114813
 20
30.98129351
 30
0.0
 11
125.66114813
 21
23.98129351
 31
0.0
  0
LINE
  8
0
  6
CONTINUOUS
 62
       2
  5
FE
 10
79.34526915
 20
27.48129351
 30
0.0
 11
84.00776915
 21
27.48129351
 31
0.0
  0
LINE
  8
0
  6
CONTINUOUS
 62
       7
  5
FF
 10
82.74526915
 20
23.98129351
 30
0.0
 11
83.19526915
 21
23.98129351
 31
0.0
  0
LINE
  8
0
  6
CONTINUOUS
 62
       7
  5
100
 10
82.74526915
 20
30.98129351
 30
0.0
 11
83.19526915
 21
30.98129351
 31
0.0
  0
LINE
  8
0
  6
CONTINUOUS
 62
       7
  5
101
 10
82.74526915
 20
30.98129351
 30
0.0
 11
82.74526915
 21
23.98129351
 31
0.0
  0
LINE
  8
0
  6
CONTINUOUS
 62
       7
  5
102
 10
80.14526915
 20
28.38129351
 30
0.0
 11
80.14526915
 21
26.58129351
 31
0.0
  0
ARC
  8
0
  6
CONTINUOUS
 62
       7
  5
103
 10
82.74523015
 20
26.58125451
 30
0.0
 40
2.599961
 50
179.99914058
 51
270.00085942
  0
ARC
  8
0
  6
CONTINUOUS
 62
       7
  5
104
 10
82.73543219
 20
28.39113047
 30
0.0
 40
2.59018172
 50
89.78240229
 51
180.21759771
  0
LINE
  8
0
  6
CONTINUOUS
 62
       2
  5
105
 10
-74.74253318
 20
35.98129351
 30
0.0
 11
-117.09946864
 21
35.98129351
 31
0.0
  0
LINE
  8
0
  6
CONTINUOUS
 62
       7
  5
106
 10
-89.79223085
 20
38.98129351
 30
0.0
 11
-92.96541066
 21
38.98129351
 31
0.0
  0
LINE
  8
0
  6
CONTINUOUS
 62
       7
  5
107
 10
-89.79223085
 20
32.98129351
 30
0.0
 11
-92.96541066
 21
32.98129351
 31
0.0
  0
LINE
  8
0
  6
CONTINUOUS
 62
       7
  5
108
 10
-93.66541066
 20
40.98129351
 30
0.0
 11
-95.78429136
 21
40.98129351
 31
0.0
  0
LINE
  8
0
  6
CONTINUOUS
 62
       7
  5
109
 10
-93.66541066
 20
30.98129351
 30
0.0
 11
-95.78429136
 21
30.98129351
 31
0.0
  0
LINE
  8
0
  6
CONTINUOUS
 62
       7
  5
10A
 10
-95.78429136
 20
29.98129351
 30
0.0
 11
-96.30390661
 21
29.08129351
 31
0.0
  0
LINE
  8
0
  6
CONTINUOUS
 62
       7
  5
10B
 10
-108.78429136
 20
29.98129351
 30
0.0
 11
-108.26467612
 21
29.08129351
 31
0.0
  0
LINE
  8
0
  6
CONTINUOUS
 62
       7
  5
10C
 10
-95.78429136
 20
41.98129351
 30
0.0
 11
-96.30390661
 21
42.88129351
 31
0.0
  0
LINE
  8
0
  6
CONTINUOUS
 62
       7
  5
10D
 10
-108.78429136
 20
41.98129351
 30
0.0
 11
-108.26467612
 21
42.88129351
 31
0.0
  0
LINE
  8
0
  6
CONTINUOUS
 62
       7
  5
10E
 10
-95.78429136
 20
29.98129351
 30
0.0
 11
-95.78429136
 21
41.98129351
 31
0.0
  0
LINE
  8
0
  6
CONTINUOUS
 62
       7
  5
10F
 10
-108.78429136
 20
29.98129351
 30
0.0
 11
-108.78429136
 21
41.98129351
 31
0.0
  0
LINE
  8
0
  6
CONTINUOUS
 62
       7
  5
110
 10
-96.30390661
 20
29.08129351
 30
0.0
 11
-108.26467612
 21
29.08129351
 31
0.0
  0
LINE
  8
0
  6
CONTINUOUS
 62
       7
  5
111
 10
-96.30390661
 20
42.88129351
 30
0.0
 11
-108.26467612
 21
42.88129351
 31
0.0
  0
LINE
  8
0
  6
CONTINUOUS
 62
       7
  5
112
 10
-92.96541066
 20
31.73129351
 30
0.0
 11
-95.78429136
 21
31.73129351
 31
0.0
  0
LINE
  8
0
  6
CONTINUOUS
 62
       7
  5
113
 10
-92.96541066
 20
40.23129351
 30
0.0
 11
-95.78429136
 21
40.23129351
 31
0.0
  0
LINE
  8
0
  6
CONTINUOUS
 62
       7
  5
114
 10
-93.66541066
 20
30.98129351
 30
0.0
 11
-92.96541066
 21
31.68129351
 31
0.0
  0
LINE
  8
0
  6
CONTINUOUS
 62
       7
  5
115
 10
-92.96541066
 20
40.28129351
 30
0.0
 11
-93.66541066
 21
40.98129351
 31
0.0
  0
LINE
  8
0
  6
CONTINUOUS
 62
       7
  5
116
 10
-92.96541066
 20
31.68129351
 30
0.0
 11
-92.96541066
 21
40.28129351
 31
0.0
  0
LINE
  8
0
  6
CONTINUOUS
 62
       7
  5
117
 10
-108.26467617
 20
39.43129351
 30
0.0
 11
-96.30390661
 21
39.43129351
 31
0.0
  0
LINE
  8
0
  6
CONTINUOUS
 62
       7
  5
118
 10
-108.26467617
 20
32.53129351
 30
0.0
 11
-96.30390663
 21
32.53129351
 31
0.0
  0
ARC
  8
0
  6
CONTINUOUS
 62
       7
  5
119
 10
-105.66118725
 20
41.15629351
 30
0.0
 40
3.12310411
 50
146.47264195
 51
213.52735805
  0
ARC
  8
0
  6
CONTINUOUS
 62
       7
  5
11A
 10
-97.07129778
 20
35.98129351
 30
0.0
 40
11.71299359
 50
162.86976332
 51
197.13023668
  0
ARC
  8
0
  6
CONTINUOUS
 62
       7
  5
11B
 10
-105.66118725
 20
30.80629351
 30
0.0
 40
3.12310411
 50
146.47264195
 51
213.52735805
  0
ARC
  8
0
  6
CONTINUOUS
 62
       7
  5
11C
 10
-98.90739548
 20
41.15629351
 30
0.0
 40
3.12310411
 50
326.47264195
 51
33.52735805
  0
ARC
  8
0
  6
CONTINUOUS
 62
       7
  5
11D
 10
-107.49728495
 20
35.98129351
 30
0.0
 40
11.71299359
 50
342.86976332
 51
17.13023668
  0
ARC
  8
0
  6
CONTINUOUS
 62
       7
  5
11E
 10
-98.90739548
 20
30.80629351
 30
0.0
 40
3.12310411
 50
326.47264195
 51
33.52735805
  0
LINE
  8
0
  6
CONTINUOUS
 62
       2
  5
11F
 10
-50.74137892
 20
35.98129351
 30
0.0
 11
-44.05333261
 21
35.98129351
 31
0.0
  0
LINE
  8
0
  6
CONTINUOUS
 62
       7
  5
120
 10
-47.79223089
 20
40.48129351
 30
0.0
 11
-46.29223089
 21
40.48129351
 31
0.0
  0
LINE
  8
0
  6
CONTINUOUS
 62
       7
  5
121
 10
-47.79223089
 20
31.48129351
 30
0.0
 11
-46.29223089
 21
31.48129351
 31
0.0
  0
LINE
  8
0
  6
CONTINUOUS
 62
       2
  5
122
 10
97.20408857
 20
35.98129351
 30
0.0
 11
110.86051636
 21
35.98129351
 31
0.0
  0
CIRCLE
  8
0
  6
CONTINUOUS
 62
       7
  5
123
 10
104.20320864
 20
35.98129351
 30
0.0
 40
4.5
  0
CIRCLE
  8
0
  6
CONTINUOUS
 62
       7
  5
124
 10
104.20320864
 20
35.98129351
 30
0.0
 40
1.4
  0
LINE
  8
0
  6
CONTINUOUS
 62
       7
  5
125
 10
-46.29223089
 20
31.48129351
 30
0.0
 11
-46.29223089
 21
40.48129351
 31
0.0
  0
TEXT
  8
0
  6
CONTINUOUS
 62
       7
  5
126
 10
-185.70253165
 20
115.3500061
 30
0.0
 40
4.5
  1
MODEL:VA250AE1
 41
1.06329114
  7
MX_NOTE_STANDARD
 11
-185.70253165
 21
117.6000061
 31
0.0
 73
       2
  0
LINE
  8
0
  6
CONTINUOUS
 62
       7
  5
127
 10
-194.25
 20
132.6000061
 30
0.0
 11
194.80000305
 21
132.6000061
 31
0.0
  0
LINE
  8
0
  6
CONTINUOUS
 62
       7
  5
128
 10
194.80000305
 20
132.6000061
 30
0.0
 11
194.80000305
 21
-133.5
 31
0.0
  0
LINE
  8
0
  6
CONTINUOUS
 62
       7
  5
129
 10
-194.25
 20
132.6000061
 30
0.0
 11
-194.25
 21
-133.5
 31
0.0
  0
LINE
  8
0
  6
CONTINUOUS
 62
       7
  5
12A
 10
-194.25
 20
-133.5
 30
0.0
 11
194.80000305
 21
-133.5
 31
0.0
  0
ENDSEC
  0
EOF
