  0
SECTION
  2
HEADER
  9
$ACADVER
  1
AC1015
  9
$ACADMAINTVER
 70
    20
  9
$DWGCODEPAGE
  3
ANSI_932
  9
$INSBASE
 10
0.0
 20
0.0
 30
0.0
  9
$EXTMIN
 10
0.0
 20
0.0
 30
0.0
  9
$EXTMAX
 10
524.4940190000001
 20
360.0
 30
0.0
  9
$LIMMIN
 10
0.0
 20
0.0
  9
$LIMMAX
 10
12.0
 20
9.0
  9
$ORTHOMODE
 70
     0
  9
$REGENMODE
 70
     1
  9
$FILLMODE
 70
     1
  9
$QTEXTMODE
 70
     0
  9
$MIRRTEXT
 70
     0
  9
$LTSCALE
 40
1.0
  9
$ATTMODE
 70
     1
  9
$TEXTSIZE
 40
0.2
  9
$TRACEWID
 40
0.05
  9
$TEXTSTYLE
  7
STANDARD
  9
$CLAYER
  8
0
  9
$CELTYPE
  6
CONTINUOUS
  9
$CECOLOR
 62
   256
  9
$CELTSCALE
 40
1.0
  9
$DISPSILH
 70
     0
  9
$DIMSCALE
 40
1.0
  9
$DIMASZ
 40
0.18
  9
$DIMEXO
 40
0.0625
  9
$DIMDLI
 40
0.38
  9
$DIMRND
 40
0.0
  9
$DIMDLE
 40
0.0
  9
$DIMEXE
 40
0.18
  9
$DIMTP
 40
0.0
  9
$DIMTM
 40
0.0
  9
$DIMTXT
 40
0.18
  9
$DIMCEN
 40
0.09
  9
$DIMTSZ
 40
0.0
  9
$DIMTOL
 70
     0
  9
$DIMLIM
 70
     0
  9
$DIMTIH
 70
     1
  9
$DIMTOH
 70
     1
  9
$DIMSE1
 70
     0
  9
$DIMSE2
 70
     0
  9
$DIMTAD
 70
     0
  9
$DIMZIN
 70
     0
  9
$DIMBLK
  1

  9
$DIMASO
 70
     1
  9
$DIMSHO
 70
     1
  9
$DIMPOST
  1

  9
$DIMAPOST
  1

  9
$DIMALT
 70
     0
  9
$DIMALTD
 70
     2
  9
$DIMALTF
 40
25.4
  9
$DIMLFAC
 40
1.0
  9
$DIMTOFL
 70
     0
  9
$DIMTVP
 40
0.0
  9
$DIMTIX
 70
     0
  9
$DIMSOXD
 70
     0
  9
$DIMSAH
 70
     0
  9
$DIMBLK1
  1

  9
$DIMBLK2
  1

  9
$DIMSTYLE
  2
Standard
  9
$DIMCLRD
 70
     0
  9
$DIMCLRE
 70
     0
  9
$DIMCLRT
 70
     0
  9
$DIMTFAC
 40
1.0
  9
$DIMGAP
 40
0.09
  9
$DIMJUST
 70
     0
  9
$DIMSD1
 70
     0
  9
$DIMSD2
 70
     0
  9
$DIMTOLJ
 70
     1
  9
$DIMTZIN
 70
     0
  9
$DIMALTZ
 70
     0
  9
$DIMALTTZ
 70
     0
  9
$DIMUPT
 70
     0
  9
$DIMDEC
 70
     4
  9
$DIMTDEC
 70
     4
  9
$DIMALTU
 70
     2
  9
$DIMALTTD
 70
     2
  9
$DIMTXSTY
  7
STANDARD
  9
$DIMAUNIT
 70
     0
  9
$DIMADEC
 70
     0
  9
$DIMALTRND
 40
0.0
  9
$DIMAZIN
 70
     0
  9
$DIMDSEP
 70
    46
  9
$DIMATFIT
 70
     3
  9
$DIMFRAC
 70
     0
  9
$DIMLDRBLK
  1

  9
$DIMLUNIT
 70
     2
  9
$DIMLWD
 70
    -2
  9
$DIMLWE
 70
    -2
  9
$DIMTMOVE
 70
     0
  9
$LUNITS
 70
     2
  9
$LUPREC
 70
     4
  9
$SKETCHINC
 40
0.1
  9
$FILLETRAD
 40
0.0
  9
$AUNITS
 70
     0
  9
$AUPREC
 70
     0
  9
$MENU
  1
.
  9
$ELEVATION
 40
0.0
  9
$PELEVATION
 40
0.0
  9
$THICKNESS
 40
0.0
  9
$LIMCHECK
 70
     0
  9
$CHAMFERA
 40
0.0
  9
$CHAMFERB
 40
0.0
  9
$CHAMFERC
 40
0.0
  9
$CHAMFERD
 40
0.0
  9
$SKPOLY
 70
     0
  9
$TDCREATE
 40
2454133.660510069
  9
$TDUCREATE
 40
2454133.285510069
  9
$TDUPDATE
 40
2454133.661172130
  9
$TDUUPDATE
 40
2454133.286172130
  9
$TDINDWG
 40
0.0006969560
  9
$TDUSRTIMER
 40
0.0006969560
  9
$USRTIMER
 70
     1
  9
$ANGBASE
 50
0.0
  9
$ANGDIR
 70
     0
  9
$PDMODE
 70
     0
  9
$PDSIZE
 40
0.0
  9
$PLINEWID
 40
0.0
  9
$SPLFRAME
 70
     0
  9
$SPLINETYPE
 70
     6
  9
$SPLINESEGS
 70
     8
  9
$HANDSEED
  5
345
  9
$SURFTAB1
 70
     6
  9
$SURFTAB2
 70
     6
  9
$SURFTYPE
 70
     6
  9
$SURFU
 70
     6
  9
$SURFV
 70
     6
  9
$UCSBASE
  2

  9
$UCSNAME
  2

  9
$UCSORG
 10
0.0
 20
0.0
 30
0.0
  9
$UCSXDIR
 10
1.0
 20
0.0
 30
0.0
  9
$UCSYDIR
 10
0.0
 20
1.0
 30
0.0
  9
$UCSORTHOREF
  2

  9
$UCSORTHOVIEW
 70
     0
  9
$UCSORGTOP
 10
0.0
 20
0.0
 30
0.0
  9
$UCSORGBOTTOM
 10
0.0
 20
0.0
 30
0.0
  9
$UCSORGLEFT
 10
0.0
 20
0.0
 30
0.0
  9
$UCSORGRIGHT
 10
0.0
 20
0.0
 30
0.0
  9
$UCSORGFRONT
 10
0.0
 20
0.0
 30
0.0
  9
$UCSORGBACK
 10
0.0
 20
0.0
 30
0.0
  9
$PUCSBASE
  2

  9
$PUCSNAME
  2

  9
$PUCSORG
 10
0.0
 20
0.0
 30
0.0
  9
$PUCSXDIR
 10
1.0
 20
0.0
 30
0.0
  9
$PUCSYDIR
 10
0.0
 20
1.0
 30
0.0
  9
$PUCSORTHOREF
  2

  9
$PUCSORTHOVIEW
 70
     0
  9
$PUCSORGTOP
 10
0.0
 20
0.0
 30
0.0
  9
$PUCSORGBOTTOM
 10
0.0
 20
0.0
 30
0.0
  9
$PUCSORGLEFT
 10
0.0
 20
0.0
 30
0.0
  9
$PUCSORGRIGHT
 10
0.0
 20
0.0
 30
0.0
  9
$PUCSORGFRONT
 10
0.0
 20
0.0
 30
0.0
  9
$PUCSORGBACK
 10
0.0
 20
0.0
 30
0.0
  9
$USERI1
 70
     0
  9
$USERI2
 70
     0
  9
$USERI3
 70
     0
  9
$USERI4
 70
     0
  9
$USERI5
 70
     0
  9
$USERR1
 40
0.0
  9
$USERR2
 40
0.0
  9
$USERR3
 40
0.0
  9
$USERR4
 40
0.0
  9
$USERR5
 40
0.0
  9
$WORLDVIEW
 70
     1
  9
$SHADEDGE
 70
     3
  9
$SHADEDIF
 70
    70
  9
$TILEMODE
 70
     1
  9
$MAXACTVP
 70
    64
  9
$PINSBASE
 10
0.0
 20
0.0
 30
0.0
  9
$PLIMCHECK
 70
     0
  9
$PEXTMIN
 10
1.130750010332723
 20
0.7880833242821881
 30
0.0
  9
$PEXTMAX
 10
10.17675009299451
 20
7.092749918539693
 30
0.0
  9
$PLIMMIN
 10
-0.1912502979669045
 20
-0.1912499975970411
  9
$PLIMMAX
 10
11.50208240418922
 20
8.075416444793461
  9
$UNITMODE
 70
     0
  9
$VISRETAIN
 70
     1
  9
$PLINEGEN
 70
     0
  9
$PSLTSCALE
 70
     1
  9
$TREEDEPTH
 70
  3020
  9
$CMLSTYLE
  2
Standard
  9
$CMLJUST
 70
     0
  9
$CMLSCALE
 40
1.0
  9
$PROXYGRAPHICS
 70
     1
  9
$MEASUREMENT
 70
     0
  9
$CELWEIGHT
370
    -1
  9
$ENDCAPS
280
     0
  9
$JOINSTYLE
280
     0
  9
$LWDISPLAY
290
     0
  9
$INSUNITS
 70
     0
  9
$HYPERLINKBASE
  1

  9
$STYLESHEET
  1

  9
$XEDIT
290
     1
  9
$CEPSNTYPE
380
     0
  9
$PSTYLEMODE
290
     1
  9
$FINGERPRINTGUID
  2
{19CF3E0C-CC3B-4001-8148-9EDFDCA70805}
  9
$VERSIONGUID
  2
{6A4F19C4-A34F-4390-9A93-DB47C424E579}
  9
$EXTNAMES
290
     1
  9
$PSVPSCALE
 40
0.0
  9
$OLESTARTUP
290
     0
  0
ENDSEC
  0
SECTION
  2
CLASSES
  0
CLASS
  1
ACDBDICTIONARYWDFLT
  2
AcDbDictionaryWithDefault
  3
ObjectDBX Classes
 90
        0
280
     0
281
     0
  0
CLASS
  1
TABLESTYLE
  2
AcDbTableStyle
  3
ObjectDBX Classes
 90
     2047
280
     0
281
     0
  0
CLASS
  1
DICTIONARYVAR
  2
AcDbDictionaryVar
  3
ObjectDBX Classes
 90
        0
280
     0
281
     0
  0
CLASS
  1
ACDBPLACEHOLDER
  2
AcDbPlaceHolder
  3
ObjectDBX Classes
 90
        0
280
     0
281
     0
  0
CLASS
  1
LAYOUT
  2
AcDbLayout
  3
ObjectDBX Classes
 90
        0
280
     0
281
     0
  0
ENDSEC
  0
SECTION
  2
TABLES
  0
TABLE
  2
VPORT
  5
8
330
0
100
AcDbSymbolTable
 70
     3
  0
VPORT
  5
33C
330
8
100
AcDbSymbolTableRecord
100
AcDbViewportTableRecord
  2
*Active
 70
     0
 10
0.0
 20
0.0
 11
1.0
 21
1.0
 12
224.79599783477
 22
269.5391740273117
 13
0.0
 23
0.0
 14
1.0
 24
1.0
 15
0.0
 25
0.0
 16
0.0
 26
0.0
 36
1.0
 17
0.0
 27
0.0
 37
0.0
 40
300.3161159346963
 41
1.627631578947368
 42
50.0
 43
0.0
 44
0.0
 50
0.0
 51
0.0
 71
     0
 72
   100
 73
     1
 74
     1
 75
     0
 76
     0
 77
     0
 78
     0
281
     0
 65
     1
110
0.0
120
0.0
130
0.0
111
1.0
121
0.0
131
0.0
112
0.0
122
1.0
132
0.0
 79
     0
146
0.0
  0
ENDTAB
  0
TABLE
  2
LTYPE
  5
5
330
0
100
AcDbSymbolTable
 70
     4
  0
LTYPE
  5
13
330
5
100
AcDbSymbolTableRecord
100
AcDbLinetypeTableRecord
  2
ByBlock
 70
     0
  3

 72
    65
 73
     0
 40
0.0
  0
LTYPE
  5
14
330
5
100
AcDbSymbolTableRecord
100
AcDbLinetypeTableRecord
  2
ByLayer
 70
     0
  3

 72
    65
 73
     0
 40
0.0
  0
LTYPE
  5
15
330
5
100
AcDbSymbolTableRecord
100
AcDbLinetypeTableRecord
  2
CONTINUOUS
 70
     0
  3
Solid line
 72
    65
 73
     0
 40
0.0
  0
LTYPE
  5
26
330
5
100
AcDbSymbolTableRecord
100
AcDbLinetypeTableRecord
  2
DASHED
 70
     0
  3
__ __ __ __ __ __ __ __ __ __ __ __ __ __ __
 72
    65
 73
     2
 40
3.5
 49
2.0
 74
     0
 49
-1.5
 74
     0
  0
LTYPE
  5
27
330
5
100
AcDbSymbolTableRecord
100
AcDbLinetypeTableRecord
  2
CENTER
 70
     0
  3
____ _ ____ _ ____ _ ____ _ ____ _ ____ _ ____
 72
    65
 73
     4
 40
17.5
 49
13.0
 74
     0
 49
-1.5
 74
     0
 49
1.5
 74
     0
 49
-1.5
 74
     0
  0
LTYPE
  5
28
330
5
100
AcDbSymbolTableRecord
100
AcDbLinetypeTableRecord
  2
PHANTOM
 70
     0
  3
_____ _ _ _____ _ _ _____ _ _ _____ _ _ ____  
 72
    65
 73
     6
 40
15.5
 49
8.0
 74
     0
 49
-1.5
 74
     0
 49
1.5
 74
     0
 49
-1.5
 74
     0
 49
1.5
 74
     0
 49
-1.5
 74
     0
  0
ENDTAB
  0
TABLE
  2
LAYER
  5
2
102
{ACAD_XDICTIONARY
360
332
102
}
330
0
100
AcDbSymbolTable
 70
     1
  0
LAYER
  5
10
330
2
100
AcDbSymbolTableRecord
100
AcDbLayerTableRecord
  2
0
 70
     0
 62
     7
  6
CONTINUOUS
370
    -3
390
F
  0
ENDTAB
  0
TABLE
  2
STYLE
  5
3
330
0
100
AcDbSymbolTable
 70
     1
  0
STYLE
  5
11
330
3
100
AcDbSymbolTableRecord
100
AcDbTextStyleTableRecord
  2
STANDARD
 70
     0
 40
0.0
 41
1.0
 50
0.0
 71
     0
 42
0.2
  3
txt
  4
BIGFONT
  0
ENDTAB
  0
TABLE
  2
VIEW
  5
6
330
0
100
AcDbSymbolTable
 70
     1
  0
ENDTAB
  0
TABLE
  2
UCS
  5
7
330
0
100
AcDbSymbolTable
 70
     0
  0
ENDTAB
  0
TABLE
  2
APPID
  5
9
330
0
100
AcDbSymbolTable
 70
     2
  0
APPID
  5
12
330
9
100
AcDbSymbolTableRecord
100
AcDbRegAppTableRecord
  2
ACAD
 70
     0
  0
APPID
  5
32C
330
9
100
AcDbSymbolTableRecord
100
AcDbRegAppTableRecord
  2
ACAD_PSEXT
 70
     0
  0
ENDTAB
  0
TABLE
  2
DIMSTYLE
  5
A
330
0
100
AcDbSymbolTable
 70
     1
100
AcDbDimStyleTable
 71
     0
  0
DIMSTYLE
105
326
330
A
100
AcDbSymbolTableRecord
100
AcDbDimStyleTableRecord
  2
Standard
 70
     0
340
11
  0
ENDTAB
  0
TABLE
  2
BLOCK_RECORD
  5
1
330
0
100
AcDbSymbolTable
 70
     0
  0
BLOCK_RECORD
  5
22
330
1
100
AcDbSymbolTableRecord
100
AcDbBlockTableRecord
  2
*Model_Space
340
25
  0
BLOCK_RECORD
  5
1E
330
1
100
AcDbSymbolTableRecord
100
AcDbBlockTableRecord
  2
*Paper_Space
340
21
  0
ENDTAB
  0
ENDSEC
  0
SECTION
  2
BLOCKS
  0
BLOCK
  5
23
330
22
100
AcDbEntity
  8
0
100
AcDbBlockBegin
  2
*Model_Space
 70
     0
 10
0.0
 20
0.0
 30
0.0
  3
*Model_Space
  1

  0
ENDBLK
  5
24
330
22
100
AcDbEntity
  8
0
100
AcDbBlockEnd
  0
BLOCK
  5
1F
330
1E
100
AcDbEntity
 67
     1
  8
0
100
AcDbBlockBegin
  2
*Paper_Space
 70
     0
 10
0.0
 20
0.0
 30
0.0
  3
*Paper_Space
  1

  0
ENDBLK
  5
20
330
1E
100
AcDbEntity
 67
     1
  8
0
100
AcDbBlockEnd
  0
ENDSEC
  0
SECTION
  2
ENTITIES
  0
LINE
  5
2C
330
22
100
AcDbEntity
  8
0
  6
Continuous
 62
     7
100
AcDbLine
 10
108.799004
 20
332.269012
 30
0.0
 11
135.798996
 21
332.269012
 31
0.0
  0
LINE
  5
2D
330
22
100
AcDbEntity
  8
0
  6
Continuous
 62
     7
100
AcDbLine
 10
233.798996
 20
332.269012
 30
0.0
 11
233.798996
 21
234.669006
 31
0.0
  0
LINE
  5
2E
330
22
100
AcDbEntity
  8
0
  6
Continuous
 62
     7
100
AcDbLine
 10
270.799011
 20
332.269012
 30
0.0
 11
270.799011
 21
234.669006
 31
0.0
  0
LINE
  5
2F
330
22
100
AcDbEntity
  8
0
  6
Continuous
 62
     7
100
AcDbLine
 10
135.798996
 20
332.269012
 30
0.0
 11
135.798996
 21
234.669006
 31
0.0
  0
LINE
  5
30
330
22
100
AcDbEntity
  8
0
  6
Continuous
 62
     7
100
AcDbLine
 10
108.799004
 20
332.269012
 30
0.0
 11
108.799004
 21
234.669006
 31
0.0
  0
LINE
  5
31
330
22
100
AcDbEntity
  8
0
  6
Continuous
 62
     7
100
AcDbLine
 10
358.799011
 20
332.269012
 30
0.0
 11
358.799011
 21
234.669006
 31
0.0
  0
LINE
  5
32
330
22
100
AcDbEntity
  8
0
  6
Continuous
 62
     7
100
AcDbLine
 10
385.799011
 20
332.269012
 30
0.0
 11
385.799011
 21
234.669006
 31
0.0
  0
LINE
  5
33
330
22
100
AcDbEntity
  8
0
  6
Continuous
 62
     7
100
AcDbLine
 10
109.598999
 20
233.869003
 30
0.0
 11
134.998993
 21
233.869003
 31
0.0
  0
LINE
  5
34
330
22
100
AcDbEntity
  8
0
  6
Continuous
 62
     7
100
AcDbLine
 10
233.798996
 20
332.269012
 30
0.0
 11
270.799011
 21
332.269012
 31
0.0
  0
LINE
  5
35
330
22
100
AcDbEntity
  8
0
  6
Continuous
 62
     7
100
AcDbLine
 10
234.600006
 20
233.869003
 30
0.0
 11
270.0
 21
233.869003
 31
0.0
  0
LINE
  5
36
330
22
100
AcDbEntity
  8
0
  6
Continuous
 62
     7
100
AcDbLine
 10
358.799011
 20
332.269012
 30
0.0
 11
385.799011
 21
332.269012
 31
0.0
  0
LINE
  5
37
330
22
100
AcDbEntity
  8
0
  6
Continuous
 62
     7
100
AcDbLine
 10
359.600006
 20
233.869003
 30
0.0
 11
385.0
 21
233.869003
 31
0.0
  0
LINE
  5
38
330
22
100
AcDbEntity
  8
0
  6
Continuous
 62
     7
100
AcDbLine
 10
122.299004
 20
336.165009
 30
0.0
 11
122.299004
 21
222.878006
 31
0.0
  0
LINE
  5
39
330
22
100
AcDbEntity
  8
0
  6
Continuous
 62
     7
100
AcDbLine
 10
372.299011
 20
336.765015
 30
0.0
 11
372.299011
 21
231.425995
 31
0.0
  0
LINE
  5
3A
330
22
100
AcDbEntity
  8
0
  6
Continuous
 62
     7
100
AcDbLine
 10
248.548996
 20
236.869003
 30
0.0
 11
256.049011
 21
236.869003
 31
0.0
  0
LINE
  5
3B
330
22
100
AcDbEntity
  8
0
  6
Continuous
 62
     7
100
AcDbLine
 10
256.049011
 20
236.869003
 30
0.0
 11
256.049011
 21
233.869003
 31
0.0
  0
LINE
  5
3C
330
22
100
AcDbEntity
  8
0
  6
Continuous
 62
     7
100
AcDbLine
 10
248.548996
 20
236.869003
 30
0.0
 11
248.548996
 21
233.869003
 31
0.0
  0
LINE
  5
3D
330
22
100
AcDbEntity
  8
0
  6
Continuous
 62
     7
100
AcDbLine
 10
233.798996
 20
284.669006
 30
0.0
 11
270.799011
 21
284.669006
 31
0.0
  0
LINE
  5
3E
330
22
100
AcDbEntity
  8
0
  6
Continuous
 62
     7
100
AcDbLine
 10
108.799004
 20
284.669006
 30
0.0
 11
135.798996
 21
284.669006
 31
0.0
  0
LINE
  5
3F
330
22
100
AcDbEntity
  8
0
  6
Continuous
 62
     7
100
AcDbLine
 10
358.799011
 20
284.669006
 30
0.0
 11
385.799011
 21
284.669006
 31
0.0
  0
LINE
  5
40
330
22
100
AcDbEntity
  8
0
  6
Continuous
 62
     7
100
AcDbLine
 10
108.799004
 20
286.669006
 30
0.0
 11
135.798996
 21
286.669006
 31
0.0
  0
LINE
  5
41
330
22
100
AcDbEntity
  8
0
  6
Continuous
 62
     7
100
AcDbLine
 10
233.798996
 20
286.669006
 30
0.0
 11
270.799011
 21
286.669006
 31
0.0
  0
LINE
  5
42
330
22
100
AcDbEntity
  8
0
  6
Continuous
 62
     7
100
AcDbLine
 10
358.799011
 20
286.669006
 30
0.0
 11
385.799011
 21
286.669006
 31
0.0
  0
LINE
  5
43
330
22
100
AcDbEntity
  8
0
  6
Continuous
 62
     7
100
AcDbLine
 10
382.799011
 20
271.984985
 30
0.0
 11
382.799011
 21
260.671997
 31
0.0
  0
LINE
  5
44
330
22
100
AcDbEntity
  8
0
  6
Continuous
 62
     7
100
AcDbLine
 10
361.799011
 20
282.024994
 30
0.0
 11
361.799011
 21
270.854004
 31
0.0
  0
LINE
  5
45
330
22
100
AcDbEntity
  8
0
  6
Continuous
 62
     7
100
AcDbLine
 10
377.201996
 20
266.368988
 30
0.0
 11
387.312988
 21
266.368988
 31
0.0
  0
LINE
  5
46
330
22
100
AcDbEntity
  8
0
  6
Continuous
 62
     7
100
AcDbLine
 10
357.157013
 20
276.368988
 30
0.0
 11
367.268005
 21
276.368988
 31
0.0
  0
LINE
  5
47
330
22
100
AcDbEntity
  8
0
  6
Continuous
 62
     7
100
AcDbLine
 10
212.001007
 20
160.369003
 30
0.0
 11
233.035004
 21
160.369003
 31
0.0
  0
LINE
  5
48
330
22
100
AcDbEntity
  8
0
  6
Continuous
 62
     7
100
AcDbLine
 10
261.299011
 20
332.269012
 30
0.0
 11
261.299011
 21
329.468994
 31
0.0
  0
LINE
  5
49
330
22
100
AcDbEntity
  8
0
  6
Continuous
 62
     7
100
AcDbLine
 10
261.299011
 20
329.468994
 30
0.0
 11
270.799011
 21
329.468994
 31
0.0
  0
LINE
  5
4A
330
22
100
AcDbEntity
  8
0
  6
Continuous
 62
     7
100
AcDbLine
 10
358.799011
 20
329.468994
 30
0.0
 11
365.299011
 21
329.468994
 31
0.0
  0
LINE
  5
4B
330
22
100
AcDbEntity
  8
0
  6
Continuous
 62
     7
100
AcDbLine
 10
108.799004
 20
329.468994
 30
0.0
 11
115.299004
 21
329.468994
 31
0.0
  0
LINE
  5
4C
330
22
100
AcDbEntity
  8
0
  6
Continuous
 62
     7
100
AcDbLine
 10
365.299011
 20
332.269012
 30
0.0
 11
365.299011
 21
329.468994
 31
0.0
  0
LINE
  5
4D
330
22
100
AcDbEntity
  8
0
  6
Continuous
 62
     7
100
AcDbLine
 10
115.299004
 20
332.269012
 30
0.0
 11
115.299004
 21
329.468994
 31
0.0
  0
LINE
  5
4E
330
22
100
AcDbEntity
  8
0
  6
Continuous
 62
     7
100
AcDbLine
 10
230.798996
 20
316.669006
 30
0.0
 11
230.798996
 21
312.669006
 31
0.0
  0
LINE
  5
4F
330
22
100
AcDbEntity
  8
0
  6
Continuous
 62
     7
100
AcDbLine
 10
115.315002
 20
314.669006
 30
0.0
 11
129.242004
 21
314.669006
 31
0.0
  0
LINE
  5
50
330
22
100
AcDbEntity
  8
0
  6
Continuous
 62
     7
100
AcDbLine
 10
119.799004
 20
317.169006
 30
0.0
 11
124.799004
 21
317.169006
 31
0.0
  0
LINE
  5
51
330
22
100
AcDbEntity
  8
0
  6
Continuous
 62
     7
100
AcDbLine
 10
119.799004
 20
312.169006
 30
0.0
 11
124.799004
 21
312.169006
 31
0.0
  0
LINE
  5
52
330
22
100
AcDbEntity
  8
0
  6
Continuous
 62
     7
100
AcDbLine
 10
119.799004
 20
318.169006
 30
0.0
 11
124.799004
 21
318.169006
 31
0.0
  0
LINE
  5
53
330
22
100
AcDbEntity
  8
0
  6
Continuous
 62
     7
100
AcDbLine
 10
119.799004
 20
311.169006
 30
0.0
 11
124.799004
 21
311.169006
 31
0.0
  0
LINE
  5
54
330
22
100
AcDbEntity
  8
0
  6
Continuous
 62
     7
100
AcDbLine
 10
231.298996
 20
317.169006
 30
0.0
 11
233.798996
 21
317.169006
 31
0.0
  0
LINE
  5
55
330
22
100
AcDbEntity
  8
0
  6
Continuous
 62
     7
100
AcDbLine
 10
231.298996
 20
312.169006
 30
0.0
 11
233.798996
 21
312.169006
 31
0.0
  0
LINE
  5
56
330
22
100
AcDbEntity
  8
0
  6
Continuous
 62
     7
100
AcDbLine
 10
219.050995
 20
161.619003
 30
0.0
 11
224.686996
 21
161.619003
 31
0.0
  0
LINE
  5
57
330
22
100
AcDbEntity
  8
0
  6
Continuous
 62
     7
100
AcDbLine
 10
219.050995
 20
159.119003
 30
0.0
 11
224.623001
 21
159.119003
 31
0.0
  0
LINE
  5
58
330
22
100
AcDbEntity
  8
0
  6
Continuous
 62
     7
100
AcDbLine
 10
226.492996
 20
161.619003
 30
0.0
 11
231.798996
 21
161.619003
 31
0.0
  0
LINE
  5
59
330
22
100
AcDbEntity
  8
0
  6
Continuous
 62
     7
100
AcDbLine
 10
226.225998
 20
159.119003
 30
0.0
 11
231.798996
 21
159.119003
 31
0.0
  0
LINE
  5
5A
330
22
100
AcDbEntity
  8
0
  6
Continuous
 62
     7
100
AcDbLine
 10
219.050995
 20
161.619003
 30
0.0
 11
219.050995
 21
159.119003
 31
0.0
  0
LINE
  5
5B
330
22
100
AcDbEntity
  8
0
  6
Continuous
 62
     7
100
AcDbLine
 10
213.089996
 20
160.869003
 30
0.0
 11
219.050995
 21
160.869003
 31
0.0
  0
LINE
  5
5C
330
22
100
AcDbEntity
  8
0
  6
Continuous
 62
     7
100
AcDbLine
 10
213.089996
 20
159.869003
 30
0.0
 11
219.050995
 21
159.869003
 31
0.0
  0
LINE
  5
5D
330
22
100
AcDbEntity
  8
0
  6
Continuous
 62
     7
100
AcDbLine
 10
213.089996
 20
160.869003
 30
0.0
 11
213.089996
 21
159.869003
 31
0.0
  0
LINE
  5
5E
330
22
100
AcDbEntity
  8
0
  6
Continuous
 62
     7
100
AcDbLine
 10
119.799004
 20
319.070007
 30
0.0
 11
119.799004
 21
310.256989
 31
0.0
  0
LINE
  5
5F
330
22
100
AcDbEntity
  8
0
  6
Continuous
 62
     7
100
AcDbLine
 10
124.799004
 20
318.990997
 30
0.0
 11
124.799004
 21
310.217987
 31
0.0
  0
LINE
  5
60
330
22
100
AcDbEntity
  8
0
  6
Continuous
 62
     7
100
AcDbLine
 10
108.799004
 20
238.869003
 30
0.0
 11
135.798996
 21
238.869003
 31
0.0
  0
LINE
  5
61
330
22
100
AcDbEntity
  8
0
  6
Continuous
 62
     7
100
AcDbLine
 10
233.798996
 20
238.869003
 30
0.0
 11
270.799011
 21
238.869003
 31
0.0
  0
LINE
  5
62
330
22
100
AcDbEntity
  8
0
  6
Continuous
 62
     7
100
AcDbLine
 10
358.799011
 20
238.869003
 30
0.0
 11
385.640991
 21
238.869003
 31
0.0
  0
LINE
  5
63
330
22
100
AcDbEntity
  8
0
  6
Continuous
 62
     7
100
AcDbLine
 10
113.300003
 20
252.369003
 30
0.0
 11
131.908997
 21
252.369003
 31
0.0
  0
LINE
  5
64
330
22
100
AcDbEntity
  8
0
  6
Continuous
 62
     7
100
AcDbLine
 10
113.300003
 20
271.368988
 30
0.0
 11
131.395996
 21
271.368988
 31
0.0
  0
LINE
  5
65
330
22
100
AcDbEntity
  8
0
  6
Continuous
 62
     7
100
AcDbLine
 10
262.598999
 20
259.868988
 30
0.0
 11
275.955994
 21
259.868988
 31
0.0
  0
LINE
  5
66
330
22
100
AcDbEntity
  8
0
  6
Continuous
 62
     7
100
AcDbLine
 10
262.243988
 20
250.369003
 30
0.0
 11
270.542999
 21
250.369003
 31
0.0
  0
LINE
  5
67
330
22
100
AcDbEntity
  8
0
  6
Continuous
 62
     7
100
AcDbLine
 10
234.093994
 20
261.368988
 30
0.0
 11
242.735992
 21
261.368988
 31
0.0
  0
LINE
  5
68
330
22
100
AcDbEntity
  8
0
  6
Continuous
 62
     7
100
AcDbLine
 10
266.299011
 20
254.490005
 30
0.0
 11
266.299011
 21
245.886002
 31
0.0
  0
LINE
  5
69
330
22
100
AcDbEntity
  8
0
  6
Continuous
 62
     7
100
AcDbLine
 10
238.298996
 20
265.890015
 30
0.0
 11
238.298996
 21
256.513
 31
0.0
  0
LINE
  5
6A
330
22
100
AcDbEntity
  8
0
  6
Continuous
 62
     7
100
AcDbLine
 10
249.798996
 20
235.869003
 30
0.0
 11
254.798996
 21
235.869003
 31
0.0
  0
LINE
  5
6B
330
22
100
AcDbEntity
  8
0
  6
Continuous
 62
     7
100
AcDbLine
 10
252.298996
 20
237.412994
 30
0.0
 11
252.298996
 21
233.268997
 31
0.0
  0
LINE
  5
6C
330
22
100
AcDbEntity
  8
0
  6
Continuous
 62
     7
100
AcDbLine
 10
254.798996
 20
236.869003
 30
0.0
 11
254.798996
 21
235.869003
 31
0.0
  0
LINE
  5
6D
330
22
100
AcDbEntity
  8
0
  6
Continuous
 62
     7
100
AcDbLine
 10
249.798996
 20
236.869003
 30
0.0
 11
249.798996
 21
235.869003
 31
0.0
  0
LINE
  5
6E
330
22
100
AcDbEntity
  8
0
  6
Continuous
 62
     7
100
AcDbLine
 10
112.049004
 20
333.622009
 30
0.0
 11
112.049004
 21
328.483002
 31
0.0
  0
LINE
  5
6F
330
22
100
AcDbEntity
  8
0
  6
Continuous
 62
     7
100
AcDbLine
 10
359.549011
 20
330.169006
 30
0.0
 11
362.049011
 21
330.169006
 31
0.0
  0
LINE
  5
70
330
22
100
AcDbEntity
  8
0
  6
Continuous
 62
     7
100
AcDbLine
 10
359.549011
 20
330.169006
 30
0.0
 11
359.549011
 21
329.468994
 31
0.0
  0
LINE
  5
71
330
22
100
AcDbEntity
  8
0
  6
Continuous
 62
     7
100
AcDbLine
 10
364.549011
 20
330.169006
 30
0.0
 11
362.049011
 21
330.169006
 31
0.0
  0
LINE
  5
72
330
22
100
AcDbEntity
  8
0
  6
Continuous
 62
     7
100
AcDbLine
 10
364.549011
 20
330.169006
 30
0.0
 11
364.549011
 21
329.468994
 31
0.0
  0
LINE
  5
73
330
22
100
AcDbEntity
  8
0
  6
Continuous
 62
     7
100
AcDbLine
 10
266.049011
 20
333.687988
 30
0.0
 11
266.049011
 21
328.4819950000001
 31
0.0
  0
LINE
  5
74
330
22
100
AcDbEntity
  8
0
  6
Continuous
 62
     7
100
AcDbLine
 10
362.049011
 20
333.572998
 30
0.0
 11
362.049011
 21
328.192993
 31
0.0
  0
LINE
  5
75
330
22
100
AcDbEntity
  8
0
  6
Continuous
 62
     7
100
AcDbLine
 10
109.549004
 20
330.169006
 30
0.0
 11
112.049004
 21
330.169006
 31
0.0
  0
LINE
  5
76
330
22
100
AcDbEntity
  8
0
  6
Continuous
 62
     7
100
AcDbLine
 10
114.549004
 20
330.169006
 30
0.0
 11
112.049004
 21
330.169006
 31
0.0
  0
LINE
  5
77
330
22
100
AcDbEntity
  8
0
  6
Continuous
 62
     7
100
AcDbLine
 10
114.549004
 20
330.169006
 30
0.0
 11
114.549004
 21
329.468994
 31
0.0
  0
LINE
  5
78
330
22
100
AcDbEntity
  8
0
  6
Continuous
 62
     7
100
AcDbLine
 10
109.549004
 20
330.169006
 30
0.0
 11
109.549004
 21
329.468994
 31
0.0
  0
LINE
  5
79
330
22
100
AcDbEntity
  8
0
  6
Continuous
 62
     7
100
AcDbLine
 10
263.549011
 20
330.169006
 30
0.0
 11
266.049011
 21
330.169006
 31
0.0
  0
LINE
  5
7A
330
22
100
AcDbEntity
  8
0
  6
Continuous
 62
     7
100
AcDbLine
 10
268.549011
 20
330.169006
 30
0.0
 11
266.049011
 21
330.169006
 31
0.0
  0
LINE
  5
7B
330
22
100
AcDbEntity
  8
0
  6
Continuous
 62
     7
100
AcDbLine
 10
268.549011
 20
330.169006
 30
0.0
 11
268.549011
 21
329.468994
 31
0.0
  0
LINE
  5
7C
330
22
100
AcDbEntity
  8
0
  6
Continuous
 62
     7
100
AcDbLine
 10
263.549011
 20
330.169006
 30
0.0
 11
263.549011
 21
329.468994
 31
0.0
  0
LINE
  5
7D
330
22
100
AcDbEntity
  8
0
  6
Continuous
 62
     7
100
AcDbLine
 10
252.298996
 20
336.165009
 30
0.0
 11
252.298996
 21
222.878006
 31
0.0
  0
LINE
  5
7E
330
22
100
AcDbEntity
  8
0
  6
Continuous
 62
     7
100
AcDbLine
 10
136.895996
 20
276.368988
 30
0.0
 11
128.682007
 21
276.368988
 31
0.0
  0
LINE
  5
7F
330
22
100
AcDbEntity
  8
0
  6
Continuous
 62
     7
100
AcDbLine
 10
111.799004
 20
270.403992
 30
0.0
 11
111.799004
 21
262.446991
 31
0.0
  0
LINE
  5
80
330
22
100
AcDbEntity
  8
0
  6
Continuous
 62
     7
100
AcDbLine
 10
115.932999
 20
266.368988
 30
0.0
 11
107.975998
 21
266.368988
 31
0.0
  0
LINE
  5
81
330
22
100
AcDbEntity
  8
0
  6
Continuous
 62
     7
100
AcDbLine
 10
132.798996
 20
280.585999
 30
0.0
 11
132.798996
 21
272.458008
 31
0.0
  0
LINE
  5
82
330
22
100
AcDbEntity
  8
0
  6
Continuous
 62
     7
100
AcDbLine
 10
372.299988
 20
333.269012
 30
0.0
 11
381.299011
 21
333.269012
 31
0.0
  0
LINE
  5
83
330
22
100
AcDbEntity
  8
0
  6
Continuous
 62
     7
100
AcDbLine
 10
381.299988
 20
333.269989
 30
0.0
 11
382.299988
 21
332.269989
 31
0.0
  0
LINE
  5
84
330
22
100
AcDbEntity
  8
0
  6
Continuous
 62
     7
100
AcDbLine
 10
372.299988
 20
333.269012
 30
0.0
 11
363.299011
 21
333.269012
 31
0.0
  0
LINE
  5
85
330
22
100
AcDbEntity
  8
0
  6
Continuous
 62
     7
100
AcDbLine
 10
363.299988
 20
333.269012
 30
0.0
 11
362.299988
 21
332.269012
 31
0.0
  0
LINE
  5
86
330
22
100
AcDbEntity
  8
0
  6
Continuous
 62
     7
100
AcDbLine
 10
122.299004
 20
333.269012
 30
0.0
 11
113.299004
 21
333.269012
 31
0.0
  0
LINE
  5
87
330
22
100
AcDbEntity
  8
0
  6
Continuous
 62
     7
100
AcDbLine
 10
113.299004
 20
333.269989
 30
0.0
 11
112.299004
 21
332.269989
 31
0.0
  0
LINE
  5
88
330
22
100
AcDbEntity
  8
0
  6
Continuous
 62
     7
100
AcDbLine
 10
122.299004
 20
333.269012
 30
0.0
 11
131.298996
 21
333.269012
 31
0.0
  0
LINE
  5
89
330
22
100
AcDbEntity
  8
0
  6
Continuous
 62
     7
100
AcDbLine
 10
131.300003
 20
333.269012
 30
0.0
 11
132.300003
 21
332.269012
 31
0.0
  0
LINE
  5
8A
330
22
100
AcDbEntity
  8
0
  6
Continuous
 62
     7
100
AcDbLine
 10
252.298996
 20
333.269012
 30
0.0
 11
243.298996
 21
333.269012
 31
0.0
  0
LINE
  5
8B
330
22
100
AcDbEntity
  8
0
  6
Continuous
 62
     7
100
AcDbLine
 10
243.298996
 20
333.269012
 30
0.0
 11
242.298996
 21
332.269012
 31
0.0
  0
LINE
  5
8C
330
22
100
AcDbEntity
  8
0
  6
Continuous
 62
     7
100
AcDbLine
 10
252.298996
 20
333.269012
 30
0.0
 11
261.299011
 21
333.269012
 31
0.0
  0
LINE
  5
8D
330
22
100
AcDbEntity
  8
0
  6
Continuous
 62
     7
100
AcDbLine
 10
261.299988
 20
333.269989
 30
0.0
 11
262.299988
 21
332.269989
 31
0.0
  0
LINE
  5
8E
330
22
100
AcDbEntity
  8
0
  6
Continuous
 62
     7
100
AcDbLine
 10
233.798996
 20
176.369003
 30
0.0
 11
270.799011
 21
176.369003
 31
0.0
  0
LINE
  5
8F
330
22
100
AcDbEntity
  8
0
  6
Continuous
 62
     7
100
AcDbLine
 10
233.798996
 20
149.369003
 30
0.0
 11
270.799011
 21
149.369003
 31
0.0
  0
LINE
  5
90
330
22
100
AcDbEntity
  8
0
  6
Continuous
 62
     7
100
AcDbLine
 10
233.798996
 20
176.369003
 30
0.0
 11
233.798996
 21
149.369003
 31
0.0
  0
LINE
  5
91
330
22
100
AcDbEntity
  8
0
  6
Continuous
 62
     7
100
AcDbLine
 10
270.799011
 20
176.369003
 30
0.0
 11
270.799011
 21
149.369003
 31
0.0
  0
LINE
  5
92
330
22
100
AcDbEntity
  8
0
  6
Continuous
 62
     7
100
AcDbLine
 10
230.714005
 20
162.869003
 30
0.0
 11
273.776001
 21
162.869003
 31
0.0
  0
LINE
  5
93
330
22
100
AcDbEntity
  8
0
  6
Continuous
 62
     7
100
AcDbLine
 10
252.298996
 20
189.477005
 30
0.0
 11
252.298996
 21
181.108002
 31
0.0
  0
LINE
  5
94
330
22
100
AcDbEntity
  8
0
  6
Continuous
 62
     7
100
AcDbLine
 10
231.798996
 20
168.369003
 30
0.0
 11
231.798996
 21
157.369003
 31
0.0
  0
LINE
  5
95
330
22
100
AcDbEntity
  8
0
  6
Continuous
 62
     7
100
AcDbLine
 10
231.798996
 20
168.369003
 30
0.0
 11
233.798996
 21
168.369003
 31
0.0
  0
LINE
  5
96
330
22
100
AcDbEntity
  8
0
  6
Continuous
 62
     7
100
AcDbLine
 10
231.798996
 20
157.369003
 30
0.0
 11
233.798996
 21
157.369003
 31
0.0
  0
LINE
  5
97
330
22
100
AcDbEntity
  8
0
  6
Continuous
 62
     7
100
AcDbLine
 10
211.001007
 20
314.669006
 30
0.0
 11
235.425003
 21
314.669006
 31
0.0
  0
LINE
  5
98
330
22
100
AcDbEntity
  8
0
  6
Continuous
 62
     7
100
AcDbLine
 10
218.050995
 20
315.919006
 30
0.0
 11
223.686996
 21
315.919006
 31
0.0
  0
LINE
  5
99
330
22
100
AcDbEntity
  8
0
  6
Continuous
 62
     7
100
AcDbLine
 10
218.050995
 20
313.419006
 30
0.0
 11
223.623001
 21
313.419006
 31
0.0
  0
LINE
  5
9A
330
22
100
AcDbEntity
  8
0
  6
Continuous
 62
     7
100
AcDbLine
 10
225.492996
 20
315.919006
 30
0.0
 11
230.798996
 21
315.919006
 31
0.0
  0
LINE
  5
9B
330
22
100
AcDbEntity
  8
0
  6
Continuous
 62
     7
100
AcDbLine
 10
225.225998
 20
313.419006
 30
0.0
 11
230.798996
 21
313.419006
 31
0.0
  0
LINE
  5
9C
330
22
100
AcDbEntity
  8
0
  6
Continuous
 62
     7
100
AcDbLine
 10
218.050995
 20
315.919006
 30
0.0
 11
218.050995
 21
313.419006
 31
0.0
  0
LINE
  5
9D
330
22
100
AcDbEntity
  8
0
  6
Continuous
 62
     7
100
AcDbLine
 10
212.089996
 20
315.169006
 30
0.0
 11
218.050995
 21
315.169006
 31
0.0
  0
LINE
  5
9E
330
22
100
AcDbEntity
  8
0
  6
Continuous
 62
     7
100
AcDbLine
 10
212.089996
 20
314.169006
 30
0.0
 11
218.050995
 21
314.169006
 31
0.0
  0
LINE
  5
9F
330
22
100
AcDbEntity
  8
0
  6
Continuous
 62
     7
100
AcDbLine
 10
212.089996
 20
315.169006
 30
0.0
 11
212.089996
 21
314.169006
 31
0.0
  0
LINE
  5
A0
330
22
100
AcDbEntity
  8
0
  6
Continuous
 62
     7
100
AcDbLine
 10
212.001007
 20
165.369003
 30
0.0
 11
232.955002
 21
165.369003
 31
0.0
  0
LINE
  5
A1
330
22
100
AcDbEntity
  8
0
  6
Continuous
 62
     7
100
AcDbLine
 10
219.050995
 20
166.619003
 30
0.0
 11
224.686996
 21
166.619003
 31
0.0
  0
LINE
  5
A2
330
22
100
AcDbEntity
  8
0
  6
Continuous
 62
     7
100
AcDbLine
 10
219.050995
 20
164.119003
 30
0.0
 11
224.623001
 21
164.119003
 31
0.0
  0
LINE
  5
A3
330
22
100
AcDbEntity
  8
0
  6
Continuous
 62
     7
100
AcDbLine
 10
226.492996
 20
166.619003
 30
0.0
 11
231.798996
 21
166.619003
 31
0.0
  0
LINE
  5
A4
330
22
100
AcDbEntity
  8
0
  6
Continuous
 62
     7
100
AcDbLine
 10
226.225998
 20
164.119003
 30
0.0
 11
231.798996
 21
164.119003
 31
0.0
  0
LINE
  5
A5
330
22
100
AcDbEntity
  8
0
  6
Continuous
 62
     7
100
AcDbLine
 10
219.050995
 20
166.619003
 30
0.0
 11
219.050995
 21
164.119003
 31
0.0
  0
LINE
  5
A6
330
22
100
AcDbEntity
  8
0
  6
Continuous
 62
     7
100
AcDbLine
 10
213.089996
 20
165.869003
 30
0.0
 11
219.050995
 21
165.869003
 31
0.0
  0
LINE
  5
A7
330
22
100
AcDbEntity
  8
0
  6
Continuous
 62
     7
100
AcDbLine
 10
213.089996
 20
164.869003
 30
0.0
 11
219.050995
 21
164.869003
 31
0.0
  0
LINE
  5
A8
330
22
100
AcDbEntity
  8
0
  6
Continuous
 62
     7
100
AcDbLine
 10
213.089996
 20
165.869003
 30
0.0
 11
213.089996
 21
164.869003
 31
0.0
  0
LINE
  5
A9
330
22
100
AcDbEntity
  8
0
  6
Continuous
 62
     7
100
AcDbLine
 10
235.445007
 20
173.369003
 30
0.0
 11
243.641006
 21
173.369003
 31
0.0
  0
LINE
  5
AA
330
22
100
AcDbEntity
  8
0
  6
Continuous
 62
     7
100
AcDbLine
 10
260.593994
 20
152.369003
 30
0.0
 11
268.388
 21
152.369003
 31
0.0
  0
LINE
  5
AB
330
22
100
AcDbEntity
  8
0
  6
Continuous
 62
     7
100
AcDbLine
 10
264.799011
 20
156.231003
 30
0.0
 11
264.799011
 21
148.190994
 31
0.0
  0
LINE
  5
AC
330
22
100
AcDbEntity
  8
0
  6
Continuous
 62
     7
100
AcDbLine
 10
239.798996
 20
177.356995
 30
0.0
 11
239.798996
 21
169.483002
 31
0.0
  0
LINE
  5
AD
330
22
100
AcDbEntity
  8
0
  6
Continuous
 62
     7
100
AcDbLine
 10
255.798996
 20
176.369003
 30
0.0
 11
255.798996
 21
172.869003
 31
0.0
  0
LINE
  5
AE
330
22
100
AcDbEntity
  8
0
  6
Continuous
 62
     7
100
AcDbLine
 10
248.798996
 20
176.369003
 30
0.0
 11
248.798996
 21
172.869003
 31
0.0
  0
LINE
  5
AF
330
22
100
AcDbEntity
  8
0
  6
Continuous
 62
     7
100
AcDbLine
 10
248.798996
 20
152.869003
 30
0.0
 11
248.798996
 21
149.369003
 31
0.0
  0
LINE
  5
B0
330
22
100
AcDbEntity
  8
0
  6
Continuous
 62
     7
100
AcDbLine
 10
255.798996
 20
152.869003
 30
0.0
 11
255.798996
 21
149.369003
 31
0.0
  0
LINE
  5
B1
330
22
100
AcDbEntity
  8
0
  6
Continuous
 62
     7
100
AcDbLine
 10
248.522995
 20
172.869003
 30
0.0
 11
256.227997
 21
172.869003
 31
0.0
  0
LINE
  5
B2
330
22
100
AcDbEntity
  8
0
  6
Continuous
 62
     7
100
AcDbLine
 10
248.253998
 20
152.869003
 30
0.0
 11
256.316986
 21
152.869003
 31
0.0
  0
LINE
  5
B3
330
22
100
AcDbEntity
  8
0
  6
Continuous
 62
     7
100
AcDbLine
 10
251.098999
 20
171.669006
 30
0.0
 11
253.563004
 21
174.132004
 31
0.0
  0
LINE
  5
B4
330
22
100
AcDbEntity
  8
0
  6
Continuous
 62
     7
100
AcDbLine
 10
251.156998
 20
174.011993
 30
0.0
 11
253.576004
 21
171.593002
 31
0.0
  0
LINE
  5
B5
330
22
100
AcDbEntity
  8
0
  6
Continuous
 62
     7
100
AcDbLine
 10
251.098999
 20
154.070007
 30
0.0
 11
253.563004
 21
151.606003
 31
0.0
  0
LINE
  5
B6
330
22
100
AcDbEntity
  8
0
  6
Continuous
 62
     7
100
AcDbLine
 10
251.156998
 20
151.727005
 30
0.0
 11
253.576004
 21
154.145996
 31
0.0
  0
LINE
  5
B7
330
22
100
AcDbEntity
  8
0
  6
Continuous
 62
     7
100
AcDbLine
 10
276.173004
 20
71.102997
 30
0.0
 11
276.173004
 21
26.1031
 31
0.0
  0
LINE
  5
B8
330
22
100
AcDbEntity
  8
0
  6
Continuous
 62
     7
100
AcDbLine
 10
313.173004
 20
40.10309999999999
 30
0.0
 11
313.173004
 21
26.1031
 31
0.0
  0
LINE
  5
B9
330
22
100
AcDbEntity
  8
0
  6
Continuous
 62
     7
100
AcDbLine
 10
423.5060119999999
 20
71.102997
 30
0.0
 11
423.5060119999999
 21
26.1031
 31
0.0
  0
LINE
  5
BA
330
22
100
AcDbEntity
  8
0
  6
Continuous
 62
     7
100
AcDbLine
 10
396.506012
 20
71.102997
 30
0.0
 11
396.506012
 21
26.1031
 31
0.0
  0
LINE
  5
BB
330
22
100
AcDbEntity
  8
0
  6
Continuous
 62
     7
100
AcDbLine
 10
276.173004
 20
71.102997
 30
0.0
 11
322.173004
 21
71.102997
 31
0.0
  0
LINE
  5
BC
330
22
100
AcDbEntity
  8
0
  6
Continuous
 62
     7
100
AcDbLine
 10
396.506012
 20
71.102997
 30
0.0
 11
401.006012
 21
71.102997
 31
0.0
  0
LINE
  5
BD
330
22
100
AcDbEntity
  8
0
  6
Continuous
 62
     7
100
AcDbLine
 10
313.173004
 20
40.10309999999999
 30
0.0
 11
322.173004
 21
40.10309999999999
 31
0.0
  0
LINE
  5
BE
330
22
100
AcDbEntity
  8
0
  6
Continuous
 62
     7
100
AcDbLine
 10
322.173004
 20
71.102997
 30
0.0
 11
322.173004
 21
40.10309999999999
 31
0.0
  0
LINE
  5
BF
330
22
100
AcDbEntity
  8
0
  6
Continuous
 62
     7
100
AcDbLine
 10
310.673004
 20
71.102997
 30
0.0
 11
310.673004
 21
68.30300099999999
 31
0.0
  0
LINE
  5
C0
330
22
100
AcDbEntity
  8
0
  6
Continuous
 62
     7
100
AcDbLine
 10
303.673004
 20
71.102997
 30
0.0
 11
303.673004
 21
68.30300099999999
 31
0.0
  0
LINE
  5
C1
330
22
100
AcDbEntity
  8
0
  6
Continuous
 62
     7
100
AcDbLine
 10
316.247986
 20
54.10309999999999
 30
0.0
 11
358.947998
 21
54.10309999999999
 31
0.0
  0
LINE
  5
C2
330
22
100
AcDbEntity
  8
0
  6
Continuous
 62
     7
100
AcDbLine
 10
414.6300049999999
 20
54.10309999999999
 30
0.0
 11
405.2200009999999
 21
54.10309999999999
 31
0.0
  0
LINE
  5
C3
330
22
100
AcDbEntity
  8
0
  6
Continuous
 62
     7
100
AcDbLine
 10
323.673004
 20
40.10309999999999
 30
0.0
 11
323.673004
 21
68.352997
 31
0.0
  0
LINE
  5
C4
330
22
100
AcDbEntity
  8
0
  6
Continuous
 62
     7
100
AcDbLine
 10
349.173004
 20
68.352997
 30
0.0
 11
322.173004
 21
68.352997
 31
0.0
  0
LINE
  5
C5
330
22
100
AcDbEntity
  8
0
  6
Continuous
 62
     7
100
AcDbLine
 10
351.673004
 20
42.10309999999999
 30
0.0
 11
351.673004
 21
65.852997
 31
0.0
  0
LINE
  5
C6
330
22
100
AcDbEntity
  8
0
  6
Continuous
 62
     7
100
AcDbLine
 10
344.673004
 20
65.098602
 30
0.0
 11
344.673004
 21
91.747597
 31
0.0
  0
LINE
  5
C7
330
22
100
AcDbEntity
  8
0
  6
Continuous
 62
     7
100
AcDbLine
 10
353.673004
 20
68.352997
 30
0.0
 11
353.673004
 21
78.352997
 31
0.0
  0
LINE
  5
C8
330
22
100
AcDbEntity
  8
0
  6
Continuous
 62
     7
100
AcDbLine
 10
335.673004
 20
69.352997
 30
0.0
 11
335.673004
 21
78.352997
 31
0.0
  0
LINE
  5
C9
330
22
100
AcDbEntity
  8
0
  6
Continuous
 62
     7
100
AcDbLine
 10
353.673004
 20
68.352997
 30
0.0
 11
351.673004
 21
63.353001
 31
0.0
  0
LINE
  5
CA
330
22
100
AcDbEntity
  8
0
  6
Continuous
 62
     7
100
AcDbLine
 10
352.173004
 20
79.852997
 30
0.0
 11
337.173004
 21
79.852997
 31
0.0
  0
LINE
  5
CB
330
22
100
AcDbEntity
  8
0
  6
Continuous
 62
     7
100
AcDbLine
 10
339.673004
 20
68.352997
 30
0.0
 11
339.673004
 21
75.852997
 31
0.0
  0
LINE
  5
CC
330
22
100
AcDbEntity
  8
0
  6
Continuous
 62
     7
100
AcDbLine
 10
349.673004
 20
68.352997
 30
0.0
 11
349.673004
 21
75.852997
 31
0.0
  0
LINE
  5
CD
330
22
100
AcDbEntity
  8
0
  6
Continuous
 62
     7
100
AcDbLine
 10
347.173004
 20
78.352997
 30
0.0
 11
342.173004
 21
78.352997
 31
0.0
  0
LINE
  5
CE
330
22
100
AcDbEntity
  8
0
  6
Continuous
 62
     7
100
AcDbLine
 10
336.673004
 20
79.767197
 30
0.0
 11
336.673004
 21
82.85299700000001
 31
0.0
  0
LINE
  5
CF
330
22
100
AcDbEntity
  8
0
  6
Continuous
 62
     7
100
AcDbLine
 10
352.673004
 20
79.767197
 30
0.0
 11
352.673004
 21
82.85299700000001
 31
0.0
  0
LINE
  5
D0
330
22
100
AcDbEntity
  8
0
  6
Continuous
 62
     7
100
AcDbLine
 10
352.673004
 20
82.85299700000001
 30
0.0
 11
336.673004
 21
82.85299700000001
 31
0.0
  0
LINE
  5
D1
330
22
100
AcDbEntity
  8
0
  6
Continuous
 62
     7
100
AcDbLine
 10
337.673004
 20
82.85299700000001
 30
0.0
 11
337.673004
 21
84.852997
 31
0.0
  0
LINE
  5
D2
330
22
100
AcDbEntity
  8
0
  6
Continuous
 62
     7
100
AcDbLine
 10
351.673004
 20
82.85299700000001
 30
0.0
 11
351.673004
 21
84.852997
 31
0.0
  0
LINE
  5
D3
330
22
100
AcDbEntity
  8
0
  6
Continuous
 62
     7
100
AcDbLine
 10
351.673004
 20
79.802498
 30
0.0
 11
351.673004
 21
82.85299700000001
 31
0.0
  0
LINE
  5
D4
330
22
100
AcDbEntity
  8
0
  6
Continuous
 62
     7
100
AcDbLine
 10
337.673004
 20
79.802498
 30
0.0
 11
337.673004
 21
82.85299700000001
 31
0.0
  0
LINE
  5
D5
330
22
100
AcDbEntity
  8
0
  6
Continuous
 62
     7
100
AcDbLine
 10
353.910004
 20
84.852997
 30
0.0
 11
344.673004
 21
84.852997
 31
0.0
  0
LINE
  5
D6
330
22
100
AcDbEntity
  8
0
  6
Continuous
 62
     7
100
AcDbLine
 10
352.673004
 20
89.852997
 30
0.0
 11
344.673004
 21
89.852997
 31
0.0
  0
LINE
  5
D7
330
22
100
AcDbEntity
  8
0
  6
Continuous
 62
     7
100
AcDbLine
 10
353.910004
 20
84.852997
 30
0.0
 11
353.910004
 21
89.138397
 31
0.0
  0
LINE
  5
D8
330
22
100
AcDbEntity
  8
0
  6
Continuous
 62
     7
100
AcDbLine
 10
352.673004
 20
89.852898
 30
0.0
 11
353.910004
 21
89.138397
 31
0.0
  0
LINE
  5
D9
330
22
100
AcDbEntity
  8
0
  6
Continuous
 62
     7
100
AcDbLine
 10
349.290985
 20
89.138397
 30
0.0
 11
349.290985
 21
84.852997
 31
0.0
  0
LINE
  5
DA
330
22
100
AcDbEntity
  8
0
  6
Continuous
 62
     7
100
AcDbLine
 10
335.434998
 20
84.852997
 30
0.0
 11
344.673004
 21
84.852997
 31
0.0
  0
LINE
  5
DB
330
22
100
AcDbEntity
  8
0
  6
Continuous
 62
     7
100
AcDbLine
 10
336.673004
 20
89.852997
 30
0.0
 11
344.673004
 21
89.852997
 31
0.0
  0
LINE
  5
DC
330
22
100
AcDbEntity
  8
0
  6
Continuous
 62
     7
100
AcDbLine
 10
335.434998
 20
84.852997
 30
0.0
 11
335.434998
 21
89.138397
 31
0.0
  0
LINE
  5
DD
330
22
100
AcDbEntity
  8
0
  6
Continuous
 62
     7
100
AcDbLine
 10
336.673004
 20
89.852898
 30
0.0
 11
335.434998
 21
89.138397
 31
0.0
  0
LINE
  5
DE
330
22
100
AcDbEntity
  8
0
  6
Continuous
 62
     7
100
AcDbLine
 10
340.053986
 20
89.138397
 30
0.0
 11
340.053986
 21
84.852997
 31
0.0
  0
LINE
  5
DF
330
22
100
AcDbEntity
  8
0
  6
Continuous
 62
     7
100
AcDbLine
 10
346.673004
 20
45.10309999999999
 30
0.0
 11
346.673004
 21
63.103001
 31
0.0
  0
LINE
  5
E0
330
22
100
AcDbEntity
  8
0
  6
Continuous
 62
     7
100
AcDbLine
 10
344.673004
 20
45.10309999999999
 30
0.0
 11
344.673004
 21
63.103001
 31
0.0
  0
LINE
  5
E1
330
22
100
AcDbEntity
  8
0
  6
Continuous
 62
     7
100
AcDbLine
 10
342.673004
 20
45.10309999999999
 30
0.0
 11
342.673004
 21
63.103001
 31
0.0
  0
LINE
  5
E2
330
22
100
AcDbEntity
  8
0
  6
Continuous
 62
     7
100
AcDbLine
 10
340.673004
 20
45.10309999999999
 30
0.0
 11
340.673004
 21
51.457298
 31
0.0
  0
LINE
  5
E3
330
22
100
AcDbEntity
  8
0
  6
Continuous
 62
     7
100
AcDbLine
 10
338.673004
 20
45.10309999999999
 30
0.0
 11
338.673004
 21
50.23009899999999
 31
0.0
  0
LINE
  5
E4
330
22
100
AcDbEntity
  8
0
  6
Continuous
 62
     7
100
AcDbLine
 10
336.673004
 20
45.10309999999999
 30
0.0
 11
336.673004
 21
50.23009899999999
 31
0.0
  0
LINE
  5
E5
330
22
100
AcDbEntity
  8
0
  6
Continuous
 62
     7
100
AcDbLine
 10
334.673004
 20
45.10309999999999
 30
0.0
 11
334.673004
 21
51.457298
 31
0.0
  0
LINE
  5
E6
330
22
100
AcDbEntity
  8
0
  6
Continuous
 62
     7
100
AcDbLine
 10
332.673004
 20
45.10309999999999
 30
0.0
 11
332.673004
 21
63.103001
 31
0.0
  0
LINE
  5
E7
330
22
100
AcDbEntity
  8
0
  6
Continuous
 62
     7
100
AcDbLine
 10
330.673004
 20
45.10309999999999
 30
0.0
 11
330.673004
 21
63.103001
 31
0.0
  0
LINE
  5
E8
330
22
100
AcDbEntity
  8
0
  6
Continuous
 62
     7
100
AcDbLine
 10
328.673004
 20
45.10309999999999
 30
0.0
 11
328.673004
 21
63.103001
 31
0.0
  0
LINE
  5
E9
330
22
100
AcDbEntity
  8
0
  6
Continuous
 62
     7
100
AcDbLine
 10
334.673004
 20
56.748798
 30
0.0
 11
334.673004
 21
63.103001
 31
0.0
  0
LINE
  5
EA
330
22
100
AcDbEntity
  8
0
  6
Continuous
 62
     7
100
AcDbLine
 10
336.673004
 20
57.976002
 30
0.0
 11
336.673004
 21
63.103001
 31
0.0
  0
LINE
  5
EB
330
22
100
AcDbEntity
  8
0
  6
Continuous
 62
     7
100
AcDbLine
 10
338.673004
 20
57.976002
 30
0.0
 11
338.673004
 21
63.103001
 31
0.0
  0
LINE
  5
EC
330
22
100
AcDbEntity
  8
0
  6
Continuous
 62
     7
100
AcDbLine
 10
340.673004
 20
56.748798
 30
0.0
 11
340.673004
 21
63.103001
 31
0.0
  0
LINE
  5
ED
330
22
100
AcDbEntity
  8
0
  6
Continuous
 62
     7
100
AcDbLine
 10
349.673004
 20
40.10309999999999
 30
0.0
 11
317.920013
 21
40.10309999999999
 31
0.0
  0
LINE
  5
EE
330
22
100
AcDbEntity
  8
0
  6
Continuous
 62
     7
100
AcDbLine
 10
403.0060119999999
 20
85.102997
 30
0.0
 11
403.0060119999999
 21
83.10299699999999
 31
0.0
  0
LINE
  5
EF
330
22
100
AcDbEntity
  8
0
  6
Continuous
 62
     7
100
AcDbLine
 10
403.0060119999999
 20
83.10299699999999
 30
0.0
 11
403.0060119999999
 21
80.102997
 31
0.0
  0
LINE
  5
F0
330
22
100
AcDbEntity
  8
0
  6
Continuous
 62
     7
100
AcDbLine
 10
402.006012
 20
83.10299699999999
 30
0.0
 11
402.006012
 21
80.102997
 31
0.0
  0
LINE
  5
F1
330
22
100
AcDbEntity
  8
0
  6
Continuous
 62
     7
100
AcDbLine
 10
420.0060119999999
 20
68.102997
 30
0.0
 11
420.0060119999999
 21
42.10309999999999
 31
0.0
  0
LINE
  5
F2
330
22
100
AcDbEntity
  8
0
  6
Continuous
 62
     7
100
AcDbLine
 10
400.0060119999999
 20
68.102997
 30
0.0
 11
400.0060119999999
 21
42.10309999999999
 31
0.0
  0
LINE
  5
F3
330
22
100
AcDbEntity
  8
0
  6
Continuous
 62
     7
100
AcDbLine
 10
420.0060119999999
 20
68.102997
 30
0.0
 11
400.0060119999999
 21
68.102997
 31
0.0
  0
LINE
  5
F4
330
22
100
AcDbEntity
  8
0
  6
Continuous
 62
     7
100
AcDbLine
 10
419.006012
 20
79.102997
 30
0.0
 11
419.006012
 21
68.102997
 31
0.0
  0
LINE
  5
F5
330
22
100
AcDbEntity
  8
0
  6
Continuous
 62
     7
100
AcDbLine
 10
418.006012
 20
80.102997
 30
0.0
 11
402.006012
 21
80.102997
 31
0.0
  0
LINE
  5
F6
330
22
100
AcDbEntity
  8
0
  6
Continuous
 62
     7
100
AcDbLine
 10
418.006012
 20
83.10299699999999
 30
0.0
 11
402.006012
 21
83.10299699999999
 31
0.0
  0
LINE
  5
F7
330
22
100
AcDbEntity
  8
0
  6
Continuous
 62
     7
100
AcDbLine
 10
418.006012
 20
85.102997
 30
0.0
 11
402.006012
 21
85.102997
 31
0.0
  0
LINE
  5
F8
330
22
100
AcDbEntity
  8
0
  6
Continuous
 62
     7
100
AcDbLine
 10
418.006012
 20
90.102997
 30
0.0
 11
402.006012
 21
90.102997
 31
0.0
  0
LINE
  5
F9
330
22
100
AcDbEntity
  8
0
  6
Continuous
 62
     7
100
AcDbLine
 10
418.006012
 20
90.102997
 30
0.0
 11
418.006012
 21
85.102997
 31
0.0
  0
LINE
  5
FA
330
22
100
AcDbEntity
  8
0
  6
Continuous
 62
     7
100
AcDbLine
 10
402.006012
 20
90.102997
 30
0.0
 11
402.006012
 21
85.102997
 31
0.0
  0
LINE
  5
FB
330
22
100
AcDbEntity
  8
0
  6
Continuous
 62
     7
100
AcDbLine
 10
417.006012
 20
85.102997
 30
0.0
 11
417.006012
 21
83.10299699999999
 31
0.0
  0
LINE
  5
FC
330
22
100
AcDbEntity
  8
0
  6
Continuous
 62
     7
100
AcDbLine
 10
418.006012
 20
83.10299699999999
 30
0.0
 11
418.006012
 21
80.102997
 31
0.0
  0
LINE
  5
FD
330
22
100
AcDbEntity
  8
0
  6
Continuous
 62
     7
100
AcDbLine
 10
417.006012
 20
83.10299699999999
 30
0.0
 11
417.006012
 21
80.102997
 31
0.0
  0
LINE
  5
FE
330
22
100
AcDbEntity
  8
0
  6
Continuous
 62
     7
100
AcDbLine
 10
402.006012
 20
90.102997
 30
0.0
 11
418.006012
 21
90.102997
 31
0.0
  0
LINE
  5
FF
330
22
100
AcDbEntity
  8
0
  6
Continuous
 62
     7
100
AcDbLine
 10
407.884003
 20
56.2243
 30
0.0
 11
412.127014
 21
51.9818
 31
0.0
  0
LINE
  5
100
330
22
100
AcDbEntity
  8
0
  6
Continuous
 62
     7
100
AcDbLine
 10
408.6640009999999
 20
52.761101
 30
0.0
 11
411.218994
 21
55.3162
 31
0.0
  0
LINE
  5
101
330
22
100
AcDbEntity
  8
0
  6
Continuous
 62
     7
100
AcDbLine
 10
418.006012
 20
40.10309999999999
 30
0.0
 11
402.006012
 21
40.10309999999999
 31
0.0
  0
LINE
  5
102
330
22
100
AcDbEntity
  8
0
  6
Continuous
 62
     7
100
AcDbLine
 10
401.006012
 20
79.102997
 30
0.0
 11
401.006012
 21
68.102997
 31
0.0
  0
LINE
  5
103
330
22
100
AcDbEntity
  8
0
  6
Continuous
 62
     7
100
AcDbLine
 10
419.006012
 20
71.102997
 30
0.0
 11
423.5060119999999
 21
71.102997
 31
0.0
  0
LINE
  5
104
330
22
100
AcDbEntity
  8
0
  6
Continuous
 62
     7
100
AcDbLine
 10
303.673004
 20
68.30300099999999
 30
0.0
 11
310.673004
 21
68.30300099999999
 31
0.0
  0
LINE
  5
105
330
22
100
AcDbEntity
  8
0
  6
Continuous
 62
     7
100
AcDbLine
 10
307.173004
 20
72.37339799999999
 30
0.0
 11
307.173004
 21
67.2771
 31
0.0
  0
LINE
  5
106
330
22
100
AcDbEntity
  8
0
  6
Continuous
 62
     7
100
AcDbLine
 10
304.423004
 20
70.178802
 30
0.0
 11
304.423004
 21
69.002998
 31
0.0
  0
LINE
  5
107
330
22
100
AcDbEntity
  8
0
  6
Continuous
 62
     7
100
AcDbLine
 10
309.923004
 20
70.178802
 30
0.0
 11
309.923004
 21
69.002998
 31
0.0
  0
LINE
  5
108
330
22
100
AcDbEntity
  8
0
  6
Continuous
 62
     7
100
AcDbLine
 10
310.173004
 20
69.002998
 30
0.0
 11
310.173004
 21
68.30300099999999
 31
0.0
  0
LINE
  5
109
330
22
100
AcDbEntity
  8
0
  6
Continuous
 62
     7
100
AcDbLine
 10
304.173004
 20
69.002998
 30
0.0
 11
310.173004
 21
69.002998
 31
0.0
  0
LINE
  5
10A
330
22
100
AcDbEntity
  8
0
  6
Continuous
 62
     7
100
AcDbLine
 10
304.173004
 20
69.002998
 30
0.0
 11
304.173004
 21
68.30300099999999
 31
0.0
  0
LINE
  5
10B
330
22
100
AcDbEntity
  8
0
  6
Continuous
 62
     7
100
AcDbLine
 10
276.173004
 20
26.1031
 30
0.0
 11
313.173004
 21
26.1031
 31
0.0
  0
LINE
  5
10C
330
22
100
AcDbEntity
  8
0
  6
Continuous
 62
     7
100
AcDbLine
 10
396.506012
 20
26.1031
 30
0.0
 11
423.5060119999999
 21
26.1031
 31
0.0
  0
LINE
  5
10D
330
22
100
AcDbEntity
  8
0
  6
Continuous
 62
     7
100
AcDbLine
 10
410.006012
 20
94.09999799999999
 30
0.0
 11
410.006012
 21
22.980101
 31
0.0
  0
LINE
  5
10E
330
22
100
AcDbEntity
  8
0
  6
Continuous
 62
     7
100
AcDbLine
 10
294.673004
 20
75.07119799999999
 30
0.0
 11
294.673004
 21
22.980101
 31
0.0
  0
LINE
  5
10F
330
22
100
AcDbEntity
  8
0
  6
Continuous
 62
     7
100
AcDbLine
 10
209.003998
 20
74.698601
 30
0.0
 11
209.003998
 21
21.9175
 31
0.0
  0
LINE
  5
110
330
22
100
AcDbEntity
  8
0
  6
Continuous
 62
     7
100
AcDbLine
 10
195.751007
 20
24.603001
 30
0.0
 11
222.751007
 21
24.603001
 31
0.0
  0
LINE
  5
111
330
22
100
AcDbEntity
  8
0
  6
Continuous
 62
     7
100
AcDbLine
 10
93.670998
 20
74.099197
 30
0.0
 11
93.670998
 21
21.441799
 31
0.0
  0
LINE
  5
112
330
22
100
AcDbEntity
  8
0
  6
Continuous
 62
     7
100
AcDbLine
 10
75.170998
 20
69.603104
 30
0.0
 11
121.170998
 21
69.603104
 31
0.0
  0
LINE
  5
113
330
22
100
AcDbEntity
  8
0
  6
Continuous
 62
     7
100
AcDbLine
 10
75.170998
 20
69.603104
 30
0.0
 11
75.170998
 21
24.6031
 31
0.0
  0
LINE
  5
114
330
22
100
AcDbEntity
  8
0
  6
Continuous
 62
     7
100
AcDbLine
 10
112.170998
 20
38.6031
 30
0.0
 11
112.170998
 21
24.6031
 31
0.0
  0
LINE
  5
115
330
22
100
AcDbEntity
  8
0
  6
Continuous
 62
     7
100
AcDbLine
 10
121.170998
 20
69.603104
 30
0.0
 11
121.170998
 21
38.6031
 31
0.0
  0
LINE
  5
116
330
22
100
AcDbEntity
  8
0
  6
Continuous
 62
     7
100
AcDbLine
 10
112.170998
 20
38.6031
 30
0.0
 11
121.170998
 21
38.6031
 31
0.0
  0
LINE
  5
117
330
22
100
AcDbEntity
  8
0
  6
Continuous
 62
     7
100
AcDbLine
 10
78.670998
 20
72.37239800000001
 30
0.0
 11
78.670998
 21
62.664101
 31
0.0
  0
LINE
  5
118
330
22
100
AcDbEntity
  8
0
  6
Continuous
 62
     7
100
AcDbLine
 10
75.170998
 20
65.603104
 30
0.0
 11
82.17099799999999
 21
65.603104
 31
0.0
  0
LINE
  5
119
330
22
100
AcDbEntity
  8
0
  6
Continuous
 62
     7
100
AcDbLine
 10
82.17099799999999
 20
69.603104
 30
0.0
 11
82.17099799999999
 21
65.603104
 31
0.0
  0
LINE
  5
11A
330
22
100
AcDbEntity
  8
0
  6
Continuous
 62
     7
100
AcDbLine
 10
122.170998
 20
68.103104
 30
0.0
 11
122.170998
 21
40.10309999999999
 31
0.0
  0
LINE
  5
11B
330
22
100
AcDbEntity
  8
0
  6
Continuous
 62
     7
100
AcDbLine
 10
121.170998
 20
68.103104
 30
0.0
 11
122.170998
 21
68.103104
 31
0.0
  0
LINE
  5
11C
330
22
100
AcDbEntity
  8
0
  6
Continuous
 62
     7
100
AcDbLine
 10
121.170998
 20
40.10309999999999
 30
0.0
 11
122.170998
 21
40.10309999999999
 31
0.0
  0
LINE
  5
11D
330
22
100
AcDbEntity
  8
0
  6
Continuous
 62
     7
100
AcDbLine
 10
122.170998
 20
67.103104
 30
0.0
 11
133.671005
 21
67.103104
 31
0.0
  0
LINE
  5
11E
330
22
100
AcDbEntity
  8
0
  6
Continuous
 62
     7
100
AcDbLine
 10
122.170998
 20
41.1031
 30
0.0
 11
133.671005
 21
41.1031
 31
0.0
  0
LINE
  5
11F
330
22
100
AcDbEntity
  8
0
  6
Continuous
 62
     7
100
AcDbLine
 10
133.671005
 20
67.103104
 30
0.0
 11
133.671005
 21
41.1031
 31
0.0
  0
LINE
  5
120
330
22
100
AcDbEntity
  8
0
  6
Continuous
 62
     7
100
AcDbLine
 10
131.171005
 20
41.1031
 30
0.0
 11
131.171005
 21
48.103001
 31
0.0
  0
LINE
  5
121
330
22
100
AcDbEntity
  8
0
  6
Continuous
 62
     7
100
AcDbLine
 10
131.171005
 20
48.1031
 30
0.0
 11
133.671005
 21
48.1031
 31
0.0
  0
LINE
  5
122
330
22
100
AcDbEntity
  8
0
  6
Continuous
 62
     7
100
AcDbLine
 10
131.421005
 20
69.103104
 30
0.0
 11
131.421005
 21
67.103104
 31
0.0
  0
LINE
  5
123
330
22
100
AcDbEntity
  8
0
  6
Continuous
 62
     7
100
AcDbLine
 10
124.420998
 20
69.103104
 30
0.0
 11
124.420998
 21
67.103104
 31
0.0
  0
LINE
  5
124
330
22
100
AcDbEntity
  8
0
  6
Continuous
 62
     7
100
AcDbLine
 10
124.420998
 20
69.102997
 30
0.0
 11
131.421005
 21
69.102997
 31
0.0
  0
LINE
  5
125
330
22
100
AcDbEntity
  8
0
  6
Continuous
 62
     7
100
AcDbLine
 10
127.920998
 20
95.89189899999999
 30
0.0
 11
127.920998
 21
68.608597
 31
0.0
  0
LINE
  5
126
330
22
100
AcDbEntity
  8
0
  6
Continuous
 62
     7
100
AcDbLine
 10
128.921005
 20
89.103104
 30
0.0
 11
128.921005
 21
81.923401
 31
0.0
  0
LINE
  5
127
330
22
100
AcDbEntity
  8
0
  6
Continuous
 62
     7
100
AcDbLine
 10
126.920998
 20
89.103104
 30
0.0
 11
126.920998
 21
81.997902
 31
0.0
  0
LINE
  5
128
330
22
100
AcDbEntity
  8
0
  6
Continuous
 62
     7
100
AcDbLine
 10
126.920998
 20
79.99790199999999
 30
0.0
 11
126.920998
 21
69.103104
 31
0.0
  0
LINE
  5
129
330
22
100
AcDbEntity
  8
0
  6
Continuous
 62
     7
100
AcDbLine
 10
128.921005
 20
79.92340099999999
 30
0.0
 11
128.921005
 21
69.103104
 31
0.0
  0
LINE
  5
12A
330
22
100
AcDbEntity
  8
0
  6
Continuous
 62
     7
100
AcDbLine
 10
126.920998
 20
89.103104
 30
0.0
 11
128.921005
 21
89.103104
 31
0.0
  0
LINE
  5
12B
330
22
100
AcDbEntity
  8
0
  6
Continuous
 62
     7
100
AcDbLine
 10
128.570999
 20
94.103104
 30
0.0
 11
128.570999
 21
89.103104
 31
0.0
  0
LINE
  5
12C
330
22
100
AcDbEntity
  8
0
  6
Continuous
 62
     7
100
AcDbLine
 10
127.271004
 20
94.103104
 30
0.0
 11
127.271004
 21
89.103104
 31
0.0
  0
LINE
  5
12D
330
22
100
AcDbEntity
  8
0
  6
Continuous
 62
     7
100
AcDbLine
 10
127.271004
 20
94.103104
 30
0.0
 11
128.570999
 21
94.103104
 31
0.0
  0
LINE
  5
12E
330
22
100
AcDbEntity
  8
0
  6
Continuous
 62
     7
100
AcDbLine
 10
200.251007
 20
70.603104
 30
0.0
 11
208.751007
 21
70.603104
 31
0.0
  0
LINE
  5
12F
330
22
100
AcDbEntity
  8
0
  6
Continuous
 62
     7
100
AcDbLine
 10
199.251007
 20
69.603104
 30
0.0
 11
200.251007
 21
70.603104
 31
0.0
  0
LINE
  5
130
330
22
100
AcDbEntity
  8
0
  6
Continuous
 62
     7
100
AcDbLine
 10
219.251007
 20
69.603104
 30
0.0
 11
218.251007
 21
70.603104
 31
0.0
  0
LINE
  5
131
330
22
100
AcDbEntity
  8
0
  6
Continuous
 62
     7
100
AcDbLine
 10
222.751007
 20
69.603104
 30
0.0
 11
222.751007
 21
24.6031
 31
0.0
  0
LINE
  5
132
330
22
100
AcDbEntity
  8
0
  6
Continuous
 62
     7
100
AcDbLine
 10
195.751007
 20
69.603104
 30
0.0
 11
195.751007
 21
24.6031
 31
0.0
  0
LINE
  5
133
330
22
100
AcDbEntity
  8
0
  6
Continuous
 62
     7
100
AcDbLine
 10
195.751007
 20
69.603104
 30
0.0
 11
208.751007
 21
69.603104
 31
0.0
  0
LINE
  5
134
330
22
100
AcDbEntity
  8
0
  6
Continuous
 62
     7
100
AcDbLine
 10
84.67099799999999
 20
70.603104
 30
0.0
 11
102.670998
 21
70.603104
 31
0.0
  0
LINE
  5
135
330
22
100
AcDbEntity
  8
0
  6
Continuous
 62
     7
100
AcDbLine
 10
103.670998
 20
69.602997
 30
0.0
 11
102.670998
 21
70.602997
 31
0.0
  0
LINE
  5
136
330
22
100
AcDbEntity
  8
0
  6
Continuous
 62
     7
100
AcDbLine
 10
83.670898
 20
69.60320300000001
 30
0.0
 11
84.670898
 21
70.603203
 31
0.0
  0
LINE
  5
137
330
22
100
AcDbEntity
  8
0
  6
Continuous
 62
     7
100
AcDbLine
 10
219.251007
 20
67.103104
 30
0.0
 11
219.251007
 21
41.1031
 31
0.0
  0
LINE
  5
138
330
22
100
AcDbEntity
  8
0
  6
Continuous
 62
     7
100
AcDbLine
 10
199.251007
 20
67.103104
 30
0.0
 11
199.251007
 21
41.1031
 31
0.0
  0
LINE
  5
139
330
22
100
AcDbEntity
  8
0
  6
Continuous
 62
     7
100
AcDbLine
 10
199.251007
 20
67.103104
 30
0.0
 11
219.251007
 21
67.103104
 31
0.0
  0
LINE
  5
13A
330
22
100
AcDbEntity
  8
0
  6
Continuous
 62
     7
100
AcDbLine
 10
199.251007
 20
41.1031
 30
0.0
 11
219.251007
 21
41.1031
 31
0.0
  0
LINE
  5
13B
330
22
100
AcDbEntity
  8
0
  6
Continuous
 62
     7
100
AcDbLine
 10
195.751007
 20
38.6031
 30
0.0
 11
222.751007
 21
38.6031
 31
0.0
  0
LINE
  5
13C
330
22
100
AcDbEntity
  8
0
  6
Continuous
 62
     7
100
AcDbLine
 10
217.251007
 20
69.103104
 30
0.0
 11
217.251007
 21
67.103104
 31
0.0
  0
LINE
  5
13D
330
22
100
AcDbEntity
  8
0
  6
Continuous
 62
     7
100
AcDbLine
 10
206.251007
 20
69.103104
 30
0.0
 11
206.251007
 21
67.103104
 31
0.0
  0
LINE
  5
13E
330
22
100
AcDbEntity
  8
0
  6
Continuous
 62
     7
100
AcDbLine
 10
206.251007
 20
69.102997
 30
0.0
 11
217.251007
 21
69.102997
 31
0.0
  0
LINE
  5
13F
330
22
100
AcDbEntity
  8
0
  6
Continuous
 62
     7
100
AcDbLine
 10
205.119995
 20
54.10309999999999
 30
0.0
 11
213.341995
 21
54.10309999999999
 31
0.0
  0
LINE
  5
140
330
22
100
AcDbEntity
  8
0
  6
Continuous
 62
     7
100
AcDbLine
 10
211.251007
 20
55.1031
 30
0.0
 11
211.251007
 21
53.1031
 31
0.0
  0
LINE
  5
141
330
22
100
AcDbEntity
  8
0
  6
Continuous
 62
     7
100
AcDbLine
 10
207.251007
 20
55.1031
 30
0.0
 11
207.251007
 21
53.1031
 31
0.0
  0
LINE
  5
142
330
22
100
AcDbEntity
  8
0
  6
Continuous
 62
     7
100
AcDbLine
 10
207.251007
 20
55.1031
 30
0.0
 11
211.251007
 21
55.1031
 31
0.0
  0
LINE
  5
143
330
22
100
AcDbEntity
  8
0
  6
Continuous
 62
     7
100
AcDbLine
 10
207.251007
 20
53.1031
 30
0.0
 11
211.251007
 21
53.1031
 31
0.0
  0
LINE
  5
144
330
22
100
AcDbEntity
  8
0
  6
Continuous
 62
     7
100
AcDbLine
 10
202.751007
 20
66.41149899999999
 30
0.0
 11
202.751007
 21
59.977001
 31
0.0
  0
LINE
  5
145
330
22
100
AcDbEntity
  8
0
  6
Continuous
 62
     7
100
AcDbLine
 10
199.535004
 20
63.1031
 30
0.0
 11
205.865005
 21
63.1031
 31
0.0
  0
LINE
  5
146
330
22
100
AcDbEntity
  8
0
  6
Continuous
 62
     7
100
AcDbLine
 10
199.251007
 20
60.103001
 30
0.0
 11
202.751007
 21
60.103001
 31
0.0
  0
LINE
  5
147
330
22
100
AcDbEntity
  8
0
  6
Continuous
 62
     7
100
AcDbLine
 10
205.751007
 20
67.103104
 30
0.0
 11
205.751007
 21
63.1031
 31
0.0
  0
LINE
  5
148
330
22
100
AcDbEntity
  8
0
  6
Continuous
 62
     7
100
AcDbLine
 10
212.751007
 20
41.1031
 30
0.0
 11
212.751007
 21
45.10309999999999
 31
0.0
  0
LINE
  5
149
330
22
100
AcDbEntity
  8
0
  6
Continuous
 62
     7
100
AcDbLine
 10
219.251007
 20
48.1031
 30
0.0
 11
215.751007
 21
48.1031
 31
0.0
  0
LINE
  5
14A
330
22
100
AcDbEntity
  8
0
  6
Continuous
 62
     7
100
AcDbLine
 10
215.751007
 20
41.794701
 30
0.0
 11
215.751007
 21
48.229198
 31
0.0
  0
LINE
  5
14B
330
22
100
AcDbEntity
  8
0
  6
Continuous
 62
     7
100
AcDbLine
 10
218.966995
 20
45.10309999999999
 30
0.0
 11
212.636993
 21
45.10309999999999
 31
0.0
  0
LINE
  5
14C
330
22
100
AcDbEntity
  8
0
  6
Continuous
 62
     7
100
AcDbLine
 10
197.751007
 20
68.603104
 30
0.0
 11
197.751007
 21
39.6031
 31
0.0
  0
LINE
  5
14D
330
22
100
AcDbEntity
  8
0
  6
Continuous
 62
     7
100
AcDbLine
 10
220.751007
 20
68.603104
 30
0.0
 11
220.751007
 21
39.6031
 31
0.0
  0
LINE
  5
14E
330
22
100
AcDbEntity
  8
0
  6
Continuous
 62
     7
100
AcDbLine
 10
197.751007
 20
68.603104
 30
0.0
 11
206.251007
 21
68.603104
 31
0.0
  0
LINE
  5
14F
330
22
100
AcDbEntity
  8
0
  6
Continuous
 62
     7
100
AcDbLine
 10
197.751007
 20
39.6031
 30
0.0
 11
220.751007
 21
39.6031
 31
0.0
  0
LINE
  5
150
330
22
100
AcDbEntity
  8
0
  6
Continuous
 62
     7
100
AcDbLine
 10
217.251007
 20
68.603104
 30
0.0
 11
220.751007
 21
68.603104
 31
0.0
  0
LINE
  5
151
330
22
100
AcDbEntity
  8
0
  6
Continuous
 62
     7
100
AcDbLine
 10
201.537003
 20
61.888901
 30
0.0
 11
203.988998
 21
64.34120199999999
 31
0.0
  0
LINE
  5
152
330
22
100
AcDbEntity
  8
0
  6
Continuous
 62
     7
100
AcDbLine
 10
201.570999
 20
64.28250099999999
 30
0.0
 11
204.024002
 21
61.830101
 31
0.0
  0
LINE
  5
153
330
22
100
AcDbEntity
  8
0
  6
Continuous
 62
     7
100
AcDbLine
 10
216.964996
 20
46.31729899999999
 30
0.0
 11
214.513
 21
43.865002
 31
0.0
  0
LINE
  5
154
330
22
100
AcDbEntity
  8
0
  6
Continuous
 62
     7
100
AcDbLine
 10
216.931
 20
43.923401
 30
0.0
 11
214.477997
 21
46.375801
 31
0.0
  0
LINE
  5
155
330
22
100
AcDbEntity
  8
0
  6
Continuous
 62
     7
100
AcDbLine
 10
213.751007
 20
95.89189899999999
 30
0.0
 11
213.751007
 21
68.517799
 31
0.0
  0
LINE
  5
156
330
22
100
AcDbEntity
  8
0
  6
Continuous
 62
     7
100
AcDbLine
 10
209.751007
 20
95.654099
 30
0.0
 11
209.751007
 21
68.410004
 31
0.0
  0
LINE
  5
157
330
22
100
AcDbEntity
  8
0
  6
Continuous
 62
     7
100
AcDbLine
 10
214.751007
 20
89.103104
 30
0.0
 11
214.751007
 21
81.997902
 31
0.0
  0
LINE
  5
158
330
22
100
AcDbEntity
  8
0
  6
Continuous
 62
     7
100
AcDbLine
 10
212.751007
 20
89.103104
 30
0.0
 11
212.751007
 21
81.923401
 31
0.0
  0
LINE
  5
159
330
22
100
AcDbEntity
  8
0
  6
Continuous
 62
     7
100
AcDbLine
 10
210.751007
 20
89.103104
 30
0.0
 11
210.751007
 21
81.997902
 31
0.0
  0
LINE
  5
15A
330
22
100
AcDbEntity
  8
0
  6
Continuous
 62
     7
100
AcDbLine
 10
208.751007
 20
89.103104
 30
0.0
 11
208.751007
 21
81.923401
 31
0.0
  0
LINE
  5
15B
330
22
100
AcDbEntity
  8
0
  6
Continuous
 62
     7
100
AcDbLine
 10
210.751007
 20
70.603104
 30
0.0
 11
212.751007
 21
70.603104
 31
0.0
  0
LINE
  5
15C
330
22
100
AcDbEntity
  8
0
  6
Continuous
 62
     7
100
AcDbLine
 10
210.751007
 20
69.603104
 30
0.0
 11
212.751007
 21
69.603104
 31
0.0
  0
LINE
  5
15D
330
22
100
AcDbEntity
  8
0
  6
Continuous
 62
     7
100
AcDbLine
 10
214.751007
 20
70.603104
 30
0.0
 11
218.251007
 21
70.603104
 31
0.0
  0
LINE
  5
15E
330
22
100
AcDbEntity
  8
0
  6
Continuous
 62
     7
100
AcDbLine
 10
214.751007
 20
69.603104
 30
0.0
 11
222.751007
 21
69.603104
 31
0.0
  0
LINE
  5
15F
330
22
100
AcDbEntity
  8
0
  6
Continuous
 62
     7
100
AcDbLine
 10
210.751007
 20
79.99790199999999
 30
0.0
 11
210.751007
 21
69.103104
 31
0.0
  0
LINE
  5
160
330
22
100
AcDbEntity
  8
0
  6
Continuous
 62
     7
100
AcDbLine
 10
208.751007
 20
79.92340099999999
 30
0.0
 11
208.751007
 21
69.103104
 31
0.0
  0
LINE
  5
161
330
22
100
AcDbEntity
  8
0
  6
Continuous
 62
     7
100
AcDbLine
 10
212.751007
 20
79.92340099999999
 30
0.0
 11
212.751007
 21
69.103104
 31
0.0
  0
LINE
  5
162
330
22
100
AcDbEntity
  8
0
  6
Continuous
 62
     7
100
AcDbLine
 10
214.751007
 20
79.99790199999999
 30
0.0
 11
214.751007
 21
69.103104
 31
0.0
  0
LINE
  5
163
330
22
100
AcDbEntity
  8
0
  6
Continuous
 62
     7
100
AcDbLine
 10
76.170998
 20
66.30310099999999
 30
0.0
 11
78.670998
 21
66.30310099999999
 31
0.0
  0
LINE
  5
164
330
22
100
AcDbEntity
  8
0
  6
Continuous
 62
     7
100
AcDbLine
 10
76.170998
 20
66.30310099999999
 30
0.0
 11
76.170998
 21
65.603104
 31
0.0
  0
LINE
  5
165
330
22
100
AcDbEntity
  8
0
  6
Continuous
 62
     7
100
AcDbLine
 10
81.170898
 20
66.30310099999999
 30
0.0
 11
78.670998
 21
66.30310099999999
 31
0.0
  0
LINE
  5
166
330
22
100
AcDbEntity
  8
0
  6
Continuous
 62
     7
100
AcDbLine
 10
81.170898
 20
66.30310099999999
 30
0.0
 11
81.170898
 21
65.603104
 31
0.0
  0
LINE
  5
167
330
22
100
AcDbEntity
  8
0
  6
Continuous
 62
     7
100
AcDbLine
 10
112.170998
 20
24.603001
 30
0.0
 11
75.170998
 21
24.603001
 31
0.0
  0
LINE
  5
168
330
22
100
AcDbEntity
  8
0
  6
Continuous
 62
     7
100
AcDbLine
 10
210.751007
 20
89.103104
 30
0.0
 11
208.751007
 21
89.103104
 31
0.0
  0
LINE
  5
169
330
22
100
AcDbEntity
  8
0
  6
Continuous
 62
     7
100
AcDbLine
 10
214.751007
 20
89.103104
 30
0.0
 11
212.751007
 21
89.103104
 31
0.0
  0
LINE
  5
16A
330
22
100
AcDbEntity
  8
0
  6
Continuous
 62
     7
100
AcDbLine
 10
213.095993
 20
94.103104
 30
0.0
 11
213.095993
 21
89.103104
 31
0.0
  0
LINE
  5
16B
330
22
100
AcDbEntity
  8
0
  6
Continuous
 62
     7
100
AcDbLine
 10
214.406006
 20
94.103104
 30
0.0
 11
214.406006
 21
89.103104
 31
0.0
  0
LINE
  5
16C
330
22
100
AcDbEntity
  8
0
  6
Continuous
 62
     7
100
AcDbLine
 10
210.406006
 20
94.103104
 30
0.0
 11
210.406006
 21
89.103104
 31
0.0
  0
LINE
  5
16D
330
22
100
AcDbEntity
  8
0
  6
Continuous
 62
     7
100
AcDbLine
 10
209.095993
 20
94.103104
 30
0.0
 11
209.095993
 21
89.103104
 31
0.0
  0
LINE
  5
16E
330
22
100
AcDbEntity
  8
0
  6
Continuous
 62
     7
100
AcDbLine
 10
214.406006
 20
94.103104
 30
0.0
 11
213.095993
 21
94.103104
 31
0.0
  0
LINE
  5
16F
330
22
100
AcDbEntity
  8
0
  6
Continuous
 62
     7
100
AcDbLine
 10
210.406006
 20
94.103104
 30
0.0
 11
209.095993
 21
94.103104
 31
0.0
  0
LINE
  5
170
330
22
100
AcDbEntity
  8
0
  6
PHANTOM
 62
     7
100
AcDbLine
 10
233.798996
 20
184.869003
 30
0.0
 11
239.798996
 21
190.869003
 31
0.0
  0
LINE
  5
171
330
22
100
AcDbEntity
  8
0
  6
PHANTOM
 62
     7
100
AcDbLine
 10
239.798996
 20
190.869003
 30
0.0
 11
264.799011
 21
190.869003
 31
0.0
  0
LINE
  5
172
330
22
100
AcDbEntity
  8
0
  6
PHANTOM
 62
     7
100
AcDbLine
 10
264.799988
 20
190.869003
 30
0.0
 11
270.799988
 21
184.869003
 31
0.0
  0
LINE
  5
173
330
22
100
AcDbEntity
  8
0
  6
PHANTOM
 62
     7
100
AcDbLine
 10
270.799988
 20
184.869003
 30
0.0
 11
270.799988
 21
176.369003
 31
0.0
  0
LINE
  5
174
330
22
100
AcDbEntity
  8
0
  6
PHANTOM
 62
     7
100
AcDbLine
 10
233.800003
 20
184.869003
 30
0.0
 11
233.800003
 21
176.369003
 31
0.0
  0
LINE
  5
175
330
22
100
AcDbEntity
  8
0
  6
PHANTOM
 62
     7
100
AcDbLine
 10
233.800003
 20
149.369003
 30
0.0
 11
233.800003
 21
140.869003
 31
0.0
  0
LINE
  5
176
330
22
100
AcDbEntity
  8
0
  6
PHANTOM
 62
     7
100
AcDbLine
 10
233.800003
 20
140.869003
 30
0.0
 11
239.800003
 21
134.869003
 31
0.0
  0
LINE
  5
177
330
22
100
AcDbEntity
  8
0
  6
PHANTOM
 62
     7
100
AcDbLine
 10
239.798996
 20
134.869003
 30
0.0
 11
264.799011
 21
134.869003
 31
0.0
  0
LINE
  5
178
330
22
100
AcDbEntity
  8
0
  6
PHANTOM
 62
     7
100
AcDbLine
 10
270.799988
 20
140.869003
 30
0.0
 11
264.799988
 21
134.869003
 31
0.0
  0
LINE
  5
179
330
22
100
AcDbEntity
  8
0
  6
PHANTOM
 62
     7
100
AcDbLine
 10
270.799988
 20
149.369003
 30
0.0
 11
270.799988
 21
140.869003
 31
0.0
  0
LINE
  5
17A
330
22
100
AcDbEntity
  8
0
  6
PHANTOM
 62
     7
100
AcDbLine
 10
233.800003
 20
147.869003
 30
0.0
 11
270.799011
 21
147.869003
 31
0.0
  0
LINE
  5
17B
330
22
100
AcDbEntity
  8
0
  6
PHANTOM
 62
     7
100
AcDbLine
 10
233.800003
 20
177.869003
 30
0.0
 11
270.799011
 21
177.869003
 31
0.0
  0
LINE
  5
17C
330
22
100
AcDbEntity
  8
0
  6
Continuous
 62
     7
100
AcDbLine
 10
94.29949999999999
 20
226.869003
 30
0.0
 11
94.29949999999999
 21
223.869003
 31
0.0
  0
LINE
  5
17D
330
22
100
AcDbEntity
  8
0
  6
PHANTOM
 62
     7
100
AcDbLine
 10
94.29949999999999
 20
226.869003
 30
0.0
 11
104.299004
 21
226.869003
 31
0.0
  0
LINE
  5
17E
330
22
100
AcDbEntity
  8
0
  6
PHANTOM
 62
     7
100
AcDbLine
 10
94.29949999999999
 20
224.869003
 30
0.0
 11
104.299004
 21
224.869003
 31
0.0
  0
LINE
  5
17F
330
22
100
AcDbEntity
  8
0
  6
Continuous
 62
     7
100
AcDbLine
 10
99.7995
 20
229.240997
 30
0.0
 11
99.7995
 21
222.425003
 31
0.0
  0
LINE
  5
180
330
22
100
AcDbEntity
  8
0
  6
PHANTOM
 62
     7
100
AcDbLine
 10
105.300003
 20
230.869003
 30
0.0
 11
105.300003
 21
227.869003
 31
0.0
  0
LINE
  5
181
330
22
100
AcDbEntity
  8
0
  6
PHANTOM
 62
     7
100
AcDbLine
 10
107.299004
 20
230.869003
 30
0.0
 11
107.299004
 21
227.869003
 31
0.0
  0
LINE
  5
182
330
22
100
AcDbEntity
  8
0
  6
PHANTOM
 62
     7
100
AcDbLine
 10
108.299004
 20
231.869003
 30
0.0
 11
136.300003
 21
231.869003
 31
0.0
  0
LINE
  5
183
330
22
100
AcDbEntity
  8
0
  6
PHANTOM
 62
     7
100
AcDbLine
 10
137.298996
 20
230.869003
 30
0.0
 11
137.298996
 21
227.869003
 31
0.0
  0
LINE
  5
184
330
22
100
AcDbEntity
  8
0
  6
PHANTOM
 62
     7
100
AcDbLine
 10
139.298996
 20
230.869003
 30
0.0
 11
139.298996
 21
227.869003
 31
0.0
  0
LINE
  5
185
330
22
100
AcDbEntity
  8
0
  6
PHANTOM
 62
     7
100
AcDbLine
 10
140.298996
 20
224.869003
 30
0.0
 11
150.300003
 21
224.869003
 31
0.0
  0
LINE
  5
186
330
22
100
AcDbEntity
  8
0
  6
PHANTOM
 62
     7
100
AcDbLine
 10
140.298996
 20
226.869003
 30
0.0
 11
150.300003
 21
226.869003
 31
0.0
  0
LINE
  5
187
330
22
100
AcDbEntity
  8
0
  6
PHANTOM
 62
     7
100
AcDbLine
 10
150.300003
 20
226.869003
 30
0.0
 11
150.300003
 21
224.869003
 31
0.0
  0
LINE
  5
188
330
22
100
AcDbEntity
  8
0
  6
PHANTOM
 62
     7
100
AcDbLine
 10
233.798996
 20
226.869003
 30
0.0
 11
270.799011
 21
226.869003
 31
0.0
  0
LINE
  5
189
330
22
100
AcDbEntity
  8
0
  6
PHANTOM
 62
     7
100
AcDbLine
 10
233.798996
 20
224.869003
 30
0.0
 11
270.799011
 21
224.869003
 31
0.0
  0
LINE
  5
18A
330
22
100
AcDbEntity
  8
0
  6
PHANTOM
 62
     7
100
AcDbLine
 10
233.798996
 20
230.869003
 30
0.0
 11
270.799011
 21
230.869003
 31
0.0
  0
LINE
  5
18B
330
22
100
AcDbEntity
  8
0
  6
PHANTOM
 62
     7
100
AcDbLine
 10
233.798996
 20
233.869003
 30
0.0
 11
233.798996
 21
224.869003
 31
0.0
  0
LINE
  5
18C
330
22
100
AcDbEntity
  8
0
  6
PHANTOM
 62
     7
100
AcDbLine
 10
270.799011
 20
233.869003
 30
0.0
 11
270.799011
 21
224.869003
 31
0.0
  0
LINE
  5
18D
330
22
100
AcDbEntity
  8
0
  6
PHANTOM
 62
     7
100
AcDbLine
 10
344.299988
 20
226.869003
 30
0.0
 11
344.299988
 21
224.869003
 31
0.0
  0
LINE
  5
18E
330
22
100
AcDbEntity
  8
0
  6
PHANTOM
 62
     7
100
AcDbLine
 10
344.299988
 20
224.869003
 30
0.0
 11
354.299988
 21
224.869003
 31
0.0
  0
LINE
  5
18F
330
22
100
AcDbEntity
  8
0
  6
PHANTOM
 62
     7
100
AcDbLine
 10
344.299988
 20
226.869003
 30
0.0
 11
354.299988
 21
226.869003
 31
0.0
  0
LINE
  5
190
330
22
100
AcDbEntity
  8
0
  6
PHANTOM
 62
     7
100
AcDbLine
 10
357.299011
 20
230.869003
 30
0.0
 11
357.299011
 21
227.869003
 31
0.0
  0
LINE
  5
191
330
22
100
AcDbEntity
  8
0
  6
PHANTOM
 62
     7
100
AcDbLine
 10
355.299988
 20
230.869003
 30
0.0
 11
355.299988
 21
227.869003
 31
0.0
  0
LINE
  5
192
330
22
100
AcDbEntity
  8
0
  6
PHANTOM
 62
     7
100
AcDbLine
 10
358.299011
 20
231.869003
 30
0.0
 11
386.299988
 21
231.869003
 31
0.0
  0
LINE
  5
193
330
22
100
AcDbEntity
  8
0
  6
PHANTOM
 62
     7
100
AcDbLine
 10
389.299988
 20
230.869003
 30
0.0
 11
389.299988
 21
227.869003
 31
0.0
  0
LINE
  5
194
330
22
100
AcDbEntity
  8
0
  6
PHANTOM
 62
     7
100
AcDbLine
 10
387.299011
 20
230.869003
 30
0.0
 11
387.299011
 21
227.869003
 31
0.0
  0
LINE
  5
195
330
22
100
AcDbEntity
  8
0
  6
PHANTOM
 62
     7
100
AcDbLine
 10
390.299988
 20
226.869003
 30
0.0
 11
400.2990109999999
 21
226.869003
 31
0.0
  0
LINE
  5
196
330
22
100
AcDbEntity
  8
0
  6
PHANTOM
 62
     7
100
AcDbLine
 10
390.299988
 20
224.869003
 30
0.0
 11
400.2990109999999
 21
224.869003
 31
0.0
  0
LINE
  5
197
330
22
100
AcDbEntity
  8
0
  6
PHANTOM
 62
     7
100
AcDbLine
 10
400.2999879999999
 20
226.869003
 30
0.0
 11
400.2999879999999
 21
224.869003
 31
0.0
  0
LINE
  5
198
330
22
100
AcDbEntity
  8
0
  6
Continuous
 62
     7
100
AcDbLine
 10
198.384003
 20
252.369003
 30
0.0
 11
241.022995
 21
252.369003
 31
0.0
  0
LINE
  5
199
330
22
100
AcDbEntity
  8
0
  6
Continuous
 62
     7
100
AcDbLine
 10
227.666
 20
271.368988
 30
0.0
 11
241.022995
 21
271.368988
 31
0.0
  0
LINE
  5
19A
330
22
100
AcDbEntity
  8
0
  6
Continuous
 62
     7
100
AcDbLine
 10
363.768005
 20
259.868988
 30
0.0
 11
380.666992
 21
259.868988
 31
0.0
  0
LINE
  5
19B
330
22
100
AcDbEntity
  8
0
  6
PHANTOM
 62
     7
100
AcDbLine
 10
207.630997
 20
252.369003
 30
0.0
 11
207.630997
 21
245.869003
 31
0.0
  0
LINE
  5
19C
330
22
100
AcDbEntity
  8
0
  6
PHANTOM
 62
     7
100
AcDbLine
 10
207.630997
 20
245.869003
 30
0.0
 11
212.130997
 21
246.104996
 31
0.0
  0
LINE
  5
19D
330
22
100
AcDbEntity
  8
0
  6
PHANTOM
 62
     7
100
AcDbLine
 10
207.630997
 20
246.869003
 30
0.0
 11
212.725998
 21
247.136002
 31
0.0
  0
LINE
  5
19E
330
22
100
AcDbEntity
  8
0
  6
PHANTOM
 62
     7
100
AcDbLine
 10
214.630997
 20
252.369003
 30
0.0
 11
214.630997
 21
250.434998
 31
0.0
  0
LINE
  5
19F
330
22
100
AcDbEntity
  8
0
  6
PHANTOM
 62
     7
100
AcDbLine
 10
212.130997
 20
252.369003
 30
0.0
 11
212.130997
 21
245.869003
 31
0.0
  0
LINE
  5
1A0
330
22
100
AcDbEntity
  8
0
  6
PHANTOM
 62
     7
100
AcDbLine
 10
212.130997
 20
246.104996
 30
0.0
 11
214.630997
 21
250.434998
 31
0.0
  0
LINE
  5
1A1
330
22
100
AcDbEntity
  8
0
  6
PHANTOM
 62
     7
100
AcDbLine
 10
207.630997
 20
252.369003
 30
0.0
 11
207.630997
 21
258.868988
 31
0.0
  0
LINE
  5
1A2
330
22
100
AcDbEntity
  8
0
  6
PHANTOM
 62
     7
100
AcDbLine
 10
207.630997
 20
258.868988
 30
0.0
 11
212.130997
 21
258.632996
 31
0.0
  0
LINE
  5
1A3
330
22
100
AcDbEntity
  8
0
  6
PHANTOM
 62
     7
100
AcDbLine
 10
207.630997
 20
257.868988
 30
0.0
 11
212.725998
 21
257.60199
 31
0.0
  0
LINE
  5
1A4
330
22
100
AcDbEntity
  8
0
  6
PHANTOM
 62
     7
100
AcDbLine
 10
214.630997
 20
252.369003
 30
0.0
 11
214.630997
 21
254.302994
 31
0.0
  0
LINE
  5
1A5
330
22
100
AcDbEntity
  8
0
  6
PHANTOM
 62
     7
100
AcDbLine
 10
212.130997
 20
252.369003
 30
0.0
 11
212.130997
 21
258.868988
 31
0.0
  0
LINE
  5
1A6
330
22
100
AcDbEntity
  8
0
  6
PHANTOM
 62
     7
100
AcDbLine
 10
212.130997
 20
258.632996
 30
0.0
 11
214.630997
 21
254.302994
 31
0.0
  0
LINE
  5
1A7
330
22
100
AcDbEntity
  8
0
  6
Continuous
 62
     7
100
AcDbLine
 10
246.677002
 20
185.369003
 30
0.0
 11
257.834991
 21
185.369003
 31
0.0
  0
LINE
  5
1A8
330
22
100
AcDbEntity
  8
0
  6
Continuous
 62
     7
100
AcDbLine
 10
247.106003
 20
140.369003
 30
0.0
 11
258.049988
 21
140.369003
 31
0.0
  0
LINE
  5
1A9
330
22
100
AcDbEntity
  8
0
  6
Continuous
 62
     7
100
AcDbLine
 10
252.298996
 20
143.985001
 30
0.0
 11
252.298996
 21
136.046005
 31
0.0
  0
LINE
  5
1AA
330
22
100
AcDbEntity
  8
0
  6
Continuous
 62
     7
100
AcDbLine
 10
252.298996
 20
178.962006
 30
0.0
 11
252.298996
 21
147.203995
 31
0.0
  0
LINE
  5
1AB
330
22
100
AcDbEntity
  8
0
  6
Continuous
 62
     7
100
AcDbLine
 10
204.125
 20
273.670013
 30
0.0
 11
226.095993
 21
273.670013
 31
0.0
  0
LINE
  5
1AC
330
22
100
AcDbEntity
  8
0
  6
Continuous
 62
     7
100
AcDbLine
 10
312.734009
 20
303.670013
 30
0.0
 11
352.945007
 21
303.670013
 31
0.0
  0
LINE
  5
1AD
330
22
100
AcDbEntity
  8
0
  6
Continuous
 62
     3
100
AcDbLine
 10
0.0
 20
0.0
 30
0.0
 11
0.0
 21
360.0
 31
0.0
  0
LINE
  5
1AE
330
22
100
AcDbEntity
  8
0
  6
Continuous
 62
     3
100
AcDbLine
 10
524.4940190000001
 20
360.0
 30
0.0
 11
524.4940190000001
 21
0.0
 31
0.0
  0
LINE
  5
1AF
330
22
100
AcDbEntity
  8
0
  6
Continuous
 62
     3
100
AcDbLine
 10
0.0
 20
0.0
 30
0.0
 11
524.4940190000001
 21
0.0
 31
0.0
  0
LINE
  5
1B0
330
22
100
AcDbEntity
  8
0
  6
Continuous
 62
     3
100
AcDbLine
 10
0.0
 20
360.0
 30
0.0
 11
524.4940190000001
 21
360.0
 31
0.0
  0
LINE
  5
1B1
330
22
100
AcDbEntity
  8
0
  6
Continuous
 62
     3
100
AcDbLine
 10
0.0
 20
339.774994
 30
0.0
 11
107.864998
 21
339.774994
 31
0.0
  0
LINE
  5
1B2
330
22
100
AcDbEntity
  8
0
  6
Continuous
 62
     3
100
AcDbLine
 10
107.864998
 20
339.774994
 30
0.0
 11
107.864998
 21
360.0
 31
0.0
  0
LINE
  5
1B3
330
22
100
AcDbEntity
  8
0
  6
Continuous
 62
     3
100
AcDbLine
 10
416.628998
 20
20.224701
 30
0.0
 11
524.4940190000001
 21
20.224701
 31
0.0
  0
LINE
  5
1B4
330
22
100
AcDbEntity
  8
0
  6
Continuous
 62
     3
100
AcDbLine
 10
416.628998
 20
339.774994
 30
0.0
 11
524.4940190000001
 21
339.774994
 31
0.0
  0
LINE
  5
1B5
330
22
100
AcDbEntity
  8
0
  6
Continuous
 62
     3
100
AcDbLine
 10
416.628998
 20
360.0
 30
0.0
 11
416.628998
 21
339.774994
 31
0.0
  0
LINE
  5
1B6
330
22
100
AcDbEntity
  8
0
  6
Continuous
 62
     3
100
AcDbLine
 10
416.628998
 20
20.224701
 30
0.0
 11
416.628998
 21
0.0
 31
0.0
  0
ARC
  5
1B7
330
22
100
AcDbEntity
  8
0
  6
Continuous
 62
     7
100
AcDbCircle
 10
109.599998
 20
234.669006
 30
0.0
 40
0.800003
100
AcDbArc
 50
180.0
 51
270.0
  0
ARC
  5
1B8
330
22
100
AcDbEntity
  8
0
  6
Continuous
 62
     7
100
AcDbCircle
 10
134.998993
 20
234.669006
 30
0.0
 40
0.800003
100
AcDbArc
 50
270.0
 51
0.0
  0
ARC
  5
1B9
330
22
100
AcDbEntity
  8
0
  6
Continuous
 62
     7
100
AcDbCircle
 10
269.998993
 20
234.669006
 30
0.0
 40
0.800003
100
AcDbArc
 50
270.0
 51
0.0
  0
ARC
  5
1BA
330
22
100
AcDbEntity
  8
0
  6
Continuous
 62
     7
100
AcDbCircle
 10
234.600006
 20
234.669006
 30
0.0
 40
0.800003
100
AcDbArc
 50
180.0
 51
270.0
  0
ARC
  5
1BB
330
22
100
AcDbEntity
  8
0
  6
Continuous
 62
     7
100
AcDbCircle
 10
359.600006
 20
234.669006
 30
0.0
 40
0.799988
100
AcDbArc
 50
180.0
 51
270.0
  0
ARC
  5
1BC
330
22
100
AcDbEntity
  8
0
  6
Continuous
 62
     7
100
AcDbCircle
 10
385.0
 20
234.669006
 30
0.0
 40
0.800003
100
AcDbArc
 50
270.0
 51
0.0
  0
CIRCLE
  5
1BD
330
22
100
AcDbEntity
  8
0
  6
Continuous
 62
     7
100
AcDbCircle
 10
361.799011
 20
276.368988
 30
0.0
 40
2.2
  0
CIRCLE
  5
1BE
330
22
100
AcDbEntity
  8
0
  6
Continuous
 62
     7
100
AcDbCircle
 10
382.799011
 20
266.368988
 30
0.0
 40
2.2
  0
ARC
  5
1BF
330
22
100
AcDbEntity
  8
0
  6
Continuous
 62
     7
100
AcDbCircle
 10
361.799011
 20
276.368988
 30
0.0
 40
4.0
100
AcDbArc
 50
0.0
 51
138.589996
  0
ARC
  5
1C0
330
22
100
AcDbEntity
  8
0
  6
Continuous
 62
     7
100
AcDbCircle
 10
382.799011
 20
266.368988
 30
0.0
 40
4.0
100
AcDbArc
 50
41.409599
 51
318.589996
  0
ARC
  5
1C1
330
22
100
AcDbEntity
  8
0
  6
Continuous
 62
     7
100
AcDbCircle
 10
361.799011
 20
276.368988
 30
0.0
 40
4.0
100
AcDbArc
 50
221.410004
 51
0.0
  0
ARC
  5
1C2
330
22
100
AcDbEntity
  8
0
  6
Continuous
 62
     7
100
AcDbCircle
 10
124.799004
 20
314.669006
 30
0.0
 40
2.5
100
AcDbArc
 50
0.0
 51
90.0
  0
ARC
  5
1C3
330
22
100
AcDbEntity
  8
0
  6
Continuous
 62
     7
100
AcDbCircle
 10
119.799004
 20
314.669006
 30
0.0
 40
2.5
100
AcDbArc
 50
90.0
 51
270.0
  0
ARC
  5
1C4
330
22
100
AcDbEntity
  8
0
  6
Continuous
 62
     7
100
AcDbCircle
 10
124.799004
 20
314.669006
 30
0.0
 40
3.5
100
AcDbArc
 50
0.0
 51
90.0
  0
ARC
  5
1C5
330
22
100
AcDbEntity
  8
0
  6
Continuous
 62
     7
100
AcDbCircle
 10
119.799004
 20
314.669006
 30
0.0
 40
3.5
100
AcDbArc
 50
90.0
 51
270.0
  0
ARC
  5
1C6
330
22
100
AcDbEntity
  8
0
  6
Continuous
 62
     7
100
AcDbCircle
 10
124.799004
 20
314.669006
 30
0.0
 40
3.5
100
AcDbArc
 50
270.0
 51
0.0
  0
ARC
  5
1C7
330
22
100
AcDbEntity
  8
0
  6
Continuous
 62
     7
100
AcDbCircle
 10
124.799004
 20
314.669006
 30
0.0
 40
2.5
100
AcDbArc
 50
270.0
 51
0.0
  0
CIRCLE
  5
1C8
330
22
100
AcDbEntity
  8
0
  6
Continuous
 62
     7
100
AcDbCircle
 10
124.799004
 20
314.669006
 30
0.0
 40
1.25
  0
CIRCLE
  5
1C9
330
22
100
AcDbEntity
  8
0
  6
Continuous
 62
     7
100
AcDbCircle
 10
119.799004
 20
314.669006
 30
0.0
 40
1.25
  0
ARC
  5
1CA
330
22
100
AcDbEntity
  8
0
  6
Continuous
 62
     7
100
AcDbCircle
 10
231.298996
 20
316.669006
 30
0.0
 40
0.5
100
AcDbArc
 50
90.0
 51
180.0
  0
ARC
  5
1CB
330
22
100
AcDbEntity
  8
0
  6
Continuous
 62
     7
100
AcDbCircle
 10
231.298996
 20
312.669006
 30
0.0
 40
0.5
100
AcDbArc
 50
180.0
 51
270.0
  0
CIRCLE
  5
1CC
330
22
100
AcDbEntity
  8
0
  6
Continuous
 62
     7
100
AcDbCircle
 10
119.799004
 20
314.669006
 30
0.0
 40
0.5
  0
CIRCLE
  5
1CD
330
22
100
AcDbEntity
  8
0
  6
Continuous
 62
     7
100
AcDbCircle
 10
124.799004
 20
314.669006
 30
0.0
 40
0.5
  0
CIRCLE
  5
1CE
330
22
100
AcDbEntity
  8
0
  6
Continuous
 62
     7
100
AcDbCircle
 10
122.299004
 20
271.368988
 30
0.0
 40
6.75
  0
CIRCLE
  5
1CF
330
22
100
AcDbEntity
  8
0
  6
Continuous
 62
     7
100
AcDbCircle
 10
122.299004
 20
252.369003
 30
0.0
 40
6.75
  0
CIRCLE
  5
1D0
330
22
100
AcDbEntity
  8
0
  6
Continuous
 62
     7
100
AcDbCircle
 10
372.299011
 20
259.868988
 30
0.0
 40
6.75
  0
CIRCLE
  5
1D1
330
22
100
AcDbEntity
  8
0
  6
Continuous
 62
     7
100
AcDbCircle
 10
122.299004
 20
271.368988
 30
0.0
 40
5.5
  0
CIRCLE
  5
1D2
330
22
100
AcDbEntity
  8
0
  6
Continuous
 62
     7
100
AcDbCircle
 10
122.299004
 20
252.369003
 30
0.0
 40
5.5
  0
CIRCLE
  5
1D3
330
22
100
AcDbEntity
  8
0
  6
Continuous
 62
     7
100
AcDbCircle
 10
372.299011
 20
259.868988
 30
0.0
 40
5.5
  0
CIRCLE
  5
1D4
330
22
100
AcDbEntity
  8
0
  6
Continuous
 62
     7
100
AcDbCircle
 10
238.298996
 20
261.368988
 30
0.0
 40
2.2
  0
CIRCLE
  5
1D5
330
22
100
AcDbEntity
  8
0
  6
Continuous
 62
     7
100
AcDbCircle
 10
266.299011
 20
250.369003
 30
0.0
 40
2.2
  0
CIRCLE
  5
1D6
330
22
100
AcDbEntity
  8
0
  6
Continuous
 62
     7
100
AcDbCircle
 10
132.798996
 20
276.368988
 30
0.0
 40
2.2
  0
CIRCLE
  5
1D7
330
22
100
AcDbEntity
  8
0
  6
Continuous
 62
     7
100
AcDbCircle
 10
111.799004
 20
266.368988
 30
0.0
 40
2.2
  0
CIRCLE
  5
1D8
330
22
100
AcDbEntity
  8
0
  6
Continuous
 62
     7
100
AcDbCircle
 10
239.798996
 20
173.369003
 30
0.0
 40
2.0
  0
CIRCLE
  5
1D9
330
22
100
AcDbEntity
  8
0
  6
Continuous
 62
     7
100
AcDbCircle
 10
264.799011
 20
152.369003
 30
0.0
 40
2.0
  0
CIRCLE
  5
1DA
330
22
100
AcDbEntity
  8
0
  6
Continuous
 62
     7
100
AcDbCircle
 10
239.798996
 20
173.369003
 30
0.0
 40
1.5
  0
CIRCLE
  5
1DB
330
22
100
AcDbEntity
  8
0
  6
Continuous
 62
     7
100
AcDbCircle
 10
264.799011
 20
152.369003
 30
0.0
 40
1.5
  0
ARC
  5
1DC
330
22
100
AcDbEntity
  8
0
  6
Continuous
 62
     7
100
AcDbCircle
 10
252.298996
 20
172.869003
 30
0.0
 40
3.5
100
AcDbArc
 50
180.0
 51
0.0
  0
ARC
  5
1DD
330
22
100
AcDbEntity
  8
0
  6
Continuous
 62
     7
100
AcDbCircle
 10
252.298996
 20
152.869003
 30
0.0
 40
3.5
100
AcDbArc
 50
0.0
 51
180.0
  0
CIRCLE
  5
1DE
330
22
100
AcDbEntity
  8
0
  6
Continuous
 62
     7
100
AcDbCircle
 10
252.298996
 20
172.869003
 30
0.0
 40
2.5
  0
CIRCLE
  5
1DF
330
22
100
AcDbEntity
  8
0
  6
Continuous
 62
     7
100
AcDbCircle
 10
252.298996
 20
152.869003
 30
0.0
 40
2.5
  0
ARC
  5
1E0
330
22
100
AcDbEntity
  8
0
  6
Continuous
 62
     7
100
AcDbCircle
 10
307.173004
 20
66.00299800000001
 30
0.0
 40
4.99999
100
AcDbArc
 50
56.63289999999999
 51
123.366997
  0
ARC
  5
1E1
330
22
100
AcDbEntity
  8
0
  6
Continuous
 62
     7
100
AcDbCircle
 10
349.173004
 20
65.852997
 30
0.0
 40
2.5
100
AcDbArc
 50
0.0
 51
90.0
  0
ARC
  5
1E2
330
22
100
AcDbEntity
  8
0
  6
Continuous
 62
     7
100
AcDbCircle
 10
347.173004
 20
75.852997
 30
0.0
 40
2.5
100
AcDbArc
 50
0.0
 51
90.0
  0
ARC
  5
1E3
330
22
100
AcDbEntity
  8
0
  6
Continuous
 62
     7
100
AcDbCircle
 10
342.173004
 20
75.852997
 30
0.0
 40
2.499989999999999
100
AcDbArc
 50
90.0
 51
180.0
  0
ARC
  5
1E4
330
22
100
AcDbEntity
  8
0
  6
Continuous
 62
     7
100
AcDbCircle
 10
334.673004
 20
69.352997
 30
0.0
 40
1.0
100
AcDbArc
 50
270.0
 51
0.0
  0
ARC
  5
1E5
330
22
100
AcDbEntity
  8
0
  6
Continuous
 62
     7
100
AcDbCircle
 10
337.173004
 20
78.352997
 30
0.0
 40
1.499989999999999
100
AcDbArc
 50
90.0
 51
180.0
  0
ARC
  5
1E6
330
22
100
AcDbEntity
  8
0
  6
Continuous
 62
     7
100
AcDbCircle
 10
352.173004
 20
78.352997
 30
0.0
 40
1.5
100
AcDbArc
 50
0.0
 51
90.0
  0
ARC
  5
1E7
330
22
100
AcDbEntity
  8
0
  6
Continuous
 62
     7
100
AcDbCircle
 10
351.601013
 20
85.76370199999999
 30
0.0
 40
4.089299999999999
100
AcDbArc
 50
55.61579899999999
 51
124.384003
  0
ARC
  5
1E8
330
22
100
AcDbEntity
  8
0
  6
Continuous
 62
     7
100
AcDbCircle
 10
344.673004
 20
74.567497
 30
0.0
 40
15.2854
100
AcDbArc
 50
72.41210200000001
 51
90.0
  0
ARC
  5
1E9
330
22
100
AcDbEntity
  8
0
  6
Continuous
 62
     7
100
AcDbCircle
 10
344.673004
 20
74.567497
 30
0.0
 40
15.2854
100
AcDbArc
 50
90.0
 51
107.587997
  0
ARC
  5
1EA
330
22
100
AcDbEntity
  8
0
  6
Continuous
 62
     7
100
AcDbCircle
 10
337.743988
 20
85.76370199999999
 30
0.0
 40
4.089299999999999
100
AcDbArc
 50
55.61579899999999
 51
124.384003
  0
ARC
  5
1EB
330
22
100
AcDbEntity
  8
0
  6
Continuous
 62
     7
100
AcDbCircle
 10
349.673004
 20
42.10309999999999
 30
0.0
 40
2.0
100
AcDbArc
 50
270.0
 51
0.0
  0
ARC
  5
1EC
330
22
100
AcDbEntity
  8
0
  6
Continuous
 62
     7
100
AcDbCircle
 10
414.006012
 20
78.324402
 30
0.0
 40
11.7785
100
AcDbArc
 50
70.14740000000002
 51
109.852997
  0
ARC
  5
1ED
330
22
100
AcDbEntity
  8
0
  6
Continuous
 62
     7
100
AcDbCircle
 10
406.006012
 20
78.324402
 30
0.0
 40
11.7785
100
AcDbArc
 50
70.14740000000002
 51
109.851997
  0
CIRCLE
  5
1EE
330
22
100
AcDbEntity
  8
0
  6
Continuous
 62
     7
100
AcDbCircle
 10
410.006012
 20
54.10309999999999
 30
0.0
 40
2.99999
  0
ARC
  5
1EF
330
22
100
AcDbEntity
  8
0
  6
Continuous
 62
     7
100
AcDbCircle
 10
418.006012
 20
42.10309999999999
 30
0.0
 40
2.0
100
AcDbArc
 50
270.0
 51
0.0
  0
ARC
  5
1F0
330
22
100
AcDbEntity
  8
0
  6
Continuous
 62
     7
100
AcDbCircle
 10
402.006012
 20
42.10309999999999
 30
0.0
 40
2.0
100
AcDbArc
 50
180.0
 51
270.0
  0
ARC
  5
1F1
330
22
100
AcDbEntity
  8
0
  6
Continuous
 62
     7
100
AcDbCircle
 10
402.006012
 20
79.102997
 30
0.0
 40
1.0
100
AcDbArc
 50
90.0
 51
180.0
  0
ARC
  5
1F2
330
22
100
AcDbEntity
  8
0
  6
Continuous
 62
     7
100
AcDbCircle
 10
418.006012
 20
79.102997
 30
0.0
 40
1.0
100
AcDbArc
 50
0.0
 51
90.0
  0
ARC
  5
1F3
330
22
100
AcDbEntity
  8
0
  6
Continuous
 62
     7
100
AcDbCircle
 10
202.751007
 20
63.1031
 30
0.0
 40
3.0
100
AcDbArc
 50
270.0
 51
0.0
  0
CIRCLE
  5
1F4
330
22
100
AcDbEntity
  8
0
  6
Continuous
 62
     7
100
AcDbCircle
 10
202.751007
 20
63.1031
 30
0.0
 40
2.5
  0
ARC
  5
1F5
330
22
100
AcDbEntity
  8
0
  6
Continuous
 62
     7
100
AcDbCircle
 10
215.751007
 20
45.10309999999999
 30
0.0
 40
3.0
100
AcDbArc
 50
90.0
 51
180.0
  0
CIRCLE
  5
1F6
330
22
100
AcDbEntity
  8
0
  6
Continuous
 62
     7
100
AcDbCircle
 10
215.751007
 20
45.10309999999999
 30
0.0
 40
2.5
  0
CIRCLE
  5
1F7
330
22
100
AcDbEntity
  8
0
  6
PHANTOM
 62
     7
100
AcDbCircle
 10
252.298996
 20
185.369003
 30
0.0
 40
2.75
  0
CIRCLE
  5
1F8
330
22
100
AcDbEntity
  8
0
  6
PHANTOM
 62
     7
100
AcDbCircle
 10
252.298996
 20
140.369003
 30
0.0
 40
2.75
  0
ARC
  5
1F9
330
22
100
AcDbEntity
  8
0
  6
PHANTOM
 62
     7
100
AcDbCircle
 10
104.299004
 20
227.869003
 30
0.0
 40
3.0
100
AcDbArc
 50
270.0
 51
0.0
  0
ARC
  5
1FA
330
22
100
AcDbEntity
  8
0
  6
PHANTOM
 62
     7
100
AcDbCircle
 10
104.299004
 20
227.869003
 30
0.0
 40
1.0
100
AcDbArc
 50
270.0
 51
0.0
  0
ARC
  5
1FB
330
22
100
AcDbEntity
  8
0
  6
PHANTOM
 62
     7
100
AcDbCircle
 10
108.299004
 20
230.869003
 30
0.0
 40
3.0
100
AcDbArc
 50
90.0
 51
180.0
  0
ARC
  5
1FC
330
22
100
AcDbEntity
  8
0
  6
PHANTOM
 62
     7
100
AcDbCircle
 10
108.299004
 20
230.869003
 30
0.0
 40
1.0
100
AcDbArc
 50
90.0
 51
180.0
  0
ARC
  5
1FD
330
22
100
AcDbEntity
  8
0
  6
PHANTOM
 62
     7
100
AcDbCircle
 10
136.300003
 20
230.869003
 30
0.0
 40
3.0
100
AcDbArc
 50
0.0
 51
90.0
  0
ARC
  5
1FE
330
22
100
AcDbEntity
  8
0
  6
PHANTOM
 62
     7
100
AcDbCircle
 10
140.300003
 20
227.869003
 30
0.0
 40
3.0
100
AcDbArc
 50
180.0
 51
270.0
  0
ARC
  5
1FF
330
22
100
AcDbEntity
  8
0
  6
PHANTOM
 62
     7
100
AcDbCircle
 10
140.300003
 20
227.869003
 30
0.0
 40
1.0
100
AcDbArc
 50
180.0
 51
270.0
  0
ARC
  5
200
330
22
100
AcDbEntity
  8
0
  6
Continuous
 62
     7
100
AcDbCircle
 10
136.300003
 20
230.869003
 30
0.0
 40
1.0
100
AcDbArc
 50
0.0
 51
90.0
  0
ARC
  5
201
330
22
100
AcDbEntity
  8
0
  6
PHANTOM
 62
     7
100
AcDbCircle
 10
354.299988
 20
227.869003
 30
0.0
 40
3.0
100
AcDbArc
 50
270.0
 51
0.0
  0
ARC
  5
202
330
22
100
AcDbEntity
  8
0
  6
PHANTOM
 62
     7
100
AcDbCircle
 10
354.299988
 20
227.869003
 30
0.0
 40
1.0
100
AcDbArc
 50
270.0
 51
0.0
  0
ARC
  5
203
330
22
100
AcDbEntity
  8
0
  6
PHANTOM
 62
     7
100
AcDbCircle
 10
358.299988
 20
230.869003
 30
0.0
 40
3.0
100
AcDbArc
 50
90.0
 51
180.0
  0
ARC
  5
204
330
22
100
AcDbEntity
  8
0
  6
PHANTOM
 62
     7
100
AcDbCircle
 10
358.299988
 20
230.869003
 30
0.0
 40
1.0
100
AcDbArc
 50
90.0
 51
180.0
  0
ARC
  5
205
330
22
100
AcDbEntity
  8
0
  6
PHANTOM
 62
     7
100
AcDbCircle
 10
386.299988
 20
230.869003
 30
0.0
 40
1.0
100
AcDbArc
 50
0.0
 51
90.0
  0
ARC
  5
206
330
22
100
AcDbEntity
  8
0
  6
PHANTOM
 62
     7
100
AcDbCircle
 10
386.299988
 20
230.869003
 30
0.0
 40
3.0
100
AcDbArc
 50
0.0
 51
90.0
  0
ARC
  5
207
330
22
100
AcDbEntity
  8
0
  6
PHANTOM
 62
     7
100
AcDbCircle
 10
390.299988
 20
227.869003
 30
0.0
 40
3.0
100
AcDbArc
 50
180.0
 51
270.0
  0
ARC
  5
208
330
22
100
AcDbEntity
  8
0
  6
PHANTOM
 62
     7
100
AcDbCircle
 10
390.299988
 20
227.869003
 30
0.0
 40
1.0
100
AcDbArc
 50
180.0
 51
270.0
  0
LWPOLYLINE
  5
209
330
22
100
AcDbEntity
  8
0
  6
Continuous
 62
     7
100
AcDbPolyline
 90
        7
 70
     0
 43
0.0
 10
224.690002
 20
161.632004
 10
224.618683
 20
161.246246
 10
224.623001
 20
160.830002
 10
224.760361
 20
160.30986
 10
224.856995
 20
159.828003
 10
224.784683
 20
159.466904
 10
224.623001
 20
159.126999
  0
LWPOLYLINE
  5
212
330
22
100
AcDbEntity
  8
0
  6
Continuous
 62
     7
100
AcDbPolyline
 90
        7
 70
     0
 43
0.0
 10
226.427002
 20
161.598999
 10
226.330338
 20
161.156525
 10
226.326996
 20
160.697006
 10
226.45813
 20
160.18895
 10
226.526993
 20
159.727997
 10
226.42009
 20
159.411484
 10
226.225998
 20
159.126999
  0
LWPOLYLINE
  5
21B
330
22
100
AcDbEntity
  8
0
  6
Continuous
 62
     7
100
AcDbPolyline
 90
        6
 70
     0
 43
0.0
 10
249.798996
 20
235.869003
 10
249.845673
 20
235.326431
 10
250.126007
 20
234.723007
 10
250.710266
 20
234.216614
 10
251.48671
 20
233.942398
 10
252.298996
 20
233.869003
  0
LWPOLYLINE
  5
223
330
22
100
AcDbEntity
  8
0
  6
Continuous
 62
     7
100
AcDbPolyline
 90
        6
 70
     0
 43
0.0
 10
254.798996
 20
235.869003
 10
254.752853
 20
235.326508
 10
254.473007
 20
234.723007
 10
253.888474
 20
234.216507
 10
253.111649
 20
233.942337
 10
252.298996
 20
233.869003
  0
LWPOLYLINE
  5
22B
330
22
100
AcDbEntity
  8
0
  6
Continuous
 62
     7
100
AcDbPolyline
 90
        6
 70
     0
 43
0.0
 10
359.549011
 20
330.169006
 10
359.5301819999999
 20
330.633759
 10
359.72699
 20
331.225006
 10
360.309692
 20
331.82373
 10
361.15448
 20
332.161499
 10
362.049011
 20
332.269012
  0
LWPOLYLINE
  5
233
330
22
100
AcDbEntity
  8
0
  6
Continuous
 62
     7
100
AcDbPolyline
 90
        6
 70
     0
 43
0.0
 10
364.549011
 20
330.169006
 10
364.568359
 20
330.633698
 10
364.372009
 20
331.225006
 10
363.789063
 20
331.823853
 10
362.9439089999999
 20
332.16153
 10
362.049011
 20
332.269012
  0
LWPOLYLINE
  5
23B
330
22
100
AcDbEntity
  8
0
  6
Continuous
 62
     7
100
AcDbPolyline
 90
        6
 70
     0
 43
0.0
 10
114.549004
 20
330.169006
 10
114.568344
 20
330.633698
 10
114.372002
 20
331.225006
 10
113.78904
 20
331.823853
 10
112.943886
 20
332.16153
 10
112.049004
 20
332.269012
  0
LWPOLYLINE
  5
243
330
22
100
AcDbEntity
  8
0
  6
Continuous
 62
     7
100
AcDbPolyline
 90
        6
 70
     0
 43
0.0
 10
109.549004
 20
330.169006
 10
109.530182
 20
330.633759
 10
109.726997
 20
331.225006
 10
110.309708
 20
331.82373
 10
111.15448
 20
332.161499
 10
112.049004
 20
332.269012
  0
LWPOLYLINE
  5
24B
330
22
100
AcDbEntity
  8
0
  6
Continuous
 62
     7
100
AcDbPolyline
 90
        6
 70
     0
 43
0.0
 10
268.549011
 20
330.169006
 10
268.568359
 20
330.633698
 10
268.372009
 20
331.225006
 10
267.789063
 20
331.823853
 10
266.943909
 20
332.16153
 10
266.049011
 20
332.269012
  0
LWPOLYLINE
  5
253
330
22
100
AcDbEntity
  8
0
  6
Continuous
 62
     7
100
AcDbPolyline
 90
        6
 70
     0
 43
0.0
 10
263.549011
 20
330.169006
 10
263.530182
 20
330.633759
 10
263.72699
 20
331.225006
 10
264.309692
 20
331.82373
 10
265.15448
 20
332.161499
 10
266.049011
 20
332.269012
  0
LWPOLYLINE
  5
25B
330
22
100
AcDbEntity
  8
0
  6
Continuous
 62
     7
100
AcDbPolyline
 90
        7
 70
     0
 43
0.0
 10
223.690002
 20
315.932007
 10
223.618683
 20
315.546234
 10
223.623001
 20
315.130005
 10
223.760361
 20
314.609863
 10
223.856995
 20
314.127991
 10
223.784668
 20
313.766907
 10
223.623001
 20
313.427002
  0
LWPOLYLINE
  5
264
330
22
100
AcDbEntity
  8
0
  6
Continuous
 62
     7
100
AcDbPolyline
 90
        7
 70
     0
 43
0.0
 10
225.427002
 20
315.898987
 10
225.330338
 20
315.456512
 10
225.326996
 20
314.997009
 10
225.45813
 20
314.488983
 10
225.526993
 20
314.028015
 10
225.42009
 20
313.711487
 10
225.225998
 20
313.427002
  0
LWPOLYLINE
  5
26D
330
22
100
AcDbEntity
  8
0
  6
Continuous
 62
     7
100
AcDbPolyline
 90
        7
 70
     0
 43
0.0
 10
224.690002
 20
166.632004
 10
224.618683
 20
166.246246
 10
224.623001
 20
165.830002
 10
224.760361
 20
165.30986
 10
224.856995
 20
164.828003
 10
224.784683
 20
164.466904
 10
224.623001
 20
164.126999
  0
LWPOLYLINE
  5
276
330
22
100
AcDbEntity
  8
0
  6
Continuous
 62
     7
100
AcDbPolyline
 90
        7
 70
     0
 43
0.0
 10
226.427002
 20
166.598999
 10
226.330338
 20
166.156525
 10
226.326996
 20
165.697006
 10
226.45813
 20
165.18895
 10
226.526993
 20
164.727997
 10
226.42009
 20
164.411484
 10
226.225998
 20
164.126999
  0
LWPOLYLINE
  5
27F
330
22
100
AcDbEntity
  8
0
  6
Continuous
 62
     7
100
AcDbPolyline
 90
       33
 70
     0
 43
0.0
 10
400.0060119999999
 20
64.102997
 10
400.3097229999999
 20
64.926712
 10
400.709503
 20
65.768387
 10
401.1921689999999
 20
66.567436
 10
401.7445979999999
 20
67.263283
 10
402.353577
 20
67.795326
 10
403.0060119999999
 20
68.102997
 10
403.809662
 20
68.134857
 10
404.6432799999999
 20
67.857201
 10
405.479126
 20
67.32215100000001
 10
406.289612
 20
66.58184099999999
 10
407.046997
 20
65.6884
 10
407.729034
 20
64.709663
 10
408.350922
 20
63.744747
 10
408.9277039999999
 20
62.910664
 10
409.474396
 20
62.324413
 10
410.006012
 20
62.103001
 10
410.5369259999999
 20
62.323463
 10
411.0821529999999
 20
62.90779499999999
 10
411.657837
 20
63.740437
 10
412.2800599999999
 20
64.705826
 10
412.964996
 20
65.6884
 10
413.7214359999999
 20
66.58669300000001
 10
414.524506
 20
67.32951400000001
 10
415.353485
 20
67.86464699999999
 10
416.187561
 20
68.13988499999999
 10
417.006012
 20
68.102997
 10
417.6724549999999
 20
67.791656
 10
418.2853699999999
 20
67.258575
 10
418.834991
 20
66.56346899999999
 10
419.311493
 20
65.76603699999999
 10
419.705109
 20
64.92598
 10
420.0060119999999
 20
64.102997
  0
LWPOLYLINE
  5
2A2
330
22
100
AcDbEntity
  8
0
  6
Continuous
 62
     7
100
AcDbPolyline
 90
        7
 70
     0
 43
0.0
 10
214.770004
 20
79.984596
 10
214.536926
 20
80.14102199999999
 10
214.220993
 20
80.20449799999999
 10
213.670197
 20
79.95709999999999
 10
213.194
 20
79.727997
 10
212.946823
 20
79.800499
 10
212.718002
 20
79.947998
  0
LWPOLYLINE
  5
2AB
330
22
100
AcDbEntity
  8
0
  6
Continuous
 62
     7
100
AcDbPolyline
 90
        7
 70
     0
 43
0.0
 10
210.770004
 20
79.984596
 10
210.536926
 20
80.14101399999999
 10
210.220993
 20
80.20449799999999
 10
209.670197
 20
79.95709999999999
 10
209.194
 20
79.727997
 10
208.946823
 20
79.80050699999999
 10
208.718002
 20
79.947998
  0
LWPOLYLINE
  5
2B4
330
22
100
AcDbEntity
  8
0
  6
Continuous
 62
     7
100
AcDbPolyline
 90
        6
 70
     0
 43
0.0
 10
81.170898
 20
66.30310099999999
 10
81.04343399999999
 20
67.249229
 10
80.59610000000001
 20
68.09549699999999
 10
80.05114
 20
68.52565
 10
79.384239
 20
68.79115300000001
 10
78.681702
 20
68.911697
  0
LWPOLYLINE
  5
2BC
330
22
100
AcDbEntity
  8
0
  6
Continuous
 62
     7
100
AcDbPolyline
 90
        7
 70
     0
 43
0.0
 10
214.770004
 20
81.98459599999999
 10
214.536926
 20
82.14102199999999
 10
214.220993
 20
82.204498
 10
213.670197
 20
81.9571
 10
213.194
 20
81.727997
 10
212.946823
 20
81.800499
 10
212.718002
 20
81.947998
  0
LWPOLYLINE
  5
2C5
330
22
100
AcDbEntity
  8
0
  6
Continuous
 62
     7
100
AcDbPolyline
 90
        6
 70
     0
 43
0.0
 10
76.170998
 20
66.30310099999999
 10
76.298462
 20
67.24923699999999
 10
76.745796
 20
68.09549699999999
 10
77.290756
 20
68.525642
 10
77.95766400000001
 20
68.79115300000001
 10
78.660202
 20
68.911697
  0
LWPOLYLINE
  5
2CD
330
22
100
AcDbEntity
  8
0
  6
Continuous
 62
     7
100
AcDbPolyline
 90
        6
 70
     0
 43
0.0
 10
131.171005
 20
42.10309999999999
 10
131.952118
 20
42.104759
 10
132.738998
 20
42.41279999999999
 10
133.26207
 20
42.998928
 10
133.5625
 20
43.780006
 10
133.671005
 20
44.60309999999999
  0
LWPOLYLINE
  5
2D5
330
22
100
AcDbEntity
  8
0
  6
Continuous
 62
     7
100
AcDbPolyline
 90
        6
 70
     0
 43
0.0
 10
131.171005
 20
47.10309999999999
 10
131.952133
 20
47.101387
 10
132.738998
 20
46.793301
 10
133.262054
 20
46.207199
 10
133.5625
 20
45.426159
 10
133.671005
 20
44.60309999999999
  0
LWPOLYLINE
  5
2DD
330
22
100
AcDbEntity
  8
0
  6
Continuous
 62
     7
100
AcDbPolyline
 90
        7
 70
     0
 43
0.0
 10
126.902
 20
79.984596
 10
127.135071
 20
80.14102199999999
 10
127.450996
 20
80.20449799999999
 10
128.001801
 20
79.95709999999999
 10
128.477997
 20
79.727997
 10
128.725174
 20
79.80050699999999
 10
128.953995
 20
79.947998
  0
LWPOLYLINE
  5
2E6
330
22
100
AcDbEntity
  8
0
  6
Continuous
 62
     7
100
AcDbPolyline
 90
        7
 70
     0
 43
0.0
 10
126.902
 20
81.98459599999999
 10
127.135071
 20
82.14102199999999
 10
127.450996
 20
82.204498
 10
128.001801
 20
81.9571
 10
128.477997
 20
81.727997
 10
128.725174
 20
81.800507
 10
128.953995
 20
81.947998
  0
LWPOLYLINE
  5
2EF
330
22
100
AcDbEntity
  8
0
  6
Continuous
 62
     7
100
AcDbPolyline
 90
        7
 70
     0
 43
0.0
 10
210.770004
 20
81.98459599999999
 10
210.536926
 20
82.14102199999999
 10
210.220993
 20
82.204498
 10
209.670197
 20
81.9571
 10
209.194
 20
81.727997
 10
208.946823
 20
81.800507
 10
208.718002
 20
81.947998
  0
TEXT
  5
2F8
330
22
100
AcDbEntity
  8
0
 62
     7
100
AcDbText
 10
110.204994
 20
270.511993
 30
0.0
 40
3.2
  1
P
 41
0.8199999999999999
100
AcDbText
  0
TEXT
  5
2F9
330
22
100
AcDbEntity
  8
0
 62
     7
100
AcDbText
 10
110.355995
 20
250.819
 30
0.0
 40
3.2
  1
R
 41
0.8199999999999999
100
AcDbText
  0
TEXT
  5
2FA
330
22
100
AcDbEntity
  8
0
 62
     7
100
AcDbText
 10
360.343994
 20
258.347992
 30
0.0
 40
3.2
  1
A
 41
0.8199999999999999
100
AcDbText
  0
TEXT
  5
2FB
330
22
100
AcDbEntity
  8
0
 62
     7
100
AcDbText
 10
203.115997
 20
275.032013
 30
0.0
 40
4.0
  1
（添付品）
 41
0.690278
100
AcDbText
  0
TEXT
  5
2FC
330
22
100
AcDbEntity
  8
0
 62
     7
100
AcDbText
 10
314.617004
 20
305.321991
 30
0.0
 40
4.0
  1
ザグリφ８深３
 41
0.6602660000000001
100
AcDbText
  0
TEXT
  5
2FD
330
22
100
AcDbEntity
  8
0
 62
     7
100
AcDbText
 10
423.066986
 20
346.888
 30
0.0
 40
6.0
  1
DATE : AUG ,1992
 41
0.835716
100
AcDbText
  0
TEXT
  5
2FE
330
22
100
AcDbEntity
  8
0
 62
     7
100
AcDbText
 10
25.632599
 20
346.388
 30
0.0
 40
7.0
  1
AIR VALBU
 41
0.7678570000000001
100
AcDbText
  0
TEXT
  5
2FF
330
22
100
AcDbEntity
  8
0
 62
     7
100
AcDbText
 10
431.762024
 20
8.362399999999999
 30
0.0
 40
7.0
  1
KOGANEI,CORP
 41
0.8285709999999999
100
AcDbText
  0
TEXT
  5
300
330
22
100
AcDbEntity
  8
0
 62
     7
100
AcDbText
 10
12.411343
 20
293.070007
 30
0.0
 40
8.0
  1
MODEL:V200E1
 41
0.8412709999999998
100
AcDbText
  0
LINE
  5
301
330
22
100
AcDbEntity
  8
0
  6
Continuous
 62
     7
100
AcDbLine
 10
270.718994
 20
96.12460300000002
 30
0.0
 11
231.714996
 21
96.12460300000002
 31
0.0
  0
LINE
  5
302
330
22
100
AcDbEntity
  8
0
  6
Continuous
 62
     7
100
AcDbLine
 10
231.714996
 20
96.12460300000002
 30
0.0
 11
211.677002
 21
55.97570000000001
 31
0.0
  0
LINE
  5
303
330
22
100
AcDbEntity
  8
0
  6
Continuous
 62
     7
100
AcDbLine
 10
211.677002
 20
55.97570000000001
 30
0.0
 11
213.665787
 21
58.22175600000001
 31
0.0
  0
LINE
  5
304
330
22
100
AcDbEntity
  8
0
  6
Continuous
 62
     7
100
AcDbLine
 10
211.677002
 20
55.97570000000001
 30
0.0
 11
212.276306
 21
58.91523000000001
 31
0.0
  0
TEXT
  5
305
330
22
100
AcDbEntity
  8
0
 62
     7
100
AcDbText
 10
231.714996
 20
96.12460300000002
 30
0.0
 40
3.2
  1
ＬＥＤインジケータ
 41
0.6436450000000001
100
AcDbText
  0
LINE
  5
306
330
22
100
AcDbEntity
  8
0
  6
Continuous
 62
     7
100
AcDbLine
 10
325.295013
 20
123.669998
 30
0.0
 11
279.733002
 21
123.669998
 31
0.0
  0
LINE
  5
307
330
22
100
AcDbEntity
  8
0
  6
Continuous
 62
     7
100
AcDbLine
 10
279.733002
 20
123.669998
 30
0.0
 11
265.722992
 21
150.595001
 31
0.0
  0
LINE
  5
308
330
22
100
AcDbEntity
  8
0
  6
Continuous
 62
     7
100
AcDbLine
 10
265.722992
 20
150.595001
 30
0.0
 11
266.371765
 21
147.666
 31
0.0
  0
LINE
  5
309
330
22
100
AcDbEntity
  8
0
  6
Continuous
 62
     7
100
AcDbLine
 10
265.722992
 20
150.595001
 30
0.0
 11
267.749359
 21
148.382797
 31
0.0
  0
TEXT
  5
30A
330
22
100
AcDbEntity
  8
0
 62
     7
100
AcDbText
 10
279.733002
 20
123.669998
 30
0.0
 40
3.2
  1
２－Ｍ３Ｘ０．５深１２
 41
0.634664
100
AcDbText
  0
LINE
  5
30B
330
22
100
AcDbEntity
  8
0
  6
Continuous
 62
     7
100
AcDbLine
 10
203.938004
 20
123.669998
 30
0.0
 11
229.733002
 21
123.669998
 31
0.0
  0
LINE
  5
30C
330
22
100
AcDbEntity
  8
0
  6
Continuous
 62
     7
100
AcDbLine
 10
229.733002
 20
123.669998
 30
0.0
 11
250.089005
 21
138.733002
 31
0.0
  0
LINE
  5
30D
330
22
100
AcDbEntity
  8
0
  6
Continuous
 62
     7
100
AcDbLine
 10
250.089005
 20
138.733002
 30
0.0
 11
247.29776
 21
137.633469
 31
0.0
  0
LINE
  5
30E
330
22
100
AcDbEntity
  8
0
  6
Continuous
 62
     7
100
AcDbLine
 10
250.089005
 20
138.733002
 30
0.0
 11
248.221481
 21
136.385162
 31
0.0
  0
TEXT
  5
30F
330
22
100
AcDbEntity
  8
0
 62
     7
100
AcDbText
 10
203.938004
 20
123.669998
 30
0.0
 40
3.2
  1
2-φ5.5
 41
1.039609
100
AcDbText
  0
LINE
  5
310
330
22
100
AcDbEntity
  8
0
  6
Continuous
 62
     7
100
AcDbLine
 10
209.938995
 20
283.819
 30
0.0
 11
200.179001
 21
283.819
 31
0.0
  0
LINE
  5
311
330
22
100
AcDbEntity
  8
0
  6
Continuous
 62
     7
100
AcDbLine
 10
200.179001
 20
283.819
 30
0.0
 11
210.052002
 21
258.8280029999999
 31
0.0
  0
LINE
  5
312
330
22
100
AcDbEntity
  8
0
  6
Continuous
 62
     7
100
AcDbLine
 10
210.052002
 20
258.8280029999999
 30
0.0
 11
209.709427
 21
261.80838
 31
0.0
  0
LINE
  5
313
330
22
100
AcDbEntity
  8
0
  6
Continuous
 62
     7
100
AcDbLine
 10
210.052002
 20
258.8280029999999
 30
0.0
 11
208.265137
 21
261.237793
 31
0.0
  0
TEXT
  5
314
330
22
100
AcDbEntity
  8
0
 62
     7
100
AcDbText
 10
200.179001
 20
283.819
 30
0.0
 40
3.2
  1
-2
 41
1.139999999999999
100
AcDbText
  0
LINE
  5
315
330
22
100
AcDbEntity
  8
0
  6
Continuous
 62
     7
100
AcDbLine
 10
183.675003
 20
213.669998
 30
0.0
 11
209.733002
 21
213.669998
 31
0.0
  0
LINE
  5
316
330
22
100
AcDbEntity
  8
0
  6
Continuous
 62
     7
100
AcDbLine
 10
209.733002
 20
213.669998
 30
0.0
 11
237.169006
 21
259.4819950000001
 31
0.0
  0
LINE
  5
317
330
22
100
AcDbEntity
  8
0
  6
Continuous
 62
     7
100
AcDbLine
 10
237.169006
 20
259.4819950000001
 30
0.0
 11
235.014023
 21
257.394897
 31
0.0
  0
LINE
  5
318
330
22
100
AcDbEntity
  8
0
  6
Continuous
 62
     7
100
AcDbLine
 10
237.169006
 20
259.4819950000001
 30
0.0
 11
236.346283
 21
256.597015
 31
0.0
  0
TEXT
  5
319
330
22
100
AcDbEntity
  8
0
 62
     7
100
AcDbText
 10
183.675003
 20
213.669998
 30
0.0
 40
3.2
  1
2-φ4.4
 41
1.039609
100
AcDbText
  0
LINE
  5
31A
330
22
100
AcDbEntity
  8
0
  6
Continuous
 62
     7
100
AcDbLine
 10
322.811005
 20
313.670013
 30
0.0
 11
349.733002
 21
313.670013
 31
0.0
  0
LINE
  5
31B
330
22
100
AcDbEntity
  8
0
  6
Continuous
 62
     7
100
AcDbLine
 10
349.733002
 20
313.670013
 30
0.0
 11
360.567993
 21
280.174988
 31
0.0
  0
LINE
  5
31C
330
22
100
AcDbEntity
  8
0
  6
Continuous
 62
     7
100
AcDbLine
 10
360.567993
 20
280.174988
 30
0.0
 11
360.414886
 21
283.1710819999999
 31
0.0
  0
LINE
  5
31D
330
22
100
AcDbEntity
  8
0
  6
Continuous
 62
     7
100
AcDbLine
 10
360.567993
 20
280.174988
 30
0.0
 11
358.937347
 21
282.693115
 31
0.0
  0
TEXT
  5
31E
330
22
100
AcDbEntity
  8
0
 62
     7
100
AcDbText
 10
322.811005
 20
313.670013
 30
0.0
 40
3.2
  1
2-φ4.4
 41
1.039609
100
AcDbText
  0
LINE
  5
31F
330
22
100
AcDbEntity
  8
0
  6
Continuous
 62
     7
100
AcDbLine
 10
426.897003
 20
313.670013
 30
0.0
 11
399.733002
 21
313.670013
 31
0.0
  0
LINE
  5
320
330
22
100
AcDbEntity
  8
0
  6
Continuous
 62
     7
100
AcDbLine
 10
399.733002
 20
313.670013
 30
0.0
 11
375.365997
 21
265.882996
 31
0.0
  0
LINE
  5
321
330
22
100
AcDbEntity
  8
0
  6
Continuous
 62
     7
100
AcDbLine
 10
375.365997
 20
265.882996
 30
0.0
 11
377.374054
 21
268.111816
 31
0.0
  0
LINE
  5
322
330
22
100
AcDbEntity
  8
0
  6
Continuous
 62
     7
100
AcDbLine
 10
375.365997
 20
265.882996
 30
0.0
 11
375.990631
 21
268.817261
 31
0.0
  0
TEXT
  5
323
330
22
100
AcDbEntity
  8
0
 62
     7
100
AcDbText
 10
399.733002
 20
313.670013
 30
0.0
 40
3.2
  1
3-R
 41
0.7892310000000001
100
AcDbText
  0
TEXT
  5
324
330
22
100
AcDbEntity
  8
0
 62
     7
100
AcDbText
 10
407.309631
 20
313.670013
 30
0.0
 40
1.6
  1
C
 41
0.7892310000000001
100
AcDbText
  0
TEXT
  5
325
330
22
100
AcDbEntity
  8
0
 62
     7
100
AcDbText
 10
408.5723879999999
 20
313.670013
 30
0.0
 40
3.2
  1
1/4
 41
0.7892310000000001
100
AcDbText
  0
VIEWPORT
  5
32B
102
{ACAD_XDICTIONARY
360
341
102
}
330
1E
100
AcDbEntity
 67
     1
  8
0
  6
Continuous
100
AcDbViewport
 10
5.655416053111158
 20
3.94208322359821
 30
0.0
 40
14.23548242080631
 41
8.746133096049151
 68
     1
 69
     1
 12
5.655416053111158
 22
3.94208322359821
 13
0.0
 23
0.0
 14
10.0
 24
10.0
 15
10.0
 25
10.0
 16
0.0
 26
0.0
 36
1.0
 17
0.0
 27
0.0
 37
0.0
 42
50.0
 43
0.0
 44
0.0
 45
8.746133096049151
 50
0.0
 51
0.0
 72
   100
 90
    32800
  1

281
     0
 71
     1
 74
     0
110
0.0
120
0.0
130
0.0
111
1.0
121
0.0
131
0.0
112
0.0
122
1.0
132
0.0
 79
     0
146
0.0
  0
VIEWPORT
  5
32E
102
{ACAD_XDICTIONARY
360
343
102
}
330
1E
100
AcDbEntity
 67
     1
  8
0
  6
Continuous
100
AcDbViewport
 10
5.653750051663616
 20
3.94041662141094
 30
0.0
 40
9.046000082661784
 41
6.304666594257505
 68
     2
 69
     2
 12
262.2470095000001
 22
180.0
 13
0.0
 23
0.0
 14
1.0
 24
1.0
 15
0.0
 25
0.0
 16
0.0
 26
0.0
 36
1.0
 17
0.0
 27
0.0
 37
0.0
 42
50.0
 43
0.0
 44
0.0
 45
368.343410142332
 50
0.0
 51
0.0
 72
   100
 90
    32800
  1

281
     0
 71
     1
 74
     0
110
0.0
120
0.0
130
0.0
111
1.0
121
0.0
131
0.0
112
0.0
122
1.0
132
0.0
 79
     0
146
0.0
  0
ENDSEC
  0
SECTION
  2
OBJECTS
  0
DICTIONARY
  5
C
330
0
100
AcDbDictionary
281
     1
  3
ACAD_COLOR
350
1B
  3
ACAD_GROUP
350
D
  3
ACAD_LAYOUT
350
19
  3
ACAD_MATERIAL
350
1A
  3
ACAD_MLINESTYLE
350
16
  3
ACAD_PLOTSETTINGS
350
18
  3
ACAD_PLOTSTYLENAME
350
E
  3
ACAD_TABLESTYLE
350
1C
  3
ACDBHEADERROUNDTRIPXREC
350
33D
  3
AcDbVariableDictionary
350
338
  0
DICTIONARY
  5
332
330
2
100
AcDbDictionary
280
     1
281
     1
  3
ACAD_LAYERSTATES
360
333
  0
DICTIONARY
  5
341
330
32B
100
AcDbDictionary
280
     1
281
     1
  3
ACAD_XREC_ROUNDTRIP
360
342
  0
DICTIONARY
  5
343
330
32E
100
AcDbDictionary
280
     1
281
     1
  3
ACAD_XREC_ROUNDTRIP
360
344
  0
DICTIONARY
  5
1B
102
{ACAD_REACTORS
330
C
102
}
330
C
100
AcDbDictionary
281
     1
  0
DICTIONARY
  5
D
102
{ACAD_REACTORS
330
C
102
}
330
C
100
AcDbDictionary
281
     1
  0
DICTIONARY
  5
19
102
{ACAD_REACTORS
330
C
102
}
330
C
100
AcDbDictionary
281
     1
  3
Model
350
25
  3
レイアウト1
350
21
  0
DICTIONARY
  5
1A
102
{ACAD_REACTORS
330
C
102
}
330
C
100
AcDbDictionary
281
     1
  0
DICTIONARY
  5
16
102
{ACAD_REACTORS
330
C
102
}
330
C
100
AcDbDictionary
281
     1
  3
Standard
350
17
  0
DICTIONARY
  5
18
102
{ACAD_REACTORS
330
C
102
}
330
C
100
AcDbDictionary
281
     1
  0
ACDBDICTIONARYWDFLT
  5
E
102
{ACAD_REACTORS
330
C
102
}
330
C
100
AcDbDictionary
281
     1
  3
Normal
350
F
100
AcDbDictionaryWithDefault
340
F
  0
DICTIONARY
  5
1C
102
{ACAD_REACTORS
330
C
102
}
330
C
100
AcDbDictionary
281
     1
  3
Standard
350
1D
  0
DICTIONARY
  5
33D
102
{ACAD_REACTORS
330
C
102
}
330
C
100
AcDbDictionary
281
     1
  0
DICTIONARY
  5
338
102
{ACAD_REACTORS
330
C
102
}
330
C
100
AcDbDictionary
281
     1
  3
CTABLESTYLE
350
339
  3
DIMASSOC
350
33A
  3
PROJECTNAME
350
33B
  0
DICTIONARY
  5
333
102
{ACAD_REACTORS
330
332
102
}
330
332
100
AcDbDictionary
281
     1
  0
XRECORD
  5
342
102
{ACAD_REACTORS
330
341
102
}
330
341
100
AcDbXrecord
280
     1
102
SHADEPLOT
 70
     0
  0
XRECORD
  5
344
102
{ACAD_REACTORS
330
343
102
}
330
343
100
AcDbXrecord
280
     1
102
SHADEPLOT
 70
     0
  0
LAYOUT
  5
25
102
{ACAD_XDICTIONARY
360
33F
102
}
102
{ACAD_REACTORS
330
19
102
}
330
19
100
AcDbPlotSettings
  1

  2
DocuCentre Color f450
  4

  6

 40
0.0
 41
0.0
 42
0.0
 43
0.0
 44
0.0
 45
0.0
 46
0.0
 47
0.0
 48
0.0
 49
0.0
140
0.0
141
0.0
142
1.0
143
1.0
 70
  1712
 72
     0
 73
     0
 74
     0
  7

 75
     0
147
1.0
148
0.0
149
0.0
100
AcDbLayout
  1
Model
 70
     1
 71
     0
 10
0.0
 20
0.0
 11
12.0
 21
9.0
 12
0.0
 22
0.0
 32
0.0
 14
0.0
 24
0.0
 34
0.0
 15
0.0
 25
0.0
 35
0.0
146
0.0
 13
0.0
 23
0.0
 33
0.0
 16
1.0
 26
0.0
 36
0.0
 17
0.0
 27
1.0
 37
0.0
 76
     0
330
22
  0
LAYOUT
  5
21
102
{ACAD_XDICTIONARY
360
335
102
}
102
{ACAD_REACTORS
330
19
102
}
330
19
100
AcDbPlotSettings
  1

  2
DocuCentre Color f450
  4
A4
  6

 40
4.857749938964843
 41
4.942390441894531
 42
4.942413330078125
 43
4.857757568359375
 44
209.9733276367187
 45
297.0106506347656
 46
0.0
 47
0.0
 48
0.0
 49
0.0
140
0.0
141
0.0
142
1.0
143
1.0
 70
   688
 72
     0
 73
     1
 74
     5
  7

 75
    16
147
1.0
148
0.0
149
0.0
100
AcDbLayout
  1
レイアウト1
 70
     1
 71
     1
 10
-0.1912502979669045
 20
-0.1912499975970411
 11
11.50208240418922
 21
8.075416444793461
 12
0.0
 22
0.0
 32
0.0
 14
1.130750010332723
 24
0.7880833242821881
 34
0.0
 15
10.17675009299451
 25
7.092749918539693
 35
0.0
146
0.0
 13
0.0
 23
0.0
 33
0.0
 16
1.0
 26
0.0
 36
0.0
 17
0.0
 27
1.0
 37
0.0
 76
     0
330
1E
331
32B
1001
ACAD_PSEXT
1000
DocuCentre Color f450
1000
FX DocuCentre Color f450
1000
192.168.41.214
1000

1070
     0
  0
MLINESTYLE
  5
17
102
{ACAD_REACTORS
330
16
102
}
330
16
100
AcDbMlineStyle
  2
STANDARD
 70
     0
  3

 62
   256
 51
90.0
 52
90.0
 71
     2
 49
0.5
 62
   256
  6
BYLAYER
 49
-0.5
 62
   256
  6
BYLAYER
  0
ACDBPLACEHOLDER
  5
F
102
{ACAD_REACTORS
330
E
102
}
330
E
  0
TABLESTYLE
  5
1D
102
{ACAD_REACTORS
330
1C
102
}
330
1C
100
AcDbTableStyle
  3
Standard
 70
     0
 71
     0
 40
0.06
 41
0.06
280
     0
281
     0
  7
STANDARD
140
0.18
170
     2
 62
     0
 63
     7
283
     0
274
    -2
284
     1
 64
     0
275
    -2
285
     1
 65
     0
276
    -2
286
     1
 66
     0
277
    -2
287
     1
 67
     0
278
    -2
288
     1
 68
     0
279
    -2
289
     1
 69
     0
  7
STANDARD
140
0.25
170
     5
 62
     0
 63
     7
283
     0
274
    -2
284
     1
 64
     0
275
    -2
285
     1
 65
     0
276
    -2
286
     1
 66
     0
277
    -2
287
     1
 67
     0
278
    -2
288
     1
 68
     0
279
    -2
289
     1
 69
     0
  7
STANDARD
140
0.18
170
     5
 62
     0
 63
     7
283
     0
274
    -2
284
     1
 64
     0
275
    -2
285
     1
 65
     0
276
    -2
286
     1
 66
     0
277
    -2
287
     1
 67
     0
278
    -2
288
     1
 68
     0
279
    -2
289
     1
 69
     0
  0
DICTIONARYVAR
  5
339
102
{ACAD_REACTORS
330
338
102
}
330
338
100
DictionaryVariables
280
     0
  1
STANDARD
  0
DICTIONARYVAR
  5
33A
102
{ACAD_REACTORS
330
338
102
}
330
338
100
DictionaryVariables
280
     0
  1
1
  0
DICTIONARYVAR
  5
33B
102
{ACAD_REACTORS
330
338
102
}
330
338
100
DictionaryVariables
280
     0
  1

  0
DICTIONARY
  5
33F
330
25
100
AcDbDictionary
280
     1
281
     1
  3
ACAD_XREC_ROUNDTRIP
360
340
  0
DICTIONARY
  5
335
330
21
100
AcDbDictionary
280
     1
281
     1
  3
ACAD_XREC_ROUNDTRIP
360
33E
  3
ADSK_XREC_LAYOUTTHUMBNAIL
360
336
  0
XRECORD
  5
340
102
{ACAD_REACTORS
330
33F
102
}
330
33F
100
AcDbXrecord
280
     1
102
SHADEPLOT
 70
     0
102
SHADEPLOTRESLEVEL
 70
     2
102
SHADEPLOTCUSTOMDPI
 70
   300
  0
XRECORD
  5
33E
102
{ACAD_REACTORS
330
335
102
}
330
335
100
AcDbXrecord
280
     1
102
SHADEPLOT
 70
     0
102
SHADEPLOTRESLEVEL
 70
     2
102
SHADEPLOTCUSTOMDPI
 70
   300
  0
XRECORD
  5
336
102
{ACAD_REACTORS
330
335
102
}
330
335
100
AcDbXrecord
280
     1
310
28000000B40000007F00000001000800000000004C590000000000000000000000010000000000000000000000000000FFFFFF000000000000000000000000000000000000000000000000000000000000000000330000006600000099000000CC000000FF00000000330000333300006633000099330000CC330000FF3300
310
0000660000336600006666000099660000CC660000FF66000000990000339900006699000099990000CC990000FF99000000CC000033CC000066CC000099CC0000CCCC0000FFCC000000FF000033FF000066FF000099FF0000CCFF0000FFFF000000003300330033006600330099003300CC003300FF003300003333003333
310
33006633330099333300CC333300FF33330000663300336633006666330099663300CC663300FF66330000993300339933006699330099993300CC993300FF99330000CC330033CC330066CC330099CC3300CCCC3300FFCC330000FF330033FF330066FF330099FF3300CCFF3300FFFF330000006600330066006600660099
310
006600CC006600FF00660000336600333366006633660099336600CC336600FF33660000666600336666006666660099666600CC666600FF66660000996600339966006699660099996600CC996600FF99660000CC660033CC660066CC660099CC6600CCCC6600FFCC660000FF660033FF660066FF660099FF6600CCFF6600
310
FFFF660000009900330099006600990099009900CC009900FF00990000339900333399006633990099339900CC339900FF33990000669900336699006666990099669900CC669900FF66990000999900339999006699990099999900CC999900FF99990000CC990033CC990066CC990099CC9900CCCC9900FFCC990000FF99
310
0033FF990066FF990099FF9900CCFF9900FFFF99000000CC003300CC006600CC009900CC00CC00CC00FF00CC000033CC003333CC006633CC009933CC00CC33CC00FF33CC000066CC003366CC006666CC009966CC00CC66CC00FF66CC000099CC003399CC006699CC009999CC00CC99CC00FF99CC0000CCCC0033CCCC0066CC
310
CC0099CCCC00CCCCCC00FFCCCC0000FFCC0033FFCC0066FFCC0099FFCC00CCFFCC00FFFFCC000000FF003300FF006600FF009900FF00CC00FF00FF00FF000033FF003333FF006633FF009933FF00CC33FF00FF33FF000066FF003366FF006666FF009966FF00CC66FF00FF66FF000099FF003399FF006699FF009999FF00CC
310
99FF00FF99FF0000CCFF0033CCFF0066CCFF0099CCFF00CCCCFF00FFCCFF0000FFFF0033FFFF0066FFFF0099FFFF00CCFFFF00FFFFFF00000000000D0D0D001A1A1A00282828003535350043434300505050005D5D5D006B6B6B00787878008686860093939300A1A1A100AEAEAE00BBBBBB00C9C9C900D6D6D600E4E4E400
310
F1F1F100FFFFFF0000000000000000000000000000000000000000000000000000000000000000000000000000000000EFF5F5F5F5F5F5F5F5F5F5F5F5F5F5F5F5F5F5F5F5F5F5F5F5F5F5F5F5F5F5F5F5F5F5F5F5F5F5F5F5F5F5F5F5F5F5F5F5F5F5F5F5F5F5F5F5F5F5F5F5F5F5F5F5F5F5F5F5F5F5F5F5F5F5F5F5F5F5
310
F5F5F5F5F5F5F5F5F5F5F5F5F5F5F5F5F5F5F5F5F5F5F5F5F5F5F5F5F5F5F5F5F5F5F5F5F5F5F5F5F5F5F5F5F5F5F5F5F5F5F5F5F5F5F5F5F5F5F5F5F5F5F5F5F5F5F5F5F5F5F5F5F5F5F5F5F5F5F5F5F5F5F5F5F5F5F5F5F5F5F5F5F5F5F5F5F5F5F5F5F5EFF5E2E2E2E2E2E2E2E2E2E2E2E2E2E2E2E2E2E2E2E2E2E2E2E2
310
E2E2E2E2E2E2E2E2E2E2E2E2E2E2E2E2E2E2E2E2E2E2E2E2E2E2E2E2E2E2E2E2E2E2E2E2E2E2E2E2E2E2E2E2E2E2E2E2E2E2E2E2E2E2E2E2E2E2E2E2E2E2E2E2E2E2E2E2E2E2E2E2E2E2E2E2E2E2E2E2E2E2E2E2E2E2E2E2E2E2E2E2E2E2E2E2E2E2E2E2E2E2E2E2E2E2E2E2E2E2E2E2E2E2E2E2E2E2E2E2E2E2E2E2E2E2E2
310
E2E2E2E2E2E2E2E2E2E2E2E2E2E2E2E2E2E2E2E2E2E2E2E2E2F5F5EFF5E2E2E2E2E2E2E2E2E2E2E2E2E2E2E2E2E2E2E2E2E2E2E2E2E2E2E2E2E2E2E2E2E2E2E2E2E2E2E2E2E2E2E2E2E2E2E2E2E2E2E2E2E2E2E2E2E2E2E2E2E2E2E2E2E2E2E2E2E2E2E2E2E2E2E2E2E2E2E2E2E2E2E2E2E2E2E2E2E2E2E2E2E2E2E2E2E2E2
310
E2E2E2E2E2E2E2E2E2E2E2E2E2E2E2E2E2E2E2E2E2E2E2E2E2E2E2E2E2E2E2E2E2E2E2E2E2E2E2E2E2E2E2E2E2E2E2E2E2E2E2E2E2E2E2E2E2E2E2E2E2E2E2E2E2E2E2E2E2E2E2E2E2E2E2E2E2E2F5F5EFF5E2F5F5F5F5F5F5F5F5E2E2E2E2E2E2E2E2E2F5F5F5F5F5F5F5F5F5F5F5F5F5F5F5F5E2E2E2E2E2E2E2E2E2F5F5
310
F5F5F5F5F5F5F5F5F5F5F5F5F5F5E2E2E2E2E2E2E2E2E2F5F5F5F5F5F5F5F5F5F5F5F5F5F5F5F5E2E2E2E2E2E2E2E2F5F5F5F5F5F5F5F5F5F5F5F5F5F5F5F5E2E2E2E2E2E2E2E2E2F5F5F5F5F5F5F5F5F5F5F5F5F5F5F5F5E2E2E2E2E2E2E2E2E2F5F5F5F5F5F5F5F5F5F5F5F5F5F5F5F5E2E2E2E2E2E2E2E2E2F5F5F5F5F5
310
F5F5F5E2F5F5EFF5E2F5E2E2E2E2E2E2E2E2E2E2E2E2E2E2E2E2E2E2E2E2E2E2E2E2E2E2E2E2E2E2E2E2E2E2E2E2E2E2E2E2E2E2E2E2E2E2E2E2E2E2E2E2E2E2E2E2E2E2E2E2E2E2E2E2E2E2E2E2E2E2E2E2E2E2E2E2E2E2E2E2E2E2E2E2E2E2E2E2E2E2E2E2E2E2E2E2E2E2E2E2E2E2E2E2E2E2E2E2E2E2E2E2E2E2E2E2E2
310
E2E2E2E2E2E2E2E2E2E2E2E2E2E2E2E2E2E2E2E2E2E2E2E2E2E2E2E2E2E2E2E2E2E2E2E2E2E2E2E2E2E2E2E2E2E2E2E2E2E2E2E2E2E2E2F5E2F5F5EFF5E2F5E2E2E2E2E2E2E2E2E2E2E2E2E2E2E2E2E2E2E2E2E2E2E2E2E2E2E2E2E2E2E2E2E2E2E2E2E2E2E2E2E2E2E2E2E2E2E2E2E2E2E2E2E2E2E2E2E2E2E2E2E2E2E2E2
310
E2E2E2E2E2E2E2E2E2E2E2E2E2E2E2E2E2E2E2E2E2E2E2E2E2E2E2E2E2E2E2E2E2E2E2E2E2E2E2E2E2E2E2E2E2E2E2E2E2E2E2E2E2E2E2E2E2E2E2E2E2E2E2E2E2E2E2E2E2E2E2E2E2E2E2E2E2E2E2E2E2E2E2E2E2E2E2E2E2E2E2E2E2E2E2E2E2E2E2E2E2E2E2E2E2E2E2E2F5E2F5F5EFF5E2F5E2E2E2E2E2E2E2E2E2E2E2
310
E2E2E2E2E2E2E2E2E2E2E2E2E2E2E2E2E2E2E2E2E2E2E2E2E2E2E2E2E2E2E2E2E2E2E2E2E2E2E2E2E2E2E2E2E2E2E2E2E2E2E2E2E2E2E2E2E2E2E2E2E2E2E2E2E2E2E2E2E2E2E2E2E2E2E2E2E2E2E2E2E2E2E2E2E2E2E2E2E2E2E2E2E2E2E2E2E2E2E2E2E2E2E2E2E2E2E2E2E2E2E2E2E2E2E2E2E2E2E2E2E2E2E2E2E2E2E2
310
E2E2E2E2E2E2E2E2E2E2E2E2E2E2E2E2E2E2E2E2E2E2E2E2E2E2E2E2E2E2E2E2E2E2F5E2F5F5EFF5E2F5E2E2E2E2E2E2E2E2E2E2E2E2E2E2E2E2E2E2E2E2E2E2E2E2E2E2E2E2E2E2E2E2E2E2E2E2E2E2E2E2E2E2E2E2E2E2E2E2E2E2E2E2E2E2E2E2E2E2E2E2E2E2E2E2E2E2E2E2E2E2E2E2E2E2E2E2E2E2E2E2E2E2E2E2E2
310
E2E2E2E2E2E2E2E2E2E2E2E2E2E2E2E2E2E2E2E2E2E2E2E2E2E2E2E2E2E2E2E2E2E2E2E2E2E2E2E2E2E2E2E2E2E2E2E2E2E2E2E2E2E2E2E2E2E2E2E2E2E2E2E2E2E2E2E2E2E2E2E2E2E2E2E2E2E2E2E2E2E2E2E2E2E2E2F5E2F5F5EFF5E2F5E2E2E2E2E2E2E2E2E2E2E2E2E2E2E2E2E2E2E2E2E2E2E2E2E2E2E2E2E2E2E2E2
310
E2E2E2E2E2E2E2E2E2E2E2E2E2E2E2E2E2E2E2E2E2E2E2E2E2E2E2E2E2E2E2E2E2E2E2E2E2E2E2E2E2E2E2E2E2E2E2E2E2E2E2E2E2E2E2E2E2E2E2E2E2E2E2E2E2E2E2E2E2E2E2E2E2E2E2E2E2E2E2E2E2E2E2E2E2E2E2E2E2E2E2E2E2E2E2E2E2E2E2E2E2E2E2E2E2E2E2E2E2E2E2E2E2E2E2E2E2E2E2E2E2E2E2E2E2E2E2
310
E2E2E2E2E2E2E2E2E2E2E2E2E2F5E2F5F5EFF5E2F5E2E2E2E2E2E2E2E2E2E2E2E2E2E2E2E2E2E2E2E2E2E2E2E2E2E2E2E2E2E2E2E2E2E2E2E2E2E2E2E2E2E2E2E2E2E2E2E2E2E2E2E2E2E2E2E2E2E2E2E2E2E2E2E2E2E2E2E2E2E2E2E2E2E2E2E2E2E2E2E2E2E2E2E2E2E2E2E2E2E2E2E2E2E2E2E2E2E2E2E2E2E2E2E2E2E2
310
E2E2E2E2E2E2E2E2E2E2E2E2E2E2E2E2E2E2E2E2E2E2E2E2E2E2E2E2E2E2E2E2E2E2E2E2E2E2E2E2E2E2E2E2E2E2E2E2E2E2E2E2E2E2E2E2E2E2E2E2E2E2E2E2E2E2F5E2F5F5EFF5E2F5E2E2E2E2E2E2E2E2E2E2E2E2E2E2E2E2E2E2E2E2E2E2E2E2E2E2E2E2E2E2E2E2E2E2E2E2E2E2E2E2E2E2E2E2E2E2E2E2E2E2E2E2E2
310
E2E2E2E2E2E2E2E2E2E2E2E2E2E2E2E2E2E2E2E2E2E2E2E2E2E2E2E2E2E2E2E2E2E2E2E2E2E2E2E2E2E2E2E2E2E2E2E2E2E2E2E2E2E2E2E2E2E2E2E2E2E2E2E2E2E2E2E2E2E2E2E2E2E2E2E2E2E2E2E2E2E2E2E2E2E2E2E2E2E2E2E2E2E2E2E2E2E2E2E2E2E2E2E2E2E2E2E2E2E2E2E2E2E2E2E2E2E2E2F5E2F5F5EFF5E2E2
310
E2E2E2E2E2E2E2E2E2E2E2E2E2E2E2E2E2E2E2E2E2E2E2E2E2E2E2E2E2E2E2E2E2E2E2E2E2E2E2E2E2E2E2E2E2E2E2E2E2E2E2E2E2E2E2E2E2E2E2E2E2E2E2E2E2E2E2E2E2E2E2E2E2E2E2E2E2E2E2E2E2E2E2E2E2E2E2E2E2E2E2E2E2E2E2E2E2E2E2E2E2E2E2E2E2E2E2E2E2E2E2E2E2E2E2E2E2E2E2E2E2E2E2E2E2E2E2
310
E2E2E2E2E2E2E2E2E2E2E2E2E2E2E2E2E2E2E2E2E2E2E2E2E2E2E2E2E2E2E2E2E2E2E2E2E2E2E2E2E2E2E2E2E2E2E2F5F5EFF5E2E2E2E2E2E2E2E2E2E2E2E2E2E2E2E2E2E2E2E2E2E2E2E2E2E2E2E2E2E2E2E2E2E2E2E2E2E2E2E2E2E2E2E2E2E2E2E2E2E2E2E2E2E2E2E2E2E2E2E2E2E2E2E2E2E2E2E2E2E2E2E2E2E2E2E2
310
E2E2E2E2E2E2E2E2E2E2E2E2E2E2E2E2E2E2E2E2E2E2E2E2E2E2E2E2E2E2E2E2E2E2E2E2E2E2E2E2E2E2E2E2E2E2E2E2E2E2E2E2E2E2E2E2E2E2E2E2E2E2E2E2E2E2E2E2E2E2E2E2E2E2E2E2E2E2E2E2E2E2E2E2E2E2E2E2E2E2E2E2E2E2E2E2E2E2E2E2F5F5EFF5E2E2E2E2E2E2E2E2E2E2E2E2E2E2E2E2E2E2E2E2E2E2E2
310
E2E2E2E2E2E2E2E2E2E2E2E2E2E2E2E2E2E2E2E2E2E2E2E2E2E2E2E2E2E2E2E2E2E2E2E2E2E2E2E2E2E2E2E2E2E2E2E2E2E2E2E2E2E2E2E2E2E2E2E2E2E2E2E2E2E2E2E2E2E2E2E2E2E2E2E2E2E2E2E2E2E2E2E2E2E2E2E2E2E2E2E2E2E2E2E2E2E2E2E2E2E2E2E2E2E2E2E2E2E2E2E2E2E2E2E2E2E2E2E2E2E2E2E2E2E2E2
310
E2E2E2E2E2E2E2E2E2E2E2E2E2E2E2E2E2E2E2E2E2E2E2E2E2E2F5F5EFF5E2E2E2E2E2E2E2E2E2E2E2E2E2E2E2E2E2E2E2E2E2E2E2E2E2E2E2E2E2E2E2E2E2E2E2E2E2E2E2E2E2E2E2E2E2E2E2E2E2E2E2E2E2E2E2E2E2E2E2E2E2E2E2E2E2E2E2E2E2E2E2E2E2E2E2E2E2E2E2E2E2E2E2E2E2E2E2E2E2E2E2E2E2E2E2E2E2
310
E2E2E2E2E2E2E2E2E2E2E2E2E2E2E2E2E2E2E2E2E2E2E2E2E2E2E2E2E2E2E2E2E2E2E2E2E2E2E2E2E2E2E2E2E2E2E2E2E2E2E2E2E2E2E2E2E2E2E2E2E2E2E2E2E2E2E2E2E2E2E2E2E2E2E2E2E2E2E2F5F5EFF5E2E2E2E2E2E2E2E2E2E2E2E2E2E2E2E2E2E2E2F5F5F5F5F5F5F5F5F5F5F5F5F5F5F5F5F5F5F5F5F5F5F5F5F5
310
F5F5F5F5F5F5F5F5F5F5F5F5F5F5F5F5F5F5F5F5F5F5F5F5F5F5F5F5F5F5F5F5F5F5F5F5F5F5F5F5F5F5F5F5F5F5F5F5F5F5F5F5F5F5F5F5F5F5F5F5F5F5F5F5F5F5F5F5F5F5F5F5F5F5F5F5F5F5F5F5F5F5F5F5F5F5F5F5F5F5F5F5F5F5F5F5F5F5F5F5F5F5F5F5F5F5F5F5F5F5F5F5F5E2E2E2E2E2E2E2E2E2E2E2E2E2E2
310
E2E2E2E2E2F5F5EFF5E2E2E2E2E2E2E2E2E2E2E2E2E2E2E2E2E2E2E2F52828282828282828282828282828282828282828282828282828282828282828282828282828282828282828282828282828282828282828282828282828282828282828282828282828282828282828282828282828282828282828282828282828
310
2828282828282828282828282828282828282828282828282828282828282828282828282828F5E2E2E2E2E2E2E2E2E2E2E2E2E2E2E2E2E2E2E2F5F5EFF5E2E2E2E2E2E2E2E2E2E2E2E2E2E2E2E2E2E2E2F5E2E2E2E2E2E2E2E2E2E2E2E2E2E2E2E2E2E2E2E2E2E2E2E2E2E2E2E2E2E2E2E2E2E2E2E2E2E2E2E2E2E2E2E2E2
310
E2E2E2E2E2E2E2E2E2E2E2E2E2E2E2E2E2E2E2E2E2E2E2E2E2E2E2E2E2E2E2E2E2E2E2E2E2E2E2E2E2E2E2E2E2E2E2E2E2E2E2E2E2E2E2E2E2E2E2E2E2E2E228E2E2E2E2E2E2E2E2E2E2E2E2E2E2E2E2E2E2E2E2E2E2E2E2E2E2E2F5E2E2E2E2E2E2E2E2E2E2E2E2E2E2E2E2E2E2E2F5F5EFF5E2E2E2E2E2E2E2E2E2E2E2E2
310
E2E2E2E2E2E2E2F5E2E2E2E2E2E2E2E2E2E2E2E2E2E2E2E2E2E2E2E2E2E2E2E2E2E2E2E2E2E2E2E2E2E2E2E2E2E2E2E2E2E2E2E2E2E2E2E2E2E2E2E2E2E2E2E2E2E2E2E2E2E2E2E2E2E2E2E2E2E2E2E2E2E2E2E2E2E2E2E2E2E2E2E2E2E2E2E2E2E2E2E2E2E2E2E2E2E2E2E2E2E2E2E2E2E2E2E228E2E2E2F5F5F5F5F5F5F5
310
F5F5F5F5F5F5F5F5F5E2E2E2E2E2E2E2E2F5E2E2E2E2E2E2E2E2E2E2E2E2E2E2E2E2E2E2E2F5F5EFF5E2E2E2E2E2E2E2E2E2E2E2E2E2E2E2E2E2E2E2F5E2E2E2E2E2E2E2E2E2E2E2E2E2E2E2E2E2E2E2E2E2E2E2E2E2E2E2E2E2E2E2E2E2E2E2E2E2E2E2E2E2E2E2E2E2E2E2E2E2E2E2E2E2E2E2E2E2E2E2E2E2E2E2E2E2E2
310
E2E2E2E2E2E2E2E2E2E2E2E2E2E2E2E2E2E2E2E2E2E2E2E2E2E2E2E2E2E2E2E2E2E2E2E2E2E2E2E2E2E228E2E2E2F5F5F5F5F5F5F5F5F5F5F5E2F5F5F5F5F5E2E2E2E2E2E2E2F5E2E2E2E2E2E2E2E2E2E2E2E2E2E2E2E2E2E2E2F5F5EFF5E2F5E2E2E2E2E2E2E2E2E2E2E2E2E2E2E2E2E2F5E2E2E2E2E2E2E2E2E2E2E2E2E2
310
E2E2E2E2E2E2E2E2E2E2E2E2E2E2E2E2E2E2E2E2E2E2E2E2E2E2E2E2E2E2E2E2E2E2E2E2E2E2E2E2E2E2E2E2E2E2E2E2E2E2E2E2E2E2E2E2E2E2E2E2E2E2E2E2E2E2E2E2E2E2E2E2E2E2E2E2E2E2E2E2E2E2E2E2E2E2E2E2E2E2E2E2E2E2E228E2E2E2F5F5F5F5F5F5F5F5F5F5F5F5F5F5F5F5F5E2E2E2E2E2E2E2F5E2E2E2
310
E2E2E2E2E2E2E2E2E2E2E2E2E2E2F5E2F5F5EFF5E2F5E2E2E2E2E2E2E2E2E2E2E2E2E2E2E2E2E2F5E2E2E2E2E2E2E2E2E2E2E2E2E2E2E2E2E2E2E2E2E2E2E2E2E2E2E2E2E2E2E2E2E2E2E2E2E2E2E2E2E2E2E2E2E2E2E2E2E2E2E2E2E2E2E2E2E2E2E2E2E2E2E2E2E2E2E2E2E2E2E2E2E2E2E2E2E2E2E2E2E2E2E2E2E2E2E2
310
E2E2E2E2E2E2E2E2E2E2E2E2E2E2E2E2E2E2E2E2E228282828282828282828282828282828282828282828282828282828F5E2E2E2E2E2E2E2E2E2E2E2E2E2E2E2E2E2F5E2F5F5EFF5E2F5E2E2E2E2E2E2E2E2E2E2E2E2E2E2E2E2E2F5E2E2E2E2E2E2E2E2E2E2E2E2E2E2E2E2E2E2E2F5F5F5F5F5F5F5F5F5F5E2E2E2E2E2
310
E2E2E2E2E2E2E2E2E2E2E2E2E2E2E2E2F5F5F5F5F5F5F5F5E2E2E2E2E2E2E2E2E2E2E2E2E2E2E2E2E2E2F5E2E2E2E2E2E2E2E2E2E2E2E2E2E2E2E2E2E2E2E2E2E2E2E2E2E2E2E2E2F5E2E2E2E2E2E2E2E2E2E2E2E2E2E2E2E2E2E2E2E2E2E2E2E2E2E2E2E2E2F5E2E2E2E2E2E2E2E2E2E2E2E2E2E2E2E2E2F5E2F5F5EFF5E2
310
F5E2E2E2E2E2E2E2E2E2E2E2E2E2E2E2E2E2F5E2E2E2E2E2E2E2E2E2E2E2E2E2E2E2E2E2E2E2F5E2E2E2E2F5E2E2E2F5E2E2E2E2E2E2E2E2E2E2E2E2E2E2E2E2E2E2E2E2E2F5E2E2E2F5E2E2F5E2E2E2E2E2E2E2E2E2E2E2E2E2F5F5F5F5F5F5F5F5F5F5F5E2E2E2E2E2E2E2E2E2E2E2E2E2E2E2E2E2E2E2E2F5F5F5F5F5F5
310
F5F5E2E2E2E2E2E2E2E2E2E2E2E2E2E2E2E2E2E2E2E2E2E2E2E2E2E2F5E2E2E2E2E2E2E2E2E2E2E2E2E2E2E2E2E2F5E2F5F5EFF5E2F5E2E2E2E2E2E2E2E2E2E2E2E2E2E2E2E2E2F5E2E2E2E2E2E2E2E2E2E2E2E2E2E2E2E2E2E2E2F5E2E2E2E2F5E2E2E2F5E2E2E2E2E2E2E2E2E2E2E2E2E2E2E2E2E2E2E2E2E2F5E2E2E2F5
310
E2E2F5E2E2E2E2E2E2E2E2E2E2E2E2E2F5E2E2E2E2F5E2E2E2E2F5E2E2E2E2E2E2E2E2E2E2E2E2E2E2E2E2E2E2E2E2F5E2E2E2F5E2E2F5E2E2E2E2E2E2E2E2E2E2E2E2E2E2E2E2E2E2E2E2E2E2E2E2E2E2F5E2E2E2E2E2E2E2E2E2E2E2E2E2E2E2E2E2F5E2F5F5EFF5E2F5E2E2E2E2E2E2E2E2E2E2E2E2E2E2E2E2E2F5E2E2
310
E2E2E2E2E2E2E2E2E2E2E2E2E2E2E2E2E2F5E2E2E2E2F5E2E2E2F5E2E2E2E2E2E2E2E2E2E2E2E2E2E2E2E2E2E2E2E2E2F5E2E2E2F5E2E2F5E2E2E2E2E2E2E2E2E2E2E2E2E2F5E2E2E2E2F5E2E2E2E2F5E2E2E2E2E2E2E2E2E2E2E2E2E2E2E2E2E2E2E2E2F5E2E2E2F5E2E2F5E2E2E2E2E2E2E2E2E2E2E2E2E2E2E2E2E2E2E2
310
E2E2E2E2E2E2E2F5E2E2E2E2E2E2E2E2E2E2E2E2E2E2E2E2E2F5E2F5F5EFF5E2F5E2E2E2E2E2E2E2E2E2E2E2E2E2E2E2E2E2F5E2E2E2E2E2E2E2E2E2E2E2E2E2E2E2E2E2E2E2F5E2E2E2E2F5E2E2E2F5F5F5F5E2E2E2E2E2E2E2E2E2E2E2E2E2E2E2E2E2E2F5F5F5F5F5F5F5F5E2E2E2E2E2E2E2E2E2E2E2E2E2F5E2E2E2E2
310
F5E2E2E2E2F5F5F5F5F5F5F5F5F5F5E2E2E2E2E2E2E2E2E2E2E2F5E2F5F5F5F5F5F5E2E2E2E2E2E2E2E2E2E2E2E2E2E2E2E2E2E2E2E2E2E2E2E2E2E2F5E2E2E2E2E2E2E2E2E2E2E2E2E2E2E2E2E2F5E2F5F5EFF5E2F5E2E2E2E2E2E2E2E2E2E2E2E2E2E2E2E2E2F5E2E2E2E2E2E2E2E2E2E2E2E2E2E2E2E2E2E2E2F5E2E2E2
310
E2F5E2E2E2E2E2E2F5F5F5F5E2E2E2E2E2E2E2E2E2E2E2E2E2E2E2F5F5F5F5F5F5F5F5E2E2E2E2E2E2E2E2E2E2E2E2E2F5E2E2E2E2F5E2E2E2E2E2E2F5E2E2E2E2E2E2E2F5E2E2E2E2E2E2E2E2E2E2F5F5E2E2F5E2F5F5E2E2E2E2E2E2E2E2E2E2E2E2E2E2E2E2E2E2E2E2E2E2E2E2E2E2F5E2E2E2E2E2E2E2E2E2E2E2E2E2
310
E2E2E2E2F5E2F5F5EFF5E2F5E2E2E2E2E2E2E2E2E2E2E2E2E2E2E2E2E2F5E2E2E2E2E2E2E2E2E2E2E2E2E2E2E2E2E2E2E2F5E2E2E2E2F5E2E2E2E2E2E2F5E2F5F5E2E2E2E2E2E2E2E2E2E2E2E2E2E2E2F5F5E2E2F5F5F5F5E2E2E2E2E2E2E2E2E2E2E2E2E2F5E2E2E2E2F5E2E2E2E2E2E2F5E2F5F5F5F5F5E2F5E2E2E2E2E2
310
E2E2E2E2E2F5F5E2E2F5E2F5F5E2E2E2E2E2E2E2E2E2E2E2E2E2E2E2E2E2E2E2E2E2E2E2E2E2E2F5E2E2E2E2E2E2E2E2E2E2E2E2E2E2E2E2E2F5E2F5F5EFF5E2F5E2E2E2E2E2E2E2E2E2E2E2E2E2E2E2E2E2F5E2E2E2E2E2E2E2E2E2E2E2E2E2E2E2E2E2E2E2F5E2E2E2E2F5E2E2E2E2E2E2F5E2E2F5E2E2E2E2E2E2E2E2E2
310
E2E2E2E2E2E2F5F5E2E2F5F5F5F5E2E2E2E2E2E2E2E2E2E2E2E2E2F5E2E2E2E2F5E2E2E2E2E2E2F5E2F5F5F5F5F5E2F5E2E2E2E2E2E2E2E2E2E2F5F5E2E2F5E2F5F5E2E2E2E2E2E2E2E2E2E2E2E2E2E2E2E2E2E2E2E2E2E2E2E2E2E2F5E2E2E2E2E2E2E2E2E2E2E2E2E2E2E2E2E2F5E2F5F5EFF5E2F5E2E2E2E2E2E2E2E2E2
310
E2E2E2E2E2E2E2E2F5E2E2E2E2E2E2E2E2E2E2E2E2E2E2E2E2E2E2E2F5E2E2E2E2F5E2E2E2E2E2E2F5E2E2F5E2E2E2E2E2E2E2E2E2E2E2E2E2E2E2F5F5E2F5F5F5F5F5E2E2E2E2E2E2E2E2E2E2E2E2E2F5E2E2E2E2F5E2E2E2E2E2F5F5F5F5F5F5F5F5F5F5F5F5E2E2E2E2E2E2E2E2F5F5E2F5F5F5F5F5E2E2E2E2E2E2E2E2
310
E2E2E2E2E2E2E2E2E2E2E2E2E2E2E2E2E2E2F5E2E2E2E2E2E2E2E2E2E2E2E2E2E2E2E2E2F5E2F5F5EFF5E2F5E2E2E2E2E2E2E2E2E2E2E2E2E2E2E2E2E2F5E2E2E2E2E2E2E2E2E2E2E2E2E2E2E2E2E2E2E2F5E2E2E2E2F5E2E2E2E2E2E2F5E2E2F5E2E2E2E2E2E2E2E2E2E2E2E2E2E2E2F5F5E2E2F5F5F5F5E2E2E2E2E2E2E2
310
E2E2E2E2E2E2F5E2E2E2E2F5E2E2E2E2E2E2F5E2F5F5F5F5F5E2F5E2E2E2E2E2E2E2E2E2E2F5F5E2F5F5E2F5F5E2E2E2E2E2E2E2E2E2E2E2E2E2E2E2E2E2E2E2E2E2E2E2E2E2E2F5E2E2E2E2E2E2E2E2E2E2E2E2E2E2E2E2E2F5E2F5F5EFF5E2F5E2E2E2E2E2E2E2E2E2E2E2E2E2E2E2E2E2F5E2E2E2E2E2E2E2E2E2E2E2E2
310
E2E2E2E2E2E2E2F5F5E2E2E2F5E2E2E2E2E2E2F5E2E2F5E2E2E2E2E2E2E2E2E2E2E2E2E2E2E2F5F5F5F5F5F5F5F5E2E2E2E2E2E2E2E2E2E2E2E2E2F5E2E2E2E2F5E2E2E2E2E2E2F5E2F5F5F5F5F5E2F5E2E2E2E2E2E2E2E2E2E2F5F5E2E2F5E2F5F5E2E2E2E2E2E2E2E2E2E2E2E2E2E2E2E2E2E2E2E2E2E2E2E2E2E2F5E2E2
310
E2E2E2E2E2E2E2E2E2E2E2E2E2E2E2F5E2F5F5EFF5E2F5E2E2E2E2E2E2E2E2E2E2E2E2E2E2E2E2E2F5E2E2E2E2E2E2E2E2E2E2E2E2E2E2E2E2E2E2E2F5F5F5E2E2F5E2E2E2E2E2E2F5F5F5F5E2E2E2E2E2E2E2E2E2E2E2E2E2E2E2F5F5F5F5F5F5F5F5E2E2E2E2E2E2E2E2E2E2E2E2E2F5E2E2E2E2F5E2E2E2E2E2E2F5E2E2
310
E2E2E2F5E2F5E2E2E2E2E2E2E2E2E2E2F5F5F5F5F5F5F5F5E2E2E2E2E2E2E2E2E2E2E2E2E2E2E2E2E2E2E2E2E2E2E2E2E2E2F5E2E2E2E2E2E2E2E2E2E2E2E2E2E2E2E2E2F5E2F5F5EFF5E2F5E2E2E2E2E2E2E2E2E2E2E2E2E2E2E2E2E2F5E2E2E2E2E2E2E2E2E2E2E2E2E2E2E2E2E2E2E2F5F5F5F5F5F5F5F5F5F5F5F5F5F5
310
F5F5E2E2E2E2E2E2E2E2E2E2E2E2E2E2E2F5F5F5F5F5F5F5F5E2E2E2E2E2E2E2E2E2E2E2E2E2F5E2E2E2E2F5E2F5F5F5E2E2F5F5F5F5F5F5F5F5F5E2E2E2E2E2E2E2E2E2E2F5F5F5F5F5F5F5F5E2E2E2E2E2E2E2E2E2E2E2E2E2E2E2E2E2E2E2E2E2E2E2E2E2E2F5E2E2E2E2E2E2E2E2E2E2E2E2E2E2E2E2E2F5E2F5F5EFF5
310
E2E2E2E2E2E2E2E2E2E2E2E2E2E2E2E2E2E2E2F5E2E2E2E2E2E2E2E2E2E2E2E2E2E2E2E2E2E2E2E2F5E2E2E2F5E2E2E2E2E2E2E2F5F5E2E2E2E2E2E2E2E2E2E2E2E2E2E2E2E2E2E2E2E2F5F5F5E2E2E2E2E2E2E2E2E2E2E2E2E2E2F5F5F5F5F5F5F5F5F5F5F5F5F5E2E2E2F5F5F5F5F5E2E2E2E2E2E2E2E2E2E2F5F5F5E2F5
310
E2F5F5E2E2E2E2E2E2E2E2E2E2E2E2E2E2E2E2E2E2E2E2E2E2E2E2E2E2F5E2E2E2E2E2E2E2E2E2E2E2E2E2E2E2E2E2E2E2F5F5EFF5E2E2E2E2E2E2E2E2E2E2E2E2E2E2E2E2E2E2E2F5E2E2E2E2E2E2E2E2E2E2E2E2E2E2E2E2E2E2E2E2E2E2E2E2E2E2E2E2E2E2E2E2F5F5E2E2E2E2E2E2E2E2E2E2E2E2E2E2E2E2E2E2E2E2
310
F5F5E2F5E2E2E2E2E2E2E2E2E2E2E2E2E2E2E2E2E2E2F5E2E2E2E2E2E2E2E2E2E2F5F5F5F5F5E2E2E2E2E2E2E2E2E2E2E2E2F5E2F5E2F5E2E2E2E2E2E2E2E2E2E2E2E2E2E2E2E2E2E2E2E2E2E2E2E2E2E2E2F5E2E2E2E2E2E2E2E2E2E2E2E2E2E2E2E2E2E2E2F5F5EFF5E2E2E2E2E2E2E2E2E2E2E2E2E2E2E2E2E2E2E2F5E2
310
E2E2E2E2E2E2E2E2E2E2E2E2E2E2E2E2E2E2E2E2E2E2E2E2E2E2E2E2E2E2E2F5F5E2E2E2E2E2E2E2E2E2E2E2E2E2E2E2E2E2E2E2E2F5F5E2E2F5E2E2E2E2E2E2E2E2E2E2E2E2E2E2E2E2E2E2E2E2E2E2E2E2E2E2E2E2F5F5F5F5F5E2E2E2E2E2E2E2E2E2E2E2E2F5F5F5F5F5E2E2E2E2E2E2E2E2E2E2E2E2E2E2E2E2E2E2E2
310
E2E2E2E2E2E2E2E2F5E2E2E2E2E2E2E2E2E2E2E2E2E2E2E2E2E2E2E2F5F5EFF5E2E2E2E2E2E2E2E2E2E2E2E2E2E2E2E2E2E2E2F5E2E2E2E2E2E2E2E2E2E2E2E2E2E2E2E2E2E2E2E2E2E2E2E2E2E2E2E2E2E2E2E2F5F5E2E2E2E2E2E2E2E2E2E2E2E2E2E2E2E2E2E2E2E2F5F5E2E2F5E2E2E2E2E2E2E2E2E2E2E2E2E2E2E2E2
310
E2E2E2E2E2E2E2E2E2E2E2E2F5F5F5F5F5E2E2E2E2E2E2E2E2E2E2E2E2F5F5F5F5F5E2E2E2E2E2E2E2E2E2E2E2E2E2E2E2E2E2E2E2E2E2E2E2E2E2E2E2F5E2E2E2E2E2E2E2E2E2E2E2E2E2E2E2E2E2E2E2F5F5EFF5E2E2E2E2E2E2E2E2E2E2E2E2E2E2E2E2E2E2E2F5E2E2E2E2E2E2E2E2E2E2E2E2E2E2E2E2E2E2E2E2E2E2
310
E2E2E2E2E2E2E2E2E2E2F5F5E2E2E2E2E2E2E2E2E2E2E2E2E2E2E2E2E2E2E2E2F5F5E2E2E2F5E2E2E2E2E2E2E2E2E2E2E2E2E2E2E2E2E2E2E2E2E2E2E2E2E2E2E2F5F5F5F5F5E2E2E2E2E2E2E2E2E2E2E2E2F5F5F5F5F5E2E2E2E2E2E2E2E2E2E2E2E2E2E2E2E2E2E2E2E2E2E2E2E2E2E2E2F5E2E2E2E2E2E2E2E2E2E2E2E2
310
E2E2E2E2E2E2E2F5F5EFF5E2E2E2E2E2E2E2E2E2E2E2E2E2E2E2E2E2E2E2F5E2E2E2E2E2E2E2E2E2E2E2E2E2E2E2E2E2E2E2E2E2E2E2E2E2E2E2E2E2E2E2E2F5F5E2E2E2E2E2E2E2E2E2E2E2E2E2E2E2E2E2E2E2E2F5F5E2E2E2F5E2E2E2E2E2E2E2E2E2E2E2E2E2E2E2E2E2E2E2E2E2E2E2E2E2E2E2E2E2F5E2E2E2E2E2E2
310
E2E2E2E2E2E2E2E2E2E2F5E2E2E2E2E2E2E2E2E2E2E2E2E2E2E2E2E2E2E2E2E2E2E2E2E2E2E2E2E2F5E2E2E2E2E2E2E2E2E2E2E2E2E2E2E2E2E2E2E2F5F5EFF5E2E2E2E2E2E2E2E2E2E2E2E2E2E2E2E2E2E2E2F5E2E2E2E2E2E2E2E2E2E2E2E2E2E2E2E2E2E2E2E2E2E2E2E2E2E2E2E2E2E2E2E2F5F5E2E2E2E2E2E2E2E2E2
310
E2E2E2E2E2E2E2E2E2E2E2F5F5E2E2E2E2F5F5F5F5F5F5F5F5F5F5F5E2E2E2E2E2E2E2E2E2E2E2E2E2E2E2E2E2E2E2E2E2E2E2E2E2E2E2E2E2E2E2E2E2E2E2F5E2E2E2E2E2E2E2E2E2E2E2E2E2E2E2E2E2E2E2E2E2E2E2E2E2E2E2E2E2F5E2E2E2E2E2E2E2E2E2E2E2E2E2E2E2E2E2E2E2F5F5EFF5E2E2E2E2E2E2E2E2E2E2
310
E2E2E2E2E2E2E2E2E2F5E2E2E2E2E2E2E2E2E2E2E2E2E2E2E2E2E2E2E2E2E2E2E2E2E2E2E2E2E2E2E2E2E2E2E2E2E2E2E2E2E2E2E2E2E2E2E2E2E2E2E2E2E2E2E2E2E2E2E2E2F5F5F5F5F5F5E2E2E2E2E2E2E2E2E2E2E2E2E2E2E2E2E2E2E2E2E2E2E2E2E2E2E2E2E2E2E2E2E2E2E2E2E2E2E2E2E2E2E2E2E2E2E2E2E2E2E2
310
E2E2E2E2E2E2E2E2E2E2E2E2E2E2E2E2E2E2E2F5E2E2E2E2E2E2E2E2E2E2E2E2E2E2E2E2E2E2E2F5F5EFF5E2E2E2E2E2E2E2E2E2E2E2E2E2E2E2E2E2E2E2F5E2E2E2E2E2E2E2E2E2E2E2E2E2E2E2E2E2E2E2E2E2E2E2E2E2E2E2E2E2E2E2E2E2E2E2E2E2E2E2E2E2E2E2E2E2E2E2E2E2E2E2E2E2E2E2E2E2E2E2E2E2E2E2E2
310
E2E2E2E2E2E2E2E2E2E2E2E2E2E2E2E2E2E2E2E2E2E2E2E2E2E2E2E2E2E2E2E2E2E2E2E2E2E2E2E2E2E2E2E2E2E2E2E2E2E2E2E2E2E2E2E2E2E2E2E2E2E2E2E2E2E2E2E2E2E2E2E2F5E2E2E2E2E2E2E2E2E2E2E2E2E2E2E2E2E2E2E2F5F5EFF5E2F5E2E2E2E2E2E2E2E2E2E2E2E2E2E2E2E2E2F5E2E2E2E2E2E2E2E2E2E2E2
310
E2E2E2E2E2E2E2E2E2E2E2E2E2E2E2E2E2E2E2E2E2E2E2E2E2E2E2E2E2E2E2E2E2E2E2E2E2E2E2E2E2E2E2E2E2E2E2E2E2E2E2E2E2E2E2E2E2E2E2E2E2E2E2E2E2E2E2E2E2E2E2E2E2E2E2E2E2E2E2E2E2E2E2E2E2E2E2E2E2E2E2E2E2E2E2E2E2E2E2E2E2E2E2E2E2E2E2E2E2E2E2E2E2E2E2E2E2E2E2E2E2E2E2E2E2F5E2
310
E2E2E2E2E2E2E2E2E2E2E2E2E2E2E2E2F5E2F5F5EFF5E2F5E2E2E2E2E2E2E2E2E2E2E2E2E2E2E2E2E2F5E2E2E2E2E2E2E2E2E2E2E2E2E2E2E2E2E2E2E2E2E2E2E2E2E2E2E2E2E2E2E2E2E2E2E2E2E2E2E2E2E2E2E2E2E2E2E2E2E2E2E2E2E2E2E2E2E2E2E2E2E2E2E2E2E2E2E2E2E2E2E2E2E2E2E2E2E2E2E2E2E2E2E2E2E2
310
E2E2E2E2E2E2E2E2E2E2E2E2E2E2E2E2E2E2E2E2E2E2E2E2E2E2E2E2E2E2E2E2E2E2E2E2E2E2E2E2E2E2E2E2E2E2E2E2E2E2E2F5E2E2E2E2E2E2E2E2E2E2E2E2E2E2E2E2E2F5E2F5F5EFF5E2F5E2E2E2E2E2E2E2E2E2E2E2E2E2E2E2E2E2F5E2E2E2E2E2E2E2E2E2E2E2E2E2E2E2E2E2E2E2E2E2E2E2E2E2E2E2E2E2E2E2E2
310
E2E2E2E2E2E2E2E2E2E2E2E2E2E2E2E2E2E2E2E2E2E2E2E2E2E2E2E2E2E2E2E2E2E2E2E2E2E2E2E2E2E2E2E2E2E2E2E2E2E2E2E2E2E2E2E2E2E2E2E2E2E2E2E2E2E2E2E2E2E2E2E2E2E2E2E2E2E2E2E2E2E2E2E2E2E2E2E2E2E2E2E2E2E2E2E2E2E2E2E2E2E2E2E2F5E2E2E2E2E2E2E2E2E2E2E2E2E2E2E2E2E2F5E2F5F5EF
310
F5E2F5E2E2E2E2E2E2E2E2E2E2E2E2E2E2E2E2E2F5E2E2E2E2E2E2E2E2E2E2E2E2E2E2E2E2E2E2E2E2E2E2E2E2E2E2E2E2E2E2E2E2E2E2E2E2E2E2E2E2E2E2E2E2E2E2E2E2E2E2E2E2E2E2E2E2E2E2E2E2E2E2E2E2E2E2E2E2E2E2E2E2E2E2E2E2E2E2E2E2E2E2E2E2E2E2E2E2E2E2E2E2E2E2E2E2E2E2E2E2E2E2E2E2E2E2
310
E2E2E2E2E2E2E2E2E2E2E2E2E2E2E2E2E2E2E2E2E2E2E2E2E2E2E2E2E2E2F5E2E2E2E2E2E2E2E2E2E2E2E2E2E2E2E2E2F5E2F5F5EFF5E2F5E2E2E2E2E2E2E2E2E2E2E2E2E2E2E2E2E2F5E2E2E2E2E2E2E2E2E2E2E2E2E2E2E2E2E2E2E2E2E2E2E2E2E2E2E2E2E2E2E2E2E2E2E2E2E2E2E2E2E2E2E2E2E2E2E2E2E2E2E2E2F5
310
F5F5F5F5F5F5F5E2E2E2E2E2E2E2E2E2E2E2E2F5F5F5F5F5F5F5F5F5F5F5F5F5E2E2E2E2E2E2E2E2E2E2E2E2E2E2E2E2E2E2E2E2E2E2E2E2E2E2E2E2E2E2E2E2E2E2E2E2E2E2E2E2E2E2E2E2E2E2E2E2E2E2E2F5E2E2E2E2E2E2E2E2E2E2E2E2E2E2E2E2E2F5E2F5F5EFF5E2F5E2E2E2E2E2E2E2E2E2E2E2E2E2E2E2E2E2F5
310
E2E2E2E2E2E2E2E2E2E2E2E2E2E2E2E2E2E2E2E2E2E2E2E2E2E2E2E2E2E2E2E2E2E2E2E2E2E2E2E2E2E2E2E2E2E2E2E2E2E2E2E2F5F5F5F5F5F5E2E2F5E2E2E2E2E2E2E2E2E2E2F5F5F5F5F5F5F5F5F5E2E2E2E2E2E2E2E2E2E2E2E2E2E2E2E2E2E2E2E2E2E2E2E2E2E2E2E2E2E2E2E2E2E2E2E2E2E2E2E2E2E2E2E2E2E2E2
310
E2E2E2E2E2E2E2E2E2F5E2E2E2E2E2E2E2E2E2E2E2E2E2E2E2E2E2F5E2F5F5EFF5E2F5E2E2E2E2E2E2E2E2E2E2E2E2E2E2E2E2E2F5E2E2E2E2E2E2E2E2E2E2E2E2E2E2E2E2E2E2E2E2E2E2E2E2E2E2E2E2E2E2E2E2E2E2E2E2E2E2E2E2E2E2E2E2E2E2E2E2E2E2E2E2E2E2E2E2E2E2E2E2E2F5F5E2E2E2E2E2E2E2E2F5E2E2
310
E2E2E2E2E2E2E2E2E2E2E2E2E2E2E2E2E2E2E2E2E2E2E2E2E2E2E2E2E2E2E2E2E2E2E2E2E2E2E2E2E2E2E2E2E2E2E2E2E2E2E2E2E2E2E2E2E2E2E2E2E2E2F5E2E2E2E2E2E2E2E2E2E2E2E2E2E2E2E2E2F5E2F5F5EFF5E2F5E2E2E2E2E2E2E2E2E2E2E2E2E2E2E2E2E2F5E2E2E2E2E2E2E2E2E2E2E2E2E2E2E2E2E2E2E2E2E2
310
E2E2E2E2E2E2E2E2E2E2E2E2E2E2E2E2E2E2E2E2E2E2E2E2E2E2E2E2E2E2E2E2E2E2E2E2E2E2E2E2E2F5F5F5F5F5F5F5E2F5E2E2E2E2E2E2E2E2E2E2E2E2E2E2E2E2E2E2E2E2E2E2E2E2E2E2E2E2E2E2E2E2E2E2E2E2E2E2E2E2E2E2E2E2E2E2E2E2E2E2E2E2E2E2E2E2E2E2E2E2E2E2E2E2E2F5E2E2E2E2E2E2E2E2E2E2E2
310
E2E2E2E2E2E2F5E2F5F5EFF5E2F5E2E2E2E2E2E2E2E2E2E2E2E2E2E2E2E2E2F5E2E2E2E2E2E2E2E2E2E2E2E2E2E2E2E2E2E2E2E2E2E2E2E2E2E2E2E2E2E2E2E2E2E2E2E2E2E2E2E2E2E2E2E2E2E2E2E2E2E2E2E2E2E2E2E2E2E2E2E2E2F5E2E2F5F5E2E2E2F5F5E2E2E2E2E2E2E2E2E2E2E2E2E2E2E2E2E2E2E2E2E2E2E2E2
310
E2E2E2E2E2E2E2E2E2E2E2E2E2E2E2E2E2E2E2E2E2E2E2E2E2E2E2E2E2E2E2E2E2E2E2E2E2E2E2E2E2F5E2E2E2E2E2E2E2E2E2E2E2E2E2E2E2E2E2F5E2F5F5EFF5E2F5E2E2E2E2E2E2E2E2E2E2E2E2E2E2E2E2E2F5E2E2E2E2E2E2E2E2E2E2E2E2E2E2E2E2E2E2E2E2E2E2E2E2E2E2E2E2E2E2E2E2E2E2E2E2E2E2E2E2E2E2
310
E2E2E2E2E2E2E2E2E2E2E2E2E2E2E2E2E2E2F5E2E2E2F5F5F5E2E2F5F5E2E2E2E2E2E2E2E2E2E2E2E2E2E2E2E2E2E2E2E2E2E2E2E2E2E2E2E2E2E2E2E2E2E2E2E2E2E2E2E2E2E2E2E2E2E2E2E2E2E2E2E2E2E2E2E2E2E2E2E2E2E2E2E2E2F5E2E2E2E2E2E2E2E2E2E2E2E2E2E2E2E2E2F5E2F5F5EFF5E2F5E2E2E2E2E2E2E2
310
E2E2E2E2E2E2E2E2E2E2F5E2E2E2E2E2E2E2E2E2E2E2E2E2E2E2E2E2E2E2E2E2E2E2E2E2E2E2E2E2E2E2E2E2E2E2E2E2E2E2E2E2E2E2E2E2E2E2E2E2E2E2E2E2E2E2E2E2E2E2E2F5E2E2E2E2F5E2E2E2F5F5E2E2E2E2E2E2E2E2E2E2E2E2E2E2E2E2E2E2E2E2E2E2E2E2E2E2E2E2E2E2E2E2E2E2E2E2E2E2E2E2E2E2E2E2E2
310
E2E2E2E2E2E2E2E2E2E2E2E2E2E2E2E2E2E2E2E2F5E2E2E2E2E2E2E2E2E2E2E2E2E2E2E2E2E2F5E2F5F5EFF5E2F5E2E2E2E2E2E2E2E2E2E2E2E2E2E2E2E2E2F5E2E2E2E2E2E2E2E2E2E2E2E2E2E2E2E2E2E2E2E2E2E2E2E2E2E2E2E2E2E2E2E2E2E2E2E2E2E2E2E2E2E2E2E2E2E2E2E2E2E2E2E2E2E2E2E2E2E2E2E2F5F5F5
310
F5F5F5F5F5F5F5F5E2E2E2E2E2E2E2E2E2E2E2E2E2E2E2E2E2E2E2E2E2E2E2E2E2E2E2E2E2E2E2E2E2E2E2E2E2E2E2E2E2E2E2E2E2E2E2E2E2E2E2E2E2E2E2E2E2E2E2E2E2E2E2E2E2F5E2E2E2E2E2E2E2E2E2E2E2E2E2E2E2E2E2F5E2F5F5EFF5E2F5E2E2E2E2E2E2E2E2E2E2E2E2E2E2E2E2E2F5E2E2E2E2E2E2E2E2E2E2
310
E2E2E2E2E2E2E2E2E2E2E2E2E2E2E2E2E2E2E2E2E2E2E2E2E2E2E2E2E2E2E2E2E2E2E2E2E2E2E2E2E2E2E2E2E2E2E2E2E2E2F5E2E2E2F5F5F5F5F5F5F5E2E2E2E2E2E2E2E2E2E2E2E2E2E2E2E2E2E2E2E2E2E2E2E2E2E2E2E2E2E2E2E2E2E2E2E2E2E2E2E2E2E2E2E2E2E2E2E2E2E2E2E2E2E2E2E2E2E2E2E2E2E2E2E2E2F5
310
E2E2E2E2E2E2E2E2E2E2E2E2E2E2E2E2E2F5E2F5F5EFF5E2F5E2E2E2E2E2E2E2E2E2E2E2E2E2E2E2E2E2F5E2E2E2E2E2E2E2E2E2E2E2E2E2E2E2E2E2E2E2E2E2E2E2E2E2E2E2E2E2E2E2E2E2E2E2E2E2E2E2E2E2E2E2E2E2E2E2E2E2E2E2E2E2E2E2E2E2E2E2E2F5E2E2E2F5F5F5E2F5E2F5E2E2E2E2E2E2E2E2E2E2E2E2E2
310
E2E2E2E2E2E2E2E2E2E2E2E2E2E2E2E2E2E2E2E2E2E2E2E2E2E2E2E2E2E2E2E2E2E2E2E2E2E2E2E2E2E2E2E2E2E2E2E2E2E2E2E2F5E2E2E2E2E2E2E2E2E2E2E2E2E2E2E2E2E2F5E2F5F5EFF5E2F5E2E2E2E2E2E2E2E2E2E2E2E2E2E2E2E2E2F5E2E2E2E2E2E2E2E2E2E2E2E2E2E2E2E2E2E2E2E2E2E2E2E2E2E2E2E2E2E2E2
310
E2E2E2E2E2E2E2E2E2E2E2E2E2E2E2E2E2E2E2E2E2E2E2F5F5F5F5F5F5F5E2E2E2E2F5E2E2E2E2F5E2E2E2E2E2E2E2E2E2E2E2E2E2E2E2E2E2E2E2E2E2E2E2E2E2E2E2E2E2E2E2E2E2E2E2E2E2E2E2E2E2E2E2E2E2E2E2E2E2E2E2E2E2E2E2E2E2E2E2E2E2E2E2E2E2F5E2E2E2E2E2E2E2E2E2E2E2E2E2E2E2E2E2F5E2F5F5
310
EFF5E2E2E2E2E2E2E2E2E2E2E2E2E2E2E2E2E2E2E2F5E2E2E2E2E2E2E2E2E2E2E2E2E2E2E2E2E2E2E2E2E2E2E2E2E2E2E2E2E2E2E2E2E2E2E2E2E2E2E2E2E2E2E2E2E2E2E2E2E2E2E2E2E2E2F5F5F5F5F5F5F5F5F5F5F5F5F5F5F5F5F5E2E2E2E2E2E2E2E2E2E2E2E2E2E2E2E2E2E2E2E2E2E2E2E2E2E2E2E2E2E2E2E2E2E2
310
E2E2E2E2E2E2E2E2E2E2E2E2E2E2E2E2E2E2E2E2E2E2E2E2E2E2E2E2E2E2E2F5E2E2E2E2E2E2E2E2E2E2E2E2E2E2E2E2E2E2E2F5F5EFF5E2E2E2E2E2E2E2E2E2E2E2E2E2E2E2E2E2E2E2F5E2E2E2E2E2E2E2E2E2E2E2E2E2E2E2E2E2E2E2E2E2E2E2E2E2E2E2E2E2E2E2E2E2E2E2E2E2E2E2E2E2E2E2E2E2E2E2E2E2E2E2E2
310
E2E2E2E2E2E2F5E2F5E2F5E2F5F5F5E2E2E2F5E2E2E2E2E2E2E2E2E2E2E2E2E2E2E2E2E2E2E2E2E2E2E2E2E2E2E2E2E2E2E2E2E2E2E2E2E2E2E2E2E2E2E2E2E2E2E2E2E2E2E2E2E2E2E2E2E2E2E2E2E2E2E2E2E2F5E2E2E2E2E2E2E2E2E2E2E2E2E2E2E2E2E2E2E2F5F5EFF5E2E2E2E2E2E2E2E2E2E2E2E2E2E2E2E2E2E2E2
310
F5E2E2E2E2E2E2E2E2E2E2E2E2E2E2E2E2E2E2E2E2E2E2E2E2E2E2E2E2E2E2E2E2E2E2E2E2E2E2E2E2E2E2E2E2E2E2E2E2E2E2E2E2E2E2E2E2E2E2E2E2F5F5F5F5F5F5F5E2E2E2F5E2E2E2E2E2E2E2E2E2E2E2E2E2E2E2E2E2E2E2E2E2E2E2E2E2E2E2E2E2E2E2E2E2E2E2E2E2E2E2E2E2E2E2E2E2E2E2E2E2E2E2E2E2E2E2
310
E2E2E2E2E2E2E2E2E2E2F5E2E2E2E2E2E2E2E2E2E2E2E2E2E2E2E2E2E2E2F5F5EFF5E2E2E2E2E2E2E2E2E2E2E2E2E2E2E2E2E2E2E2F5E2E2E2E2E2E2E2E2E2E2E2E2E2E2E2E2E2E2E2E2E2E2E2E2E2E2E2E2E2E2E2E2E2E2E2E2E2E2E2E2E2E2E2E2E2E2E2E2E2E2E2E2E2E2E2E2E2E2E2E2F5F5F5F5F5F5F5F5F5F5F5E2E2
310
E2E2E2E2E2E2E2E2E2E2E2E2E2E2E2E2E2E2E2E2E2E2E2E2E2E2E2E2E2E2E2E2E2E2E2E2E2E2E2E2E2E2E2E2E2E2E2E2E2E2E2E2E2E2E2E2E2E2E2E2E2E2E2F5E2E2E2E2E2E2E2E2E2E2E2E2E2E2E2E2E2E2E2F5F5EFF5E2E2E2E2E2E2E2E2E2E2E2E2E2E2E2E2E2E2E2F5E2E2E2E2E2E2E2E2E2E2E2E2E2E2E2E2E2E2E2E2
310
E2E2E2E2E2E2E2E2E2E2E2E2E2E2E2E2E2E2E2E2E2E2E2E2E2E2E2E2E2E2E2E2E2E2E2E2E2E2E2E2F5E2E2E2E2F5E2E2E2E2F5E2E2E2E2E2E2E2E2E2E2E2E2E2E2E2E2E2E2E2E2E2E2E2E2E2E2E2E2E2E2E2E2E2E2E2E2E2E2E2E2E2E2E2E2E2E2E2E2E2E2E2E2E2E2E2E2E2E2E2E2E2E2E2E2E2F5E2E2E2E2E2E2E2E2E2E2
310
E2E2E2E2E2E2E2E2E2F5F5EFF5E2E2E2E2E2E2E2E2E2E2E2E2E2E2E2E2E2E2E2F5E2E2E2E2E2E2E2E2E2E2E2E2E2E2E2E2E2E2E2E2E2E2E2E2E2E2E2E2E2E2E2E2E2E2E2E2E2E2E2E2E2E2E2E2E2E2E2E2E2E2E2E2E2E2E2E2E2E2E2E2F5E2E2F5F5F5F5E2E2E2F5E2E2E2E2E2E2E2E2E2E2E2E2E2E2E2E2E2E2E2E2E2E2E2
310
E2E2E2E2E2E2E2E2E2E2E2E2E2E2E2E2E2E2E2E2E2E2E2E2E2E2E2E2E2E2E2E2E2E2E2E2E2E2E2E2E2E2F5E2E2E2E2E2E2E2E2E2E2E2E2E2E2E2E2E2E2E2F5F5EFF5E2E2E2E2E2E2E2E2E2E2E2E2E2E2E2E2E2E2E2F5E2E2E2E2E2E2E2E2E2E2E2E2E2E2E2E2E2E2E2E2E2E2E2E2E2E2E2E2E2E2E2E2E2E2E2E2E2E2E2E2E2
310
E2E2E2E2E2E2E2E2E2E2E2E2E2E2E2E2E2E2E2E2F5E2E2F5F5E2E2E2F5E2E2E2E2E2E2E2E2E2E2E2E2E2E2E2E2E2E2E2E2E2E2E2E2E2E2E2E2E2E2E2E2E2E2E2E2E2E2E2E2E2E2E2E2E2E2E2E2E2E2E2E2E2E2E2E2E2E2E2E2E2E2E2E2E2E2F5E2E2E2E2E2E2E2E2E2E2E2E2E2E2E2E2E2E2E2F5F5EFF5E2E2E2E2E2E2E2E2
310
E2E2E2E2E2E2E2E2E2E2E2F5E2E2E2E2E2E2E2E2E2E2E2E2E2E2E2E2E2E2E2E2E2E2E2E2E2E2E2E2E2E2E2E2E2E2E2E2E2E2E2E2E2E2E2E2E2E2E2E2E2E2E2E2E2E2E2E2E2E2E2E2E2E2F5F5F5F5F5F5F5E2E2E2E2E2E2E2E2E2E2E2E2E2E2E2E2E2E2E2E2E2E2E2E2E2E2E2E2E2E2E2E2E2E2E2E2E2E2E2E2E2E2E2E2E2E2
310
E2E2E2E2E2E2E2E2E2E2E2E2E2E2E2E2E2E2E2E2E2F5E2E2E2E2E2E2E2E2E2E2E2E2E2E2E2E2E2E2E2F5F5EFF5E2E2E2E2E2E2E2E2E2E2E2E2E2E2E2E2E2E2E2F5E2E2E2E2E2E2E2E2E2E2E2E2E2E2E2E2E2E2E2E2E2E2E2E2E2E2E2E2E2E2E2E2E2E2E2E2E2E2E2E2E2E2E2E2E2E2E2E2E2E2E2E2E2E2E2E2E2E2E2E2E2E2
310
E2E2E2E2E2E2E2E2E2E2E2E2E2E2E2E2E2E2E2E2E2E2E2E2E2E2E2E2E2E2E2E2E2E2E2E2E2E2E2E2E2E2E2E2E2E2E2E2E2E2E2E2E2E2E2E2E2E2E2E2E2E2E2E2E2E2E2E2E2E2E2E2E2E2F5E2E2E2E2E2E2E2E2E2E2E2E2E2E2E2E2E2E2E2F5F5EFF5E2F5E2E2E2E2E2E2E2E2E2E2E2E2E2E2E2E2E2F5E2E2E2E2E2E2E2E2E2
310
E2E2E2E2E2E2E2E2E2E2E2E2E2E2E2E2E2E2E2E2E2E2E2E2E2E2E2E2E2E2E2E2E2E2E2E2E2E2E2E2E2E2E2E2E2E2E2E2E2E2E2E2E2E2E2E2E2E2E2E2E2E2E2E2E2E2E2E2E2E2E2E2E2E2E2E2E2E2E2E2E2E2E2E2E2E2E2E2E2E2E2E2E2E2E2E2E2E2E2E2E2E2E2E2E2E2E2E2E2E2E2E2E2E2E2E2E2E2E2E2E2E2E2E2E2E2E2
310
F5E2E2E2E2E2E2E2E2E2E2E2E2E2E2E2E2E2F5E2F5F5EFF5E2F5E2E2E2E2E2E2E2E2E2E2E2E2E2E2E2E2E2F5E2E2E2E2E2E2E2E2E2E2E2E2E2E2E2E2E2E2E2E2E2E2E2E2E2E2E2E2E2E2E2E2E2E2E2E2E2E2E2E2E2E2E2E2E2E2E2E2E2E2E2E2E2E2E2E2E2E2E2E2E2E2E2E2E2E2E2E2E2E2E2E2E2E2E2E2E2E2E2E2E2E2E2
310
E2E2E2E2E2E2E2E2E2E2E2E2E2E2E2E2E2E2E2E2E2E2E2E2E2E2E2E2E2E2E2E2E2E2E2E2E2E2E2E2E2E2E2E2E2E2E2E2E2E2E2E2E2F5E2E2E2E2E2E2E2E2E2E2E2E2E2E2E2E2E2F5E2F5F5EFF5E2F5E2E2E2E2E2E2E2E2E2E2E2E2E2E2E2E2E2F5E2E2E2E2E2E2E2E2E2E2E2E2E2E2E2E2E2E2E2E2E2E2E2E2E2E2E2E2E2E2
310
E2E2E2E2E2E2E2E2E2E2E2E2E2E2E2E2E2E2E2E2E2E2E2E2E2E2E2E2E2E2E2E2E2E2E2E2E2E2E2E2E2E2E2E2E2E2E2E2E2E2E2E2E2E2E2E2E2E2E2E2E2E2E2E2E2E2E2E2E2E2E2E2E2E2E2E2E2E2E2E2E2E2E2E2E2E2E2E2E2E2E2E2E2E2E2E2E2E2E2E2E2E2E2E2E2E2F5E2E2E2E2E2E2E2E2E2E2E2E2E2E2E2E2E2F5E2F5
310
F5EFF5E2F5E2E2E2E2E2E2E2E2E2E2E2E2E2E2E2E2E2F5E2E2E2E2E2E2E2E2E2E2E2E2E2E2E2E2E2E2E2E2E2E2E2E2E2E2E2E2E2E2E2E2E2E2E2E2E2E2E2E2E2E2E2E2E2E2E2E2E2E2E2E2E2E2E2E2E2E2E2E2E2E2E2E2E2E2E2E2E2E2E2E2E2E2E2E2E2E2E2E2E2E2E2E2E2E2E2E2E2E2E2E2E2E2E2E2E2E2E2E2E2E2E2E2
310
E2E2E2E2E2E2E2E2E2E2E2E2E2E2E2E2E2E2E2E2E2E2E2E2E2E2E2E2E2E2E2E2F5E2E2E2E2E2E2E2E2E2E2E2E2E2E2E2E2E2F5E2F5F5EFF5E2F5E2E2E2E2E2E2E2E2E2E2E2E2E2E2E2E2E2F5E2E2E2E2E2E2E2E2E2E2E2E2E2E2E2E2E2E2E2E2E2E2E2E2E2E2E2E2E2E2E2E2E2E2E2E2E2E2E2E2E2E2E2E2E2E2E2F5F5F5F5
310
F5F5F5F5E2E2E2E2E2E2E2E2E2E2E2E2E2E2E2E2E2E2E2E2E2E2E2E2E2E2E2E2E2E2E2E2E2E2E2E2E2E2E2E2E2E2E2E2E2E2E2E2E2E2E2E2E2E2E2E2E2E2E2E2E2E2E2E2E2E2E2E2E2E2E2E2E2E2E2E2E2E2E2E2E2F5E2E2E2E2E2E2E2E2E2E2E2E2E2E2E2E2E2F5E2F5F5EFF5E2F5E2E2E2E2E2E2E2E2E2E2E2E2E2E2E2E2
310
E2F5E2E2E2E2E2E2E2E2E2E2E2E2E2E2E2E2E2E2E2E2E2E2E2E2E2E2E2E2E2E2E2E2E2E2E2E2E2E2E2E2E2E2E2E2E2E2E2F5F5F5F5F5E2E2E2F5E2E2E2E2E2E2E2E2E2E2E2E2E2E2E2E2E2E2E2E2E2E2E2E2E2E2E2E2E2E2E2E2E2E2E2E2E2E2E2E2E2E2E2E2E2E2E2E2E2E2E2E2E2E2E2E2E2E2E2E2E2E2E2E2E2E2E2E2E2
310
E2E2E2E2E2E2E2E2E2E2E2F5E2E2E2E2E2E2E2E2E2E2E2E2E2E2E2E2E2F5E2F5F5EFF5E2F5E2E2E2E2E2E2E2E2E2E2E2E2E2E2E2E2E2F5E2E2E2E2E2E2E2E2E2E2E2E2E2E2E2E2E2E2E2E2E2E2E2E2F5F5E2E2E2E2E2F5E2E2E2E2E2E2E2E2E2E2E2E2E2E2E2E2E2E2E2E2E2E2E2F5E2E2E2E2E2E2E2E2E2F5E2E2E2E2E2E2
310
E2E2E2E2E2E2E2E2E2E2E2E2E2E2E2E2E2E2E2E2E2E2E2E2E2E2E2E2E2E2E2E2E2E2E2E2E2E2E2E2E2E2E2E2E2E2E2E2E2E2E2E2E2E2E2E2E2E2E2E2E2E2E2E2F5E2E2E2E2E2E2E2E2E2E2E2E2E2E2E2E2E2F5E2F5F5EFF5E2F5E2E2E2E2E2E2E2E2E2E2E2E2E2E2E2E2E2F5E2E2E2E2E2E2E2E2E2E2E2E2E2E2E2E2E2E2E2
310
E2E2E2E2E2F5F5F5F5E2E2E2F5E2E2E2F5F5F5F5E2E2E2E2E2E2E2E2E2E2E2E2E2E2E2E2E2F5E2E2E2F5F5F5F5F5F5F5F5F5F5F5E2E2E2E2E2E2E2E2E2E2E2E2E2E2E2E2E2E2F5F5F5F5E2E2E2E2E2E2E2F5F5F5F5E2E2E2E2E2E2E2E2E2E2E2E2E2E2E2E2E2E2E2E2E2E2E2E2E2E2E2E2E2E2E2E2F5E2E2E2E2E2E2E2E2E2
310
E2E2E2E2E2E2E2E2F5E2F5F5EFF5E2F5E2E2E2E2E2E2E2E2E2E2E2E2E2E2E2E2E2F5E2E2E2E2E2E2E2E2E2E2E2E2E2E2E2E2E2E2E2E2E2E2E2E2E2F5E2F5E2E2E2F5E2E2E2F5F5E2E2E2E2E2E2E2E2E2E2E2E2E2E2E2E2E2E2E2F5E2E2E2F5F5F5F5F5F5F5F5F5F5F5E2E2E2E2E2E2E2E2E2E2E2E2E2E2E2E2E2E2E2E2E2F5
310
E2E2E2F5E2E2E2F5F5E2E2E2E2E2E2E2E2E2E2E2E2E2E2E2E2E2E2E2E2E2E2E2E2E2E2E2E2E2E2E2E2E2E2F5E2E2E2E2E2E2E2E2E2E2E2E2E2E2E2E2E2F5E2F5F5EFF5E2F5E2E2E2E2E2E2E2E2E2E2E2E2E2E2E2E2E2F5E2E2E2E2E2E2E2E2E2E2E2E2E2E2E2E2E2E2E2E2E2E2E2E2E2E2E2F5F5F5F5F5F5F5F5F5E2E2E2E2
310
E2E2E2E2E2E2E2E2E2E2E2E2E2E2E2E2E2F5E2E2F5F5F5F5F5F5F5F5F5F5F5E2E2E2E2E2E2E2E2E2E2E2E2E2E2E2E2E2E2E2E2E2F5F5F5F5F5F5F5F5F5E2E2E2E2E2E2E2E2E2E2E2E2E2E2E2E2E2E2E2E2E2E2E2E2E2E2E2E2E2E2E2E2E2E2E2F5E2E2E2E2E2E2E2E2E2E2E2E2E2E2E2E2E2F5E2F5F5EFF5E2F5E2E2E2E2E2
310
E2E2E2E2E2E2E2E2E2E2E2E2F5E2E2E2E2E2E2E2E2E2E2E2E2E2E2E2E2E2E2E2E2E2E2E2E2E2E2E2E2F5F5F5F5F5F5F5F5E2E2E2E2E2E2E2E2E2E2E2E2E2E2E2E2E2E2E2E2E2F5E2E2F5F5F5F5F5F5F5F5F5F5F5E2E2E2E2E2E2E2E2E2E2E2E2E2E2E2E2E2E2E2E2E2E2F5F5F5F5F5F5F5F5E2E2E2E2E2E2E2E2E2E2E2E2E2
310
E2E2E2E2E2E2E2E2E2E2E2E2E2E2E2E2E2E2E2E2E2E2F5E2E2E2E2E2E2E2E2E2E2E2E2E2E2E2E2E2F5E2F5F5EFF5E2F5E2E2E2E2E2E2E2E2E2E2E2E2E2E2E2E2E2F5E2E2E2E2E2E2E2E2E2E2E2E2E2E2E2E2E2E2E2E2E2E2E2E2E2E2E2E2F5E2E2F5E2E2E2F5E2E2E2E2E2E2E2E2E2E2E2E2E2E2E2E2E2E2E2E2E2E2F5E2F5
310
E2E2E2E2F5E2E2E2E2F5E2E2E2E2E2E2E2E2E2E2E2E2E2E2E2E2E2E2E2E2E2E2F5E2E2F5E2E2E2F5E2E2E2E2E2E2E2E2E2E2E2E2E2E2E2E2E2E2E2E2E2E2E2E2E2E2E2E2E2E2E2E2E2E2E2F5E2E2E2E2E2E2E2E2E2E2E2E2E2E2E2E2E2F5E2F5F5EFF5E2F5E2E2E2E2E2E2E2E2E2E2E2E2E2E2E2E2E2F5E2E2E2E2E2E2E2E2
310
E2E2E2E2E2E2E2E2E2E2E2E2E2E2E2E2E2E2E2E2F5E2F5F5F5E2E2F5E2E2E2E2E2E2E2E2E2E2E2E2E2E2E2E2E2F5F5E2E2E2E2F5F5E2E2E2E2F5E2E2E2F5F5E2E2E2E2E2E2E2E2E2E2E2E2E2E2E2E2E2E2E2E2E2E2F5E2E2F5E2E2E2F5E2E2E2E2E2E2E2E2E2E2E2E2E2E2E2E2E2E2E2E2E2E2E2E2E2E2E2E2E2E2E2E2E2E2
310
E2F5E2E2E2E2E2E2E2E2E2E2E2E2E2E2E2E2E2F5E2F5F5EFF5E2F5E2E2E2E2E2E2E2E2E2E2E2E2E2E2E2E2E2F5E2E2E2E2E2E2E2E2E2E2E2E2E2E2E2E2E2E2E2E2E2E2E2E2E2E2E2E2F5E2F5F5F5F5E2F5E2E2E2E2E2E2E2E2E2E2E2E2E2E2E2E2E2F5F5F5E2E2E2F5F5E2E2E2E2F5E2F5F5F5F5E2E2E2E2E2E2E2E2E2E2E2
310
E2E2E2E2E2E2E2E2E2E2E2F5E2E2F5E2E2E2F5E2E2E2E2E2E2E2E2E2E2E2E2E2E2E2E2E2E2E2E2E2E2E2E2E2E2E2E2E2E2E2E2E2E2E2F5E2E2E2E2E2E2E2E2E2E2E2E2E2E2E2E2E2F5E2F5F5EFF5E2F5E2E2E2E2E2E2E2E2E2E2E2E2E2E2E2E2E2F5E2E2E2E2E2E2E2E2E2E2E2E2E2E2E2E2E2E2E2E2E2E2E2E2E2E2E2E2F5
310
F5F5F5F5F5F5F5E2E2E2E2E2E2E2E2E2E2E2E2E2E2E2F5F5F5F5F5F5F5F5F5F5F5F5E2E2F5E2E2F5F5F5E2E2E2E2E2E2E2E2E2E2E2E2E2E2E2E2E2E2E2E2E2E2F5E2F5F5F5E2E2F5E2E2E2E2E2E2E2E2E2E2E2E2E2E2E2E2E2E2E2E2E2E2E2E2E2E2E2E2E2E2E2E2E2E2E2F5E2E2E2E2E2E2E2E2E2E2E2E2E2E2E2E2E2F5E2
310
F5F5EFF5E2E2E2E2E2E2E2E2E2E2E2E2E2E2E2E2E2E2E2F5E2E2E2E2E2E2E2E2E2E2E2E2E2E2E2E2E2E2E2E2E2E2E2E2E2E2E2E2F5E2F5F5F5F5E2F5E2E2E2E2E2E2E2E2E2E2E2E2E2E2E2E2E2F5F5F5E2E2E2E2F5F5E2E2E2F5E2E2E2E2F5E2E2E2E2E2E2E2E2E2E2E2E2E2E2E2E2E2E2E2E2E2E2F5E2F5F5F5F5E2F5E2E2
310
E2E2E2E2E2E2E2E2E2E2E2E2E2E2E2E2E2E2E2E2E2E2E2E2E2E2E2E2E2E2E2E2E2F5E2E2E2E2E2E2E2E2E2E2E2E2E2E2E2E2E2E2E2F5F5EFF5E2E2E2E2E2E2E2E2E2E2E2E2E2E2E2E2E2E2E2F5E2E2E2E2E2E2E2E2E2E2E2E2E2E2E2E2E2E2E2E2E2E2E2E2E2E2E2E2F5E2E2F5E2E2E2F5E2E2E2E2E2E2E2E2E2E2E2E2E2E2
310
E2E2E2F5F5E2E2E2E2E2F5F5F5E2E2F5E2E2F5F5F5F5E2E2E2E2E2E2E2E2E2E2E2E2E2E2E2E2E2E2E2E2E2F5F5F5F5F5F5F5F5E2E2E2E2E2E2E2E2E2E2E2E2E2E2E2E2E2E2E2E2E2E2E2E2E2E2E2E2E2E2E2E2E2E2E2F5E2E2E2E2E2E2E2E2E2E2E2E2E2E2E2E2E2E2E2F5F5EFF5E2E2E2E2E2E2E2E2E2E2E2E2E2E2E2E2E2
310
E2E2F5E2E2E2E2E2E2E2E2E2E2E2E2E2E2E2E2E2E2E2E2E2E2E2E2E2E2E2E2F5F5F5F5F5E2E2F5E2E2E2E2E2E2E2E2E2E2E2E2E2E2E2E2E2E2F5E2E2E2E2E2F5F5F5E2E2F5E2E2E2E2F5E2E2E2E2E2E2E2E2E2E2E2E2E2E2E2E2E2E2E2E2E2E2F5E2F5F5F5F5F5F5E2E2E2E2E2E2E2E2E2E2E2E2E2E2E2E2E2E2E2E2E2E2E2
310
E2E2E2E2E2E2E2E2E2E2E2E2F5E2E2E2E2E2E2E2E2E2E2E2E2E2E2E2E2E2E2E2F5F5EFF5E2E2E2E2E2E2E2E2E2E2E2E2E2E2E2E2E2E2E2F5E2E2E2E2E2E2E2E2E2E2E2E2E2E2E2E2E2E2E2E2E2E2E2E2E2E2E2F5F5F5F5F5F5F5E2F5E2E2E2E2E2E2E2E2E2E2E2E2E2E2E2E2E2F5E2E2E2E2E2E2F5E2E2E2E2F5E2E2E2E2F5
310
E2E2E2E2E2E2E2E2E2E2E2E2E2E2E2E2E2E2E2E2E2E2F5E2E2F5F5F5F5F5E2E2E2E2E2E2E2E2E2E2E2E2E2E2E2E2E2E2E2E2E2E2E2E2E2E2E2E2E2E2E2E2E2E2E2F5E2E2E2E2E2E2E2E2E2E2E2E2E2E2E2E2E2E2E2F5F5EFF5E2E2E2E2E2E2E2E2E2E2E2E2E2E2E2E2E2E2E2F5E2E2E2E2E2E2E2E2E2E2E2E2E2E2E2E2E2E2
310
E2E2E2E2E2E2E2E2E2E2F5F5F5F5F5F5F5F5E2E2E2E2E2E2E2E2E2E2E2E2E2E2E2E2E2F5E2E2E2E2E2F5F5F5F5E2E2F5E2E2E2E2F5E2E2E2E2E2E2E2E2E2E2E2E2E2E2E2E2E2E2E2E2E2E2F5F5E2F5E2F5F5F5E2E2E2E2E2E2E2E2E2E2E2E2E2E2E2E2E2E2E2E2E2E2E2E2E2E2E2E2E2E2E2E2E2E2E2F5E2E2E2E2E2E2E2E2
310
E2E2E2E2E2E2E2E2E2E2E2F5F5EFF5E2E2E2E2E2E2E2E2E2E2E2E2E2E2E2E2E2E2E2F5E2E2E2E2E2E2E2E2E2E2E2E2E2E2E2E2E2E2E2E2E2E2E2E2E2E2E2E2F5E2F5F5F5F5F5F5E2E2E2E2E2E2E2E2E2E2E2E2E2E2E2E2F5F5F5F5F5F5F5E2F5E2E2E2E2F5E2E2E2E2F5E2E2E2E2E2E2E2E2E2E2E2E2E2E2E2E2E2E2E2E2E2
310
F5F5F5F5F5E2F5E2F5E2E2E2E2E2E2E2E2E2E2E2E2E2E2E2E2E2E2E2E2E2E2E2E2E2E2E2E2E2E2E2E2E2E2E2F5E2E2E2E2E2E2E2E2E2E2E2E2E2E2E2E2E2E2E2F5F5EFF5E2E2E2E2E2E2E2E2E2E2E2E2E2E2E2E2E2E2E2F5E2E2E2E2E2E2E2E2E2E2E2E2E2E2E2E2E2E2E2E2E2E2E2E2E2E2E2E2F5E2E2F5E2F5F5F5E2E2E2
310
E2E2E2E2E2E2E2E2E2E2E2E2E2F5F5F5F5F5E2E2E2F5E2E2E2E2F5E2E2E2E2F5E2E2E2E2E2E2E2E2E2E2E2E2E2E2E2E2E2E2E2E2E2E2F5F5E2F5E2E2F5F5E2E2E2E2E2E2E2E2E2E2E2E2E2E2E2E2E2E2E2E2E2E2E2E2E2E2E2E2E2E2E2E2E2E2E2F5E2E2E2E2E2E2E2E2E2E2E2E2E2E2E2E2E2E2E2F5F5EFF5E2E2E2E2E2E2
310
E2E2E2E2E2E2E2E2E2E2E2E2E2F5E2E2E2E2E2E2E2E2E2E2E2E2E2E2E2E2E2E2E2E2E2E2E2E2E2E2E2E2F5F5F5F5F5F5F5F5E2E2E2E2E2E2E2E2E2E2E2E2E2E2E2F5F5F5F5E2E2E2E2E2F5F5F5F5F5F5F5F5F5F5F5E2E2E2E2E2E2E2E2E2E2E2E2E2E2E2E2E2E2E2E2E2E2F5F5F5F5F5F5F5F5E2E2E2E2E2E2E2E2E2E2E2E2
310
E2E2E2E2E2E2E2E2E2E2E2E2E2E2E2E2E2E2E2E2E2E2E2F5E2E2E2E2E2E2E2E2E2E2E2E2E2E2E2E2E2E2E2F5F5EFF5E2E2E2E2E2E2E2E2E2E2E2E2E2E2E2E2E2E2E2F5E2E2E2E2E2E2E2E2E2E2E2E2E2E2E2E2E2E2E2E2E2E2E2E2E2E2E2E2F5F5F5F5F5F5F5F5E2E2E2E2E2E2E2E2E2E2E2E2E2E2E2F5F5F5E2E2E2E2E2E2
310
F5F5F5F5F5F5F5F5F5F5F5E2E2E2E2E2E2E2E2E2E2E2E2E2E2E2E2E2E2E2E2E2F5F5F5F5F5F5F5F5F5E2E2E2E2E2E2E2E2E2E2E2E2E2E2E2E2E2E2E2E2E2E2E2E2E2E2E2E2E2E2E2E2E2E2E2F5E2E2E2E2E2E2E2E2E2E2E2E2E2E2E2E2E2E2E2F5F5EFF5E2F5E2E2E2E2E2E2E2E2E2E2E2E2E2E2E2E2E2F5E2E2E2E2E2E2E2
310
E2E2E2E2E2E2E2E2E2E2E2E2E2E2E2E2E2E2E2E2E2F5E2E2F5E2E2E2F5E2E2E2E2E2E2E2E2E2E2E2E2E2E2E2E2E2E2E2E2E2E2E2E2F5E2E2E2E2F5E2E2E2E2F5E2E2E2E2E2E2E2E2E2E2E2E2E2E2E2E2E2E2E2E2E2F5F5E2E2F5E2E2E2F5E2E2E2E2E2E2E2E2E2E2E2E2E2E2E2E2E2E2E2E2E2E2E2E2E2E2E2E2E2E2E2E2E2
310
E2E2F5E2E2E2E2E2E2E2E2E2E2E2E2E2E2E2E2E2F5E2F5F5EFF5E2F5E2E2E2E2E2E2E2E2E2E2E2E2E2E2E2E2E2F5E2E2E2F5F5F5F5F5F5F5F5F5F5F5F5F5F5F5F5F5E2E2E2E2E2E2E2E2F5E2E2F5E2E2E2F5E2E2E2E2E2E2E2E2E2E2E2E2E2E2E2E2E2E2E2E2E2E2E2E2F5E2E2E2E2F5E2E2E2E2F5E2E2E2E2E2E2E2E2E2E2
310
E2E2E2E2E2E2E2E2E2E2E2F5F5E2E2F5E2E2E2F5F5E2E2E2E2E2E2E2E2E2E2E2E2E2E2E2E2E2E2E2E2E2E2E2E2E2E2E2E2E2E2E2E2E2E2F5E2E2E2E2E2E2E2E2E2E2E2E2E2E2E2E2E2F5E2F5F5EFF5E2F5E2E2E2E2E2E2E2E2E2E2E2E2E2E2E2E2E2F5E2E2E2F5F5F5F5F5F5E2F5F5F5F5F5F5F5F5F5F5E2E2E2E2E2E2E2E2
310
F5E2E2F5E2E2E2F5E2E2E2E2E2E2E2E2E2E2E2E2E2E2E2E2E2E2E2E2E2E2E2E2F5E2E2E2E2F5E2E2E2E2F5E2E2E2E2E2E2E2E2E2E2E2E2E2E2E2E2E2E2E2E2F5E2F5E2E2F5E2E2E2F5F5E2E2E2E2E2E2E2E2E2E2E2E2E2E2E2E2E2E2E2E2E2E2E2E2E2E2E2E2E2E2E2E2E2E2F5E2E2E2E2E2E2E2E2E2E2E2E2E2E2E2E2E2F5
310
E2F5F5EFF5E2F5E2E2E2E2E2E2E2E2E2E2E2E2E2E2E2E2E2F5E2E2E2F5F5F5F5F5F5F5F5E2F5F5F5F5F5F5F5F5E2E2E2E2E2E2E2E2F5E2E2F5E2E2E2F5E2E2E2E2E2E2E2E2E2E2E2E2E2E2E2E2E2E2E2E2E2E2E2E2F5E2E2E2E2F5E2E2E2E2F5E2E2E2E2E2E2E2E2E2E2F5F5F5F5F5F5F5F5F5F5F5E2F5E2E2F5E2E2E2F5E2
310
F5E2E2E2E2E2E2E2E2E2E2E2E2E2E2E2E2E2E2E2E2E2E2E2E2E2E2E2E2E2E2E2E2E2F5E2E2E2E2E2E2E2E2E2E2E2E2E2E2E2E2E2F5E2F5F5EFF5E2F5E2E2E2E2E2E2E2E2E2E2E2E2E2E2E2E2E2F5E2E2E2E2E2E2E2E2E2E2E2E2E2E2E2E2E2E2E2E2E2E2E2E2E2E2E2E2F5E2E2F5E2E2E2F5E2E2E2E2E2E2E2E2E2E2E2E2E2
310
E2E2E2E2E2E2E2E2E2E2E2F5E2E2E2E2F5E2E2E2E2F5E2E2E2E2E2E2E2E2E2E2F5F5F5F5F5F5F5E2E2E2F5E2F5E2E2F5E2E2E2F5E2F5E2E2E2E2E2E2E2E2E2E2E2E2E2E2E2E2E2E2E2E2E2E2E2E2E2E2E2E2E2E2E2E2E2F5E2E2E2E2E2E2E2E2E2E2E2E2E2E2E2E2E2F5E2F5F5EFF5E2F5E2E2E2E2E2E2E2E2E2E2E2E2E2E2
310
E2E2E2F5E2E2E2E2E2E2E2E2E2E2E2E2E2E2E2E2E2E2E2E2E2E2E2E2E2E2E2E2F5E2F5F5F5E2E2F5E2E2E2E2E2E2E2E2E2E2E2E2E2E2E2E2E2E2E2E2E2E2E2E2F5E2E2E2E2F5E2E2E2E2F5E2E2E2E2E2E2E2E2E2E2F5F5F5F5F5F5F5E2E2F5E2E2F5E2E2F5E2E2E2F5E2E2F5E2E2E2E2E2E2E2E2E2E2E2E2E2E2E2E2E2E2E2
310
E2E2E2E2E2E2E2E2E2E2E2E2E2F5E2E2E2E2E2E2E2E2E2E2E2E2E2E2E2E2E2F5E2F5F5EFF5E2F5E2E2E2E2E2E2E2E2E2E2E2E2E2E2E2E2E2F5E2E2E2E2E2E2E2E2E2E2E2E2E2E2E2E2E2E2E2E2E2E2E2E2E2E2E2E2F5F5F5F5F5F5E2F5E2E2E2E2E2E2E2E2E2E2E2E2E2E2E2E2E2E2F5F5F5F5F5F5F5F5E2E2E2F5E2E2E2E2
310
F5E2E2E2E2E2E2E2E2E2E2E2E2F5F5F5F5F5F5F5F5E2E2F5E2E2F5E2E2E2F5E2E2F5F5F5F5F5F5F5F5E2E2E2E2E2E2E2E2E2E2E2E2E2E2E2E2E2E2E2E2E2E2E2E2E2F5E2E2E2E2E2E2E2E2E2E2E2E2E2E2E2E2E2F5E2F5F5EFF5E2F5E2E2E2E2E2E2E2E2E2E2E2E2E2E2E2E2E2F5E2E2E2E2E2E2E2E2E2E2E2E2E2E2E2E2E2
310
E2E2E2E2E2E2E2E2E2E2E2F5E2F5F5F5E2E2F5E2E2E2E2E2E2E2E2E2E2E2E2E2E2E2E2E2E2E2E2F5F5F5F5F5E2E2E2E2F5E2E2E2E2F5E2E2E2E2E2E2E2E2E2E2E2E2F5F5F5F5E2F5E2E2E2E2F5E2E2F5E2E2E2F5E2E2F5F5F5F5F5E2E2E2E2E2E2E2E2E2E2E2E2E2E2E2E2E2E2E2E2E2E2E2E2E2E2E2E2F5E2E2E2E2E2E2E2
310
E2E2E2E2E2E2E2E2E2E2F5E2F5F5EFF5E2F5E2E2E2E2E2E2E2E2E2E2E2E2E2E2E2E2E2F5E2E2E2E2E2E2E2E2E2E2E2E2E2E2E2E2E2E2E2E2E2E2E2E2E2E2E2E2F5E2E2F5E2E2E2F5E2E2E2E2E2E2E2E2E2E2E2E2E2E2E2E2E2E2E2E2E2E2E2E2F5E2E2E2E2F5E2E2E2E2F5E2E2E2E2E2E2E2E2E2E2E2E2E2E2E2E2E2E2E2E2
310
E2E2F5E2E2F5E2E2E2F5E2E2E2E2E2E2E2E2E2E2E2E2E2E2E2E2E2E2E2E2E2E2E2E2E2E2E2E2E2E2E2E2E2E2E2F5E2E2E2E2E2E2E2E2E2E2E2E2E2E2E2E2E2F5E2F5F5EFF5E2F5E2E2E2E2E2E2E2E2E2E2E2E2E2E2E2E2E2F5E2E2E2E2E2E2E2E2E2E2E2E2E2E2E2E2E2E2E2E2E2E2E2E2E2E2E2E2F5E2E2F5E2E2E2F5E2E2
310
E2E2E2E2E2E2E2E2E2E2E2E2E2E2E2E2E2E2E2E2E2E2F5E2E2E2E2F5E2E2E2E2F5E2E2E2E2E2E2E2E2E2E2E2E2E2E2E2E2E2E2E2E2E2E2F5E2E2F5E2E2E2F5E2E2E2E2E2E2E2E2E2E2E2E2E2E2E2E2E2E2E2E2E2E2E2E2E2E2E2E2E2E2E2E2E2E2E2F5E2E2E2E2E2E2E2E2E2E2E2E2E2E2E2E2E2F5E2F5F5EFF5E2F5E2E2E2
310
E2E2E2E2E2E2E2E2E2E2E2E2E2E2F5E2E2E2E2E2E2E2E2E2E2E2E2E2E2E2E2E2E2E2E2E2E2E2E2E2E2E2E2F5F5E2F5E2E2E2F5E2E2E2E2E2E2E2E2E2E2E2E2E2E2E2E2E2E2E2E2E2E2E2E2F5E2E2E2E2F5E2F5F5F5F5E2E2E2E2E2E2E2E2E2E2E2E2E2E2E2E2E2E2E2E2E2E2F5F5E2F5E2E2E2F5E2E2E2E2E2E2E2E2E2E2E2
310
E2E2E2E2E2E2E2E2E2E2E2E2E2E2E2E2E2E2E2E2E2E2E2E2F5E2E2E2E2E2E2E2E2E2E2E2E2E2E2E2E2E2F5E2F5F5EFF5E2F5E2E2E2E2E2E2E2E2E2E2E2E2E2E2E2E2E2F5E2E2E2E2E2E2E2E2E2E2E2E2E2E2E2E2E2E2E2E2E2E2E2E2E2E2E2E2F5F5F5F5F5F5F5F5E2E2E2E2E2E2E2E2E2E2E2E2E2E2E2E2E2E2E2E2E2E2E2
310
E2F5F5F5F5F5F5F5F5F5F5F5E2E2E2E2E2E2E2E2E2E2E2E2E2E2E2E2E2E2E2E2E2E2F5F5F5F5F5F5F5F5E2E2E2E2E2E2E2E2E2E2E2E2E2E2E2E2E2E2E2E2E2E2E2E2E2E2E2E2E2E2E2E2E2E2E2F5E2E2E2E2E2E2E2E2E2E2E2E2E2E2E2E2E2F5E2F5F5EFF5E2F5E2E2E2E2E2E2E2E2E2E2E2E2E2E2E2E2E2F5E2E2E2E2E2E2
310
E2E2E2E2E2E2E2E2E2E2E2E2E2E2E2E2E2E2E2E2E2E2E2E2E2F5E2E2E2E2E2E2E2E2E2E2E2E2E2E2E2E2E2E2E2E2E2E2E2E2E2E2E2E2E2E2E2E2E2F5E2E2E2E2E2E2E2E2E2E2E2E2E2E2E2E2E2E2E2E2E2E2E2E2E2E2E2E2E2E2F5E2E2E2E2E2E2E2E2E2E2E2E2E2E2E2E2E2E2E2E2E2E2E2E2E2E2E2E2E2E2E2E2E2E2E2E2
310
E2E2E2F5E2E2E2E2E2E2E2E2E2E2E2E2E2E2E2E2E2F5E2F5F5EFF5E2F5E2E2E2E2E2E2E2E2E2E2E2E2E2E2E2E2E2F528282828282828282828282828282828282828282828282828282828E2E2E2E2E2E2E2E2E2E2E2E2E2E2E2E2E2E2E2E2E2E2E2E2E2E2E2E2E2E2E2E2E2E2E2E2E2E2E2E2E2E2E2E2E2E2E2E2E2E2E2E2
310
E2E2E2E2E2E2E2E2E2E2E2E2E2E2E2E2E2E2E2E2E2E2E2E2E2E2E2E228282828282828282828282828282828282828282828282828282828F5E2E2E2E2E2E2E2E2E2E2E2E2E2E2E2E2E2F5E2F5F5EFF5E2F5E2E2E2E2E2E2E2E2E2E2E2E2E2E2E2E2E2F5E2E2E2E2E2E2E2E2E2E2E2E2E2E2E2E2E2E2E2E2E2E2E2E2E2E2E2
310
28E2E2E2E2E2E2E2E2E2E2E2E2E2E2E2E2E2E2E2E2E2E2E2E2E2E2E2E2E2E2E2E2E2E2E2E2E2E2E2E2E2E2E2E2E2E2E2E2E2E2E2E2E2E2E2E2E2E2E2E2E2E2E2E2E2E2E2E2E2E2E2E2E2E2E2E2E2E2E2E228E2E2E2E2E2E2E2E2E2E2E2E2F5E2E2E2E2E2E2E2E2E2E2E2E2E2E2F5E2E2E2E2E2E2E2E2E2E2E2E2E2E2E2E2E2
310
F5E2F5F5EFF5E2E2E2E2E2E2E2E2E2E2E2E2E2E2E2E2E2E2E2F5E2E2E2E2E2E2F5F5F5F5E2F5F5F5F5F5F5F5F5E2E2E2E2E2E2E2E228E2E2E2E2E2E2E2E2E2E2E2E2E2E2E2E2E2E2E2E2E2E2E2E2E2E2E2E2E2E2E2E2E2E2E2E2E2E2E2E2E2E2E2E2E2E2E2E2E2E2E2E2E2E2E2E2E2E2E2E2E2E2E2E2E2E2E2E2E2E2E2E2E2
310
E2E2E2E2E2E2E228F5F5F5F5F5F5F5E2F5F5F5F5F5F5F5F5F5F5E2E2E2E2E2E2E2E2E2F5E2E2E2E2E2E2E2E2E2E2E2E2E2E2E2E2E2E2E2F5F5EFF5E2E2E2E2E2E2E2E2E2E2E2E2E2E2E2E2E2E2E2F5E2E2E2E2E2E2F5F5F5F5E2F5F5F5F5F5F5F5F5E2E2E2E2E2E2E2E228E2E2E2E2E2E2E2E2E2E2E2E2E2E2E2E2E2E2E2E2
310
E2E2E2E2E2E2E2E2E2E2E2E2E2E2E2E2E2E2E2E2E2E2E2E2E2E2E2E2E2E2E2E2E2E2E2E2E2E2E2E2E2E2E2E2E2E2E2E2E2E2E2E2E2E2E2E2E2E2E2E228F5F5F5F5F5F5F5E2F5F5F5F5E2F5F5F5F5F5E2E2E2E2E2E2E2E2E2F5E2E2E2E2E2E2E2E2E2E2E2E2E2E2E2E2E2E2E2F5F5EFF5E2E2E2E2E2E2E2E2E2E2E2E2E2E2E2
310
E2E2E2E2F5E2E2E2E2E2E2E2E2E2E2E2E2E2E2E2E2E2E2E2E2E2E2E2E2E2E2E228E2E2E2E2E2E2E2E2E2E2E2E2E2E2E2E2E2E2E2E2E2E2E2E2E2E2E2E2E2E2E2E2E2E2E2E2E2E2E2E2E2E2E2E2E2E2E2E2E2E2E2E2E2E2E2E2E2E2E2E2E2E2E2E2E2E2E2E2E2E2E2E2E2E2E2E2E2E2E2E228E2E2E2E2E2E2E2E2E2E2E2E2E2
310
E2E2E2E2E2E2E2E2E2E2E2E2E2E2F5E2E2E2E2E2E2E2E2E2E2E2E2E2E2E2E2E2E2E2F5F5EFF5E2E2E2E2E2E2E2E2E2E2E2E2E2E2E2E2E2E2E2F5282828282828282828282828282828282828282828282828282828282828282828282828282828282828282828282828282828282828282828282828282828282828282828
310
28282828282828282828282828282828282828282828282828282828282828282828282828282828282828282828282828282828282828282828282828282828282828F5E2E2E2E2E2E2E2E2E2E2E2E2E2E2E2E2E2E2E2F5F5EFF5E2E2E2E2E2E2E2E2E2E2E2E2E2E2E2E2E2E2E2F5F5F5F5F5F5F5F5F5F5F5F5F5F5F5F5F5
310
F5F5F5F5F5F5F5F5F5F5F5F5F5F5F5F5F5F5F5F5F5F5F5F5F5F5F5F5F5F5F5F5F5F5F5F5F5F5F5F5F5F5F5F5F5F5F5F5F5F5F5F5F5F5F5F5F5F5F5F5F5F5F5F5F5F5F5F5F5F5F5F5F5F5F5F5F5F5F5F5F5F5F5F5F5F5F5F5F5F5F5F5F5F5F5F5F5F5F5F5F5F5F5F5F5F5F5F5F5F5F5F5F5F5F5F5F5F5F5F5F5E2E2E2E2E2E2
310
E2E2E2E2E2E2E2E2E2E2E2E2E2F5F5EFF5E2E2E2E2E2E2E2E2E2E2E2E2E2E2E2E2E2E2E2E2E2E2E2E2E2E2E2E2E2E2E2E2E2E2E2E2E2E2E2E2E2E2E2E2E2E2E2E2E2E2E2E2E2E2E2E2E2E2E2E2E2E2E2E2E2E2E2E2E2E2E2E2E2E2E2E2E2E2E2E2E2E2E2E2E2E2E2E2E2E2E2E2E2E2E2E2E2E2E2E2E2E2E2E2E2E2E2E2E2E2
310
E2E2E2E2E2E2E2E2E2E2E2E2E2E2E2E2E2E2E2E2E2E2E2E2E2E2E2E2E2E2E2E2E2E2E2E2E2E2E2E2E2E2E2E2E2E2E2E2E2E2E2E2E2E2E2E2E2E2E2E2E2E2E2E2E2E2F5F5EFF5E2E2E2E2E2E2E2E2E2E2E2E2E2E2E2E2E2E2E2E2E2E2E2E2E2E2E2E2E2E2E2E2E2E2E2E2E2E2E2E2E2E2E2E2E2E2E2E2E2E2E2E2E2E2E2E2E2
310
E2E2E2E2E2E2E2E2E2E2E2E2E2E2E2E2E2E2E2E2E2E2E2E2E2E2E2E2E2E2E2E2E2E2E2E2E2E2E2E2E2E2E2E2E2E2E2E2E2E2E2E2E2E2E2E2E2E2E2E2E2E2E2E2E2E2E2E2E2E2E2E2E2E2E2E2E2E2E2E2E2E2E2E2E2E2E2E2E2E2E2E2E2E2E2E2E2E2E2E2E2E2E2E2E2E2E2E2E2E2E2E2E2E2E2E2E2E2E2F5F5EFF5E2E2E2E2
310
E2E2E2E2E2E2E2E2E2E2E2E2E2E2E2E2E2E2E2E2E2E2E2E2E2E2E2E2E2E2E2E2E2E2E2E2E2E2E2E2E2E2E2E2E2E2E2E2E2E2E2E2E2E2E2E2E2E2E2E2E2E2E2E2E2E2E2E2E2E2E2E2E2E2E2E2E2E2E2E2E2E2E2E2E2E2E2E2E2E2E2E2E2E2E2E2E2E2E2E2E2E2E2E2E2E2E2E2E2E2E2E2E2E2E2E2E2E2E2E2E2E2E2E2E2E2E2
310
E2E2E2E2E2E2E2E2E2E2E2E2E2E2E2E2E2E2E2E2E2E2E2E2E2E2E2E2E2E2E2E2E2E2E2E2E2E2E2E2E2E2E2E2E2F5F5EFF5E2E2E2E2E2E2E2E2E2E2E2E2E2E2E2E2E2E2E2E2E2E2E2E2E2E2E2E2E2E2E2E2E2E2E2E2E2E2E2E2E2E2E2E2E2E2E2E2E2E2E2E2E2E2E2E2E2E2E2E2E2E2E2E2E2E2E2E2E2E2E2E2E2E2E2E2E2E2
310
E2E2E2E2E2E2E2E2E2E2E2E2E2E2E2E2E2E2E2E2E2E2E2E2E2E2E2E2E2E2E2E2E2E2E2E2E2E2E2E2E2E2E2E2E2E2E2E2E2E2E2E2E2E2E2E2E2E2E2E2E2E2E2E2E2E2E2E2E2E2E2E2E2E2E2E2E2E2E2E2E2E2E2E2E2E2E2E2E2E2E2E2E2E2E2E2E2E2F5F5EFF5E2F5E2E2E2E2E2E2E2E2E2E2E2E2E2E2E2E2E2E2E2E2E2E2E2
310
E2E2E2E2E2E2E2E2E2E2E2E2E2E2E2E2E2E2E2E2E2E2E2E2E2E2E2E2E2E2E2E2E2E2E2E2E2E2E2E2E2E2E2E2E2E2E2E2E2E2E2E2E2E2E2E2E2E2E2E2E2E2E2E2E2E2E2E2E2E2E2E2E2E2E2E2E2E2E2E2E2E2E2E2E2E2E2E2E2E2E2E2E2E2E2E2E2E2E2E2E2E2E2E2E2E2E2E2E2E2E2E2E2E2E2E2E2E2E2E2E2E2E2E2E2E2E2
310
E2E2E2E2E2E2E2E2E2E2E2E2E2E2E2E2E2E2E2E2E2E2F5E2F5F5EFF5E2F5E2E2E2E2E2E2E2E2E2E2E2E2E2E2E2E2E2E2E2E2E2E2E2E2E2E2E2E2E2E2E2E2E2E2E2E2E2E2E2E2E2E2E2E2E2E2E2E2E2E2E2E2E2E2E2E2E2E2E2E2E2E2E2E2E2E2E2E2E2E2E2E2E2E2E2E2E2E2E2E2E2E2E2E2E2E2E2E2E2E2E2E2E2E2E2E2E2
310
E2E2E2E2E2E2E2E2E2E2E2E2E2E2E2E2E2E2E2E2E2E2E2E2E2E2E2E2E2E2E2E2E2E2E2E2E2E2E2E2E2E2E2E2E2E2E2E2E2E2E2E2E2E2E2E2E2E2E2E2E2E2E2E2E2E2E2E2E2E2E2E2E2E2E2F5E2F5F5EFF5E2F5E2E2E2E2E2E2E2E2E2E2E2E2E2E2E2E2E2E2E2E2E2E2E2E2E2E2E2E2E2E2E2E2E2E2E2E2E2E2E2E2E2E2E2E2
310
E2E2E2E2E2E2E2E2E2E2E2E2E2E2E2E2E2E2E2E2E2E2E2E2E2E2E2E2E2E2E2E2E2E2E2E2E2E2E2E2E2E2E2E2E2E2E2E2E2E2E2E2E2E2E2E2E2E2E2E2E2E2E2E2E2E2E2E2E2E2E2E2E2E2E2E2E2E2E2E2E2E2E2E2E2E2E2E2E2E2E2E2E2E2E2E2E2E2E2E2E2E2E2E2E2E2E2E2E2E2E2E2E2E2E2E2E2E2E2E2E2E2E2E2E2E2E2
310
E2F5E2F5F5EFF5E2F5E2E2E2E2E2E2E2E2E2E2E2E2E2E2E2E2E2E2E2E2E2E2E2E2E2E2E2E2E2E2E2E2E2E2E2E2E2E2E2E2E2E2E2E2E2E2E2E2E2E2E2E2E2E2E2E2E2E2E2E2E2E2E2E2E2E2E2E2E2E2E2E2E2E2E2E2E2E2E2E2E2E2E2E2E2E2E2E2E2E2E2E2E2E2E2E2E2E2E2E2E2E2E2E2E2E2E2E2E2E2E2E2E2E2E2E2E2E2
310
E2E2E2E2E2E2E2E2E2E2E2E2E2E2E2E2E2E2E2E2E2E2E2E2E2E2E2E2E2E2E2E2E2E2E2E2E2E2E2E2E2E2E2E2E2E2E2E2E2E2E2E2E2E2F5E2F5F5EFF5E2F5E2E2E2E2E2E2E2E2E2E2E2E2E2E2E2E2E2E2E2E2E2E2E2E2E2E2E2E2E2E2E2E2E2E2E2E2E2E2E2E2E2E2E2E2E2E2E2E2E2E2E2E2E2E2E2E2E2E2E2E2E2E2E2E2E2
310
E2E2E2E2E2E2E2E2E2E2E2E2E2E2E2E2E2E2E2E2E2E2E2E2E2E2E2E2E2E2E2E2E2E2E2E2E2E2E2E2E2E2E2E2E2E2E2E2E2E2E2E2E2E2E2E2E2E2E2E2E2E2E2E2E2E2E2E2E2E2E2E2E2E2E2E2E2E2E2E2E2E2E2E2E2E2E2E2E2E2E2E2E2E2E2E2E2E2E2E2E2E2E2E2E2E2E2F5E2F5F5EFF5E2F5E2E2E2E2E2E2E2E2E2E2E2E2
310
E2E2E2E2E2E2E2E2E2E2E2E2E2E2E2E2E2E2E2E2E2E2E2E2E2E2E2E2E2E2E2E2E2E2E2E2E2E2E2E2E2E2E2E2E2E2E2E2E2E2E2E2E2E2E2E2E2E2E2E2E2E2E2E2E2E2E2E2E2E2E2E2E2E2E2E2E2E2E2E2E2E2E2E2E2E2E2E2E2E2E2E2E2E2E2E2E2E2E2E2E2E2E2E2E2E2E2E2E2E2E2E2E2E2E2E2E2E2E2E2E2E2E2E2E2E2E2
310
E2E2E2E2E2E2E2E2E2E2E2E2E2E2E2E2E2E2E2E2E2E2E2E2E2E2E2E2E2E2E2E2E2F5E2F5F5EFF5E2F5E2E2E2E2E2E2E2E2E2E2E2E2E2E2E2E2E2E2E2E2E2E2E2E2E2E2E2E2E2E2E2E2E2E2E2E2E2E2E2E2E2E2E2E2E2E2E2E2E2E2E2E2E2E2E2E2E2E2E2E2E2E2E2E2E2E2E2E2E2E2E2E2E2E2E2E2E2E2E2E2E2E2E2E2E2E2
310
E2E2E2E2E2E2E2E2E2E2E2E2E2E2E2E2E2E2E2E2E2E2E2E2E2E2E2E2E2E2E2E2E2E2E2E2E2E2E2E2E2E2E2E2E2E2E2E2E2E2E2E2E2E2E2E2E2E2E2E2E2E2E2E2E2E2E2E2E2E2E2E2E2E2E2E2E2E2E2E2E2E2E2E2E2E2F5E2F5F5EFF5E2F5F5F5F5F5F5F5F5E2E2E2E2E2E2E2E2E2F5F5F5F5F5F5F5F5F5F5F5F5F5F5F5F5E2
310
E2E2E2E2E2E2E2E2F5F5F5F5F5F5F5F5F5F5F5F5F5F5F5F5E2E2E2E2E2E2E2E2E2F5F5F5F5F5F5F5F5F5F5F5F5F5F5F5F5E2E2E2E2E2E2E2E2F5F5F5F5F5F5F5F5F5F5F5F5F5F5F5F5E2E2E2E2E2E2E2E2E2F5F5F5F5F5F5F5F5F5F5F5F5F5F5F5F5E2E2E2E2E2E2E2E2E2F5F5F5F5F5F5F5F5F5F5F5F5F5F5F5F5E2E2E2E2
310
E2E2E2E2E2F5F5F5F5F5F5F5F5E2F5F5EFF5E2E2E2E2E2E2E2E2E2E2E2E2E2E2E2E2E2E2E2E2E2E2E2E2E2E2E2E2E2E2E2E2E2E2E2E2E2E2E2E2E2E2E2E2E2E2E2E2E2E2E2E2E2E2E2E2E2E2E2E2E2E2E2E2E2E2E2E2E2E2E2E2E2E2E2E2E2E2E2E2E2E2E2E2E2E2E2E2E2E2E2E2E2E2E2E2E2E2E2E2E2E2E2E2E2E2E2E2E2
310
E2E2E2E2E2E2E2E2E2E2E2E2E2E2E2E2E2E2E2E2E2E2E2E2E2E2E2E2E2E2E2E2E2E2E2E2E2E2E2E2E2E2E2E2E2E2E2E2E2E2E2E2E2E2E2E2E2E2E2E2E2E2E2E2E2E2E2F5F5EFF5E2E2E2E2E2E2E2E2E2E2E2E2E2E2E2E2E2E2E2E2E2E2E2E2E2E2E2E2E2E2E2E2E2E2E2E2E2E2E2E2E2E2E2E2E2E2E2E2E2E2E2E2E2E2E2E2
310
E2E2E2E2E2E2E2E2E2E2E2E2E2E2E2E2E2E2E2E2E2E2E2E2E2E2E2E2E2E2E2E2E2E2E2E2E2E2E2E2E2E2E2E2E2E2E2E2E2E2E2E2E2E2E2E2E2E2E2E2E2E2E2E2E2E2E2E2E2E2E2E2E2E2E2E2E2E2E2E2E2E2E2E2E2E2E2E2E2E2E2E2E2E2E2E2E2E2E2E2E2E2E2E2E2E2E2E2E2E2E2E2E2E2E2E2E2E2E2E2F5EFEFF5F5F5F5
310
F5F5F5F5F5F5F5F5F5F5F5F5F5F5F5F5F5F5F5F5F5F5F5F5F5F5F5F5F5F5F5F5F5F5F5F5F5F5F5F5F5F5F5F5F5F5F5F5F5F5F5F5F5F5F5F5F5F5F5F5F5F5F5F5F5F5F5F5F5F5F5F5F5F5F5F5F5F5F5F5F5F5F5F5F5F5F5F5F5F5F5F5F5F5F5F5F5F5F5F5F5F5F5F5F5F5F5F5F5F5F5F5F5F5F5F5F5F5F5F5F5F5F5F5F5F5F5
310
F5F5F5F5F5F5F5F5F5F5F5F5F5F5F5F5F5F5F5F5F5F5F5F5F5F5F5F5F5F5F5F5F5F5F5F5F5F5F5F5F5F5F5F5F5F5F5EF
  0
ENDSEC
  0
EOF
