  0
SECTION
  2
HEADER
  9
$ACADVER
  1
AC1009
  9
$DWGCODEPAGE
  3
dos932
  9
$INSBASE
 10
0.0
 20
0.0
 30
0.0
  9
$EXTMIN
 10
-194.25
 20
-133.5
 30
0.0
  9
$EXTMAX
 10
194.80000305
 20
132.6000061
 30
0.0
  9
$LIMMIN
 10
-210.0
 20
-148.5
  9
$LIMMAX
 10
210.0
 20
148.5
  9
$ORTHOMODE
 70
       0
  9
$REGENMODE
 70
       1
  9
$FILLMODE
 70
       1
  9
$QTEXTMODE
 70
       0
  9
$MIRRTEXT
 70
       1
  9
$DRAGMODE
 70
       2
  9
$LTSCALE
 40
1.0
  9
$OSMODE
 70
       0
  9
$ATTMODE
 70
       1
  9
$TEXTSIZE
 40
3.20000005
  9
$TRACEWID
 40
0.05
  9
$TEXTSTYLE
  7
MX_NOTE_STANDARD
  9
$CLAYER
  8
0
  9
$CELTYPE
  6
CONTINUOUS
  9
$CECOLOR
 62
     256
  9
$DIMSCALE
 40
1.0
  9
$DIMASZ
 40
2.5
  9
$DIMEXO
 40
1.5
  9
$DIMDLI
 40
3.75
  9
$DIMRND
 40
0.0
  9
$DIMDLE
 40
0.0
  9
$DIMEXE
 40
1.5
  9
$DIMTP
 40
0.0
  9
$DIMTM
 40
0.0
  9
$DIMTXT
 40
3.20000005
  9
$DIMCEN
 40
2.5
  9
$DIMTSZ
 40
0.0
  9
$DIMTOL
 70
       0
  9
$DIMLIM
 70
       0
  9
$DIMTIH
 70
       0
  9
$DIMTOH
 70
       0
  9
$DIMSE1
 70
       0
  9
$DIMSE2
 70
       0
  9
$DIMTAD
 70
       1
  9
$DIMZIN
 70
       8
  9
$DIMBLK
  1

  9
$DIMASO
 70
       1
  9
$DIMSHO
 70
       1
  9
$DIMPOST
  1

  9
$DIMAPOST
  1

  9
$DIMALT
 70
       0
  9
$DIMALTD
 70
       4
  9
$DIMALTF
 40
0.03937008
  9
$DIMLFAC
 40
1.0
  9
$DIMTOFL
 70
       1
  9
$DIMTVP
 40
0.0
  9
$DIMTIX
 70
       0
  9
$DIMSOXD
 70
       0
  9
$DIMSAH
 70
       1
  9
$DIMBLK1
  1
_OPEN30
  9
$DIMBLK2
  1
_OPEN30
  9
$DIMSTYLE
  2
MXDIMSTYLE
  9
$DIMCLRD
 70
       0
  9
$DIMCLRE
 70
       0
  9
$DIMCLRT
 70
       0
  9
$DIMTFAC
 40
1.0
  9
$DIMGAP
 40
1.0
  9
$LUNITS
 70
       2
  9
$LUPREC
 70
       4
  9
$AXISMODE
 70
       0
  9
$AXISUNIT
 10
0.0
 20
0.0
  9
$SKETCHINC
 40
0.1
  9
$FILLETRAD
 40
0.0
  9
$AUNITS
 70
       0
  9
$AUPREC
 70
       0
  9
$MENU
  1
acad
  9
$ELEVATION
 40
0.0
  9
$PELEVATION
 40
0.0
  9
$THICKNESS
 40
0.0
  9
$LIMCHECK
 70
       0
  9
$BLIPMODE
 70
       1
  9
$CHAMFERA
 40
0.0
  9
$CHAMFERB
 40
0.0
  9
$SKPOLY
 70
       0
  9
$TDCREATE
 40
2453819.463379629
  9
$TDUPDATE
 40
2453819.463379629
  9
$TDINDWG
 40
0.0000000000
  9
$TDUSRTIMER
 40
0.0000000000
  9
$USRTIMER
 70
       1
  9
$ANGBASE
 50
0.0
  9
$ANGDIR
 70
       0
  9
$PDMODE
 70
       0
  9
$PDSIZE
 40
0.0
  9
$PLINEWID
 40
0.0
  9
$COORDS
 70
       1
  9
$SPLFRAME
 70
       0
  9
$SPLINETYPE
 70
       6
  9
$SPLINESEGS
 70
       8
  9
$ATTDIA
 70
       0
  9
$ATTREQ
 70
       1
  9
$HANDLING
 70
       1
  9
$HANDSEED
  5
1B9
  9
$SURFTAB1
 70
       6
  9
$SURFTAB2
 70
       6
  9
$SURFTYPE
 70
       6
  9
$SURFU
 70
       6
  9
$SURFV
 70
       6
  9
$UCSNAME
  2

  9
$UCSORG
 10
0.0
 20
0.0
 30
0.0
  9
$UCSXDIR
 10
1.0
 20
0.0
 30
0.0
  9
$UCSYDIR
 10
0.0
 20
1.0
 30
0.0
  9
$PUCSNAME
  2

  9
$PUCSORG
 10
0.0
 20
0.0
 30
0.0
  9
$PUCSXDIR
 10
1.0
 20
0.0
 30
0.0
  9
$PUCSYDIR
 10
0.0
 20
1.0
 30
0.0
  9
$USERI1
 70
       0
  9
$USERI2
 70
       0
  9
$USERI3
 70
       0
  9
$USERI4
 70
       0
  9
$USERI5
 70
       0
  9
$USERR1
 40
0.0
  9
$USERR2
 40
0.0
  9
$USERR3
 40
0.0
  9
$USERR4
 40
0.0
  9
$USERR5
 40
0.0
  9
$WORLDVIEW
 70
       1
  9
$SHADEDGE
 70
       3
  9
$SHADEDIF
 70
      70
  9
$TILEMODE
 70
       1
  9
$MAXACTVP
 70
      16
  9
$PINSBASE
 10
0.0
 20
0.0
 30
0.0
  9
$PLIMCHECK
 70
       0
  9
$PEXTMIN
 10
1.00000000E+20
 20
1.00000000E+20
 30
1.00000000E+20
  9
$PEXTMAX
 10
-1.00000000E+20
 20
-1.00000000E+20
 30
-1.00000000E+20
  9
$PLIMMIN
 10
0.0
 20
0.0
  9
$PLIMMAX
 10
12.0
 20
9.0
  9
$UNITMODE
 70
       0
  9
$VISRETAIN
 70
       0
  9
$PLINEGEN
 70
       1
  9
$PSLTSCALE
 70
       0
  9
$TREEDEPTH
 70
    3020
  0
ENDSEC
  0
SECTION
  2
TABLES
  0
TABLE
  2
VPORT
 70
       1
  0
VPORT
  2
*ACTIVE
 70
       0
 10
0.0
 20
0.0
 11
1.0
 21
1.0
 12
0.0
 22
0.0
 13
0.0
 23
0.0
 14
1.0
 24
1.0
 15
0.0
 25
0.0
 16
0.0
 26
0.0
 36
1.0
 17
0.0
 27
0.0
 37
0.0
 40
299.97
 41
1.73205081
 42
50.0
 43
0.0
 44
0.0
 50
0.0
 51
0.0
 71
       0
 72
     100
 73
       1
 74
       1
 75
       0
 76
       0
 77
       0
 78
       0
  0
ENDTAB
  0
TABLE
  2
LTYPE
 70
       1
  0
LTYPE
  2
CONTINUOUS
 70
      64
  3
Solid line
 72
      65
 73
       0
 40
0.0
  0
ENDTAB
  0
TABLE
  2
LAYER
 70
       2
  0
LAYER
  2
0
 70
       0
 62
       7
  6
CONTINUOUS
  0
LAYER
  2
DEFPOINTS
 70
       0
 62
       7
  6
CONTINUOUS
  0
ENDTAB
  0
TABLE
  2
STYLE
 70
       1
  0
STYLE
  2
MX_NOTE_STANDARD
 70
       0
 40
0.0
 41
1.0
 50
0.0
 71
       0
 42
3.20000005
  3
txt.shx
  4
extfont.shx
  0
ENDTAB
  0
TABLE
  2
VIEW
 70
       0
  0
ENDTAB
  0
TABLE
  2
UCS
 70
       0
  0
ENDTAB
  0
TABLE
  2
APPID
 70
       1
  0
APPID
  2
ACAD
 70
       0
  0
ENDTAB
  0
TABLE
  2
DIMSTYLE
 70
       1
  0
DIMSTYLE
  2
MXDIMSTYLE
 70
       0
  3

  4

  5

  6
_OPEN30
  7
_OPEN30
 40
1.0
 41
2.5
 42
1.5
 43
3.75
 44
1.5
 45
0.0
 46
0.0
 47
0.0
 48
0.0
 71
       0
 72
       0
 73
       0
 74
       0
 75
       0
 76
       0
 77
       1
 78
       8
140
3.20000005
141
2.5
142
0.0
143
0.03937008
144
1.0
145
0.0
146
1.0
147
1.0
170
       0
171
       4
172
       1
173
       1
174
       0
175
       0
176
       0
177
       0
178
       0
  0
ENDTAB
  0
ENDSEC
  0
SECTION
  2
BLOCKS
  0
BLOCK
  8
0
  6
BYBLOCK
 62
       0
  5
1F
  2
_OPEN30
 70
       2
 10
0.0
 20
0.0
 30
0.0
  3
_OPEN30
  0
LINE
  8
0
  6
BYBLOCK
 62
       0
  5
20
 10
-1.0
 20
0.267949
 30
0.0
 11
0.0
 21
0.0
 31
0.0
  0
LINE
  8
0
  6
BYBLOCK
 62
       0
  5
21
 10
0.0
 20
0.0
 30
0.0
 11
-1.0
 21
-0.267949
 31
0.0
  0
LINE
  8
0
  6
BYBLOCK
 62
       0
  5
22
 10
0.0
 20
0.0
 30
0.0
 11
-1.0
 21
0.0
 31
0.0
  0
ENDBLK
  8
0
  6
BYBLOCK
 62
       0
  5
23
  0
ENDSEC
  0
SECTION
  2
ENTITIES
  0
CIRCLE
  8
0
  6
CONTINUOUS
 62
     254
  5
24
 10
87.49878892
 20
23.05848727
 30
0.0
 40
2.2
  0
CIRCLE
  8
0
  6
CONTINUOUS
 62
     254
  5
25
 10
108.49878884
 20
33.05848723
 30
0.0
 40
2.2
  0
CIRCLE
  8
0
  6
CONTINUOUS
 62
     254
  5
26
 10
-81.50121116
 20
23.45848727
 30
0.0
 40
2.2
  0
ARC
  8
0
  6
CONTINUOUS
 62
     254
  5
27
 10
-81.50121116
 20
23.45848727
 30
0.0
 40
4.0
 50
41.40962237
 51
318.59037713
  0
CIRCLE
  8
0
  6
CONTINUOUS
 62
     254
  5
28
 10
-102.50121108
 20
33.45848723
 30
0.0
 40
2.2
  0
ARC
  8
0
  6
CONTINUOUS
 62
     254
  5
29
 10
-102.50121108
 20
33.45848723
 30
0.0
 40
4.0
 50
221.40962287
 51
138.59037763
  0
CIRCLE
  8
0
  6
CONTINUOUS
 62
     254
  5
2A
 10
97.99878888
 20
28.25848725
 30
0.0
 40
4.3
  0
CIRCLE
  8
0
  6
CONTINUOUS
 62
     116
  5
2B
 10
97.99878888
 20
28.25848725
 30
0.0
 40
4.875
  0
CIRCLE
  8
0
  6
CONTINUOUS
 62
     254
  5
2C
 10
-92.00121112
 20
19.65848728
 30
0.0
 40
4.3
  0
CIRCLE
  8
0
  6
CONTINUOUS
 62
     116
  5
2D
 10
-92.00121112
 20
19.65848728
 30
0.0
 40
4.875
  0
POLYLINE
  8
0
  6
CONTINUOUS
 62
       7
  5
2E
 66
       1
 10
0.0
 20
0.0
 30
0.0
  0
VERTEX
  8
0
  6
CONTINUOUS
 62
       7
  5
17C
 10
10.99878888
 20
-85.70912343
 30
0.0
  0
VERTEX
  8
0
  6
CONTINUOUS
 62
       7
  5
17D
 10
26.47415767
 20
-104.31111217
 30
0.0
  0
VERTEX
  8
0
  6
CONTINUOUS
 62
       7
  5
17E
 10
37.16141162
 20
-104.31111217
 30
0.0
  0
SEQEND
  8
0
  6
CONTINUOUS
 62
       7
  5
17F
  0
INSERT
  8
0
  6
CONTINUOUS
 62
       7
  5
2F
  2
_OPEN30
 10
10.99878888
 20
-85.70912343
 30
0.0
 41
2.77
 42
2.77
 50
129.75775176
 43
2.77
  0
TEXT
  8
0
  6
CONTINUOUS
 62
       7
  5
30
 10
28.72391161
 20
-102.31111229
 30
0.0
 40
3.20000005
  1
-21
 41
1.05468748
  7
MX_NOTE_STANDARD
 11
28.72391161
 21
-100.71111226
 31
0.0
 73
       2
  0
LINE
  8
0
  6
CONTINUOUS
 62
     116
  5
31
 10
28.38401806
 20
-73.86817614
 30
0.0
 11
32.55695961
 21
-69.69523459
 31
0.0
  0
LINE
  8
0
  6
CONTINUOUS
 62
     116
  5
32
 10
26.88401806
 20
-73.86817614
 30
0.0
 11
31.05695961
 21
-69.69523459
 31
0.0
  0
LINE
  8
0
  6
CONTINUOUS
 62
     116
  5
33
 10
28.38401806
 20
-69.86817616
 30
0.0
 11
32.55695961
 21
-65.6952346
 31
0.0
  0
LINE
  8
0
  6
CONTINUOUS
 62
     116
  5
34
 10
26.88401806
 20
-69.86817616
 30
0.0
 11
31.05695961
 21
-65.6952346
 31
0.0
  0
LINE
  8
0
  6
CONTINUOUS
 62
     116
  5
35
 10
28.38401806
 20
65.13182369
 30
0.0
 11
32.55695961
 21
69.30476525
 31
0.0
  0
LINE
  8
0
  6
CONTINUOUS
 62
     116
  5
36
 10
26.88401806
 20
65.13182369
 30
0.0
 11
31.05695961
 21
69.30476525
 31
0.0
  0
LINE
  8
0
  6
CONTINUOUS
 62
     116
  5
37
 10
-12.41542468
 20
-80.15572631
 30
0.0
 11
-9.58699756
 21
-77.32729919
 31
0.0
  0
LINE
  8
0
  6
CONTINUOUS
 62
     116
  5
38
 10
-9.58699756
 20
-80.15572631
 30
0.0
 11
-12.41542468
 21
-77.32729919
 31
0.0
  0
LINE
  8
0
  6
CONTINUOUS
 62
     116
  5
39
 10
8.41300244
 20
-62.15572631
 30
0.0
 11
5.58457532
 21
-59.32729919
 31
0.0
  0
LINE
  8
0
  6
CONTINUOUS
 62
     116
  5
3A
 10
5.58457532
 20
-62.15572631
 30
0.0
 11
8.41300244
 21
-59.32729919
 31
0.0
  0
ARC
  8
0
  6
CONTINUOUS
 62
     254
  5
3B
 10
20.50293441
 20
-79.24565833
 30
0.0
 40
1.49586012
 50
269.8412105
 51
0.1587895
  0
ARC
  8
0
  6
CONTINUOUS
 62
     254
  5
3C
 10
20.50293983
 20
-60.23736175
 30
0.0
 40
1.49585471
 50
359.84100235
 51
90.15899765
  0
ARC
  8
0
  6
CONTINUOUS
 62
     254
  5
3D
 10
-14.69705345
 20
-82.43735509
 30
0.0
 40
0.80416836
 50
180.29622506
 51
247.77613796
  0
ARC
  8
0
  6
CONTINUOUS
 62
     254
  5
3E
 10
-14.69704618
 20
-57.04567769
 30
0.0
 40
0.80417567
 50
112.22420903
 51
179.7032594
  0
ARC
  8
0
  6
CONTINUOUS
 62
     254
  5
3F
 10
10.70292924
 20
-57.03737239
 30
0.0
 40
0.79587036
 50
359.70192509
 51
68.17681554
  0
ARC
  8
0
  6
CONTINUOUS
 62
     254
  5
40
 10
10.70292381
 20
-82.44564768
 30
0.0
 40
0.79587576
 50
291.82344994
 51
0.29768181
  0
LINE
  8
0
  6
CONTINUOUS
 62
     254
  5
41
 10
12.99878882
 20
-81.7415127
 30
0.0
 11
12.99878882
 21
-57.7415128
 31
0.0
  0
LINE
  8
0
  6
CONTINUOUS
 62
     254
  5
42
 10
12.99878882
 20
-81.7415127
 30
0.0
 11
11.49878883
 21
-81.7415127
 31
0.0
  0
LINE
  8
0
  6
CONTINUOUS
 62
     254
  5
43
 10
12.99878882
 20
-57.7415128
 30
0.0
 11
11.49878883
 21
-57.7415128
 31
0.0
  0
LINE
  8
0
  6
CONTINUOUS
 62
     254
  5
44
 10
23.49878878
 20
-75.24151273
 30
0.0
 11
21.99878879
 21
-75.24151273
 31
0.0
  0
LINE
  8
0
  6
CONTINUOUS
 62
     254
  5
45
 10
23.49878878
 20
-64.24151277
 30
0.0
 11
21.99878879
 21
-64.24151277
 31
0.0
  0
LINE
  8
0
  6
CONTINUOUS
 62
     254
  5
46
 10
30.01068145
 20
-66.74151276
 30
0.0
 11
23.49878878
 21
-66.74151276
 31
0.0
  0
LINE
  8
0
  6
CONTINUOUS
 62
     254
  5
47
 10
27.99878876
 20
-68.74151275
 30
0.0
 11
23.49878878
 21
-68.74151275
 31
0.0
  0
LINE
  8
0
  6
CONTINUOUS
 62
     254
  5
48
 10
43.2987887
 20
-67.24151276
 30
0.0
 11
43.2987887
 21
-68.24151276
 31
0.0
  0
LINE
  8
0
  6
CONTINUOUS
 62
     254
  5
49
 10
38.29878872
 20
-66.74151276
 30
0.0
 11
38.29878872
 21
-68.74151275
 31
0.0
  0
LINE
  8
0
  6
CONTINUOUS
 62
     254
  5
4A
 10
43.2987887
 20
-67.24151276
 30
0.0
 11
38.29878872
 21
-67.24151276
 31
0.0
  0
LINE
  8
0
  6
CONTINUOUS
 62
     254
  5
4B
 10
43.2987887
 20
-68.24151276
 30
0.0
 11
38.29878872
 21
-68.24151276
 31
0.0
  0
LINE
  8
0
  6
CONTINUOUS
 62
     254
  5
4C
 10
38.29878872
 20
-68.74151275
 30
0.0
 11
29.51068146
 21
-68.74151275
 31
0.0
  0
LINE
  8
0
  6
CONTINUOUS
 62
     254
  5
4D
 10
38.29878872
 20
-66.74151276
 30
0.0
 11
31.51068145
 21
-66.74151276
 31
0.0
  0
LINE
  8
0
  6
CONTINUOUS
 62
     116
  5
4E
 10
44.2987887
 20
-67.74151276
 30
0.0
 11
20.63212212
 21
-67.74151276
 31
0.0
  0
LINE
  8
0
  6
CONTINUOUS
 62
     254
  5
4F
 10
30.01068145
 20
-70.74151275
 30
0.0
 11
23.49878878
 21
-70.74151275
 31
0.0
  0
LINE
  8
0
  6
CONTINUOUS
 62
     254
  5
50
 10
28.01068146
 20
-72.74151274
 30
0.0
 11
23.49878878
 21
-72.74151274
 31
0.0
  0
LINE
  8
0
  6
CONTINUOUS
 62
     254
  5
51
 10
43.2987887
 20
-71.24151274
 30
0.0
 11
43.2987887
 21
-72.24151274
 31
0.0
  0
LINE
  8
0
  6
CONTINUOUS
 62
     254
  5
52
 10
38.29878872
 20
-70.74151275
 30
0.0
 11
38.29878872
 21
-72.74151274
 31
0.0
  0
LINE
  8
0
  6
CONTINUOUS
 62
     254
  5
53
 10
43.2987887
 20
-71.24151274
 30
0.0
 11
38.29878872
 21
-71.24151274
 31
0.0
  0
LINE
  8
0
  6
CONTINUOUS
 62
     254
  5
54
 10
43.2987887
 20
-72.24151274
 30
0.0
 11
38.29878872
 21
-72.24151274
 31
0.0
  0
LINE
  8
0
  6
CONTINUOUS
 62
     254
  5
55
 10
38.29878872
 20
-72.74151274
 30
0.0
 11
29.51068146
 21
-72.74151274
 31
0.0
  0
LINE
  8
0
  6
CONTINUOUS
 62
     254
  5
56
 10
38.29878872
 20
-70.74151275
 30
0.0
 11
31.51068145
 21
-70.74151275
 31
0.0
  0
LINE
  8
0
  6
CONTINUOUS
 62
     254
  5
57
 10
23.49878878
 20
-75.24151273
 30
0.0
 11
23.49878878
 21
-64.24151277
 31
0.0
  0
LINE
  8
0
  6
CONTINUOUS
 62
     254
  5
58
 10
20.49878879
 20
-80.74151271
 30
0.0
 11
12.99878882
 21
-80.74151271
 31
0.0
  0
LINE
  8
0
  6
CONTINUOUS
 62
     254
  5
59
 10
20.49878879
 20
-58.74151279
 30
0.0
 11
12.99878882
 21
-58.74151279
 31
0.0
  0
LINE
  8
0
  6
CONTINUOUS
 62
     254
  5
5A
 10
21.99878879
 20
-79.24151271
 30
0.0
 11
21.99878879
 21
-60.24151279
 31
0.0
  0
LINE
  8
0
  6
CONTINUOUS
 62
     254
  5
5B
 10
-15.50121106
 20
-82.4415127
 30
0.0
 11
-15.50121106
 21
-57.0415128
 31
0.0
  0
LINE
  8
0
  6
CONTINUOUS
 62
     116
  5
5C
 10
26.49878878
 20
-69.74151275
 30
0.0
 11
-18.50121106
 21
-69.74151275
 31
0.0
  0
LINE
  8
0
  6
CONTINUOUS
 62
     254
  5
5D
 10
11.49878883
 20
-82.4415127
 30
0.0
 11
11.49878883
 21
-57.0415128
 31
0.0
  0
LINE
  8
0
  6
CONTINUOUS
 62
     116
  5
5E
 10
44.2987887
 20
-71.74151274
 30
0.0
 11
20.63212212
 21
-71.74151274
 31
0.0
  0
LINE
  8
0
  6
CONTINUOUS
 62
     116
  5
5F
 10
-14.35983412
 20
-84.74151275
 30
0.0
 11
10.35741188
 21
-84.74151275
 31
0.0
  0
LINE
  8
0
  6
CONTINUOUS
 62
     116
  5
60
 10
-14.35983412
 20
-54.74151275
 30
0.0
 11
10.35741188
 21
-54.74151275
 31
0.0
  0
CIRCLE
  8
0
  6
CONTINUOUS
 62
     254
  5
61
 10
-11.00121112
 20
-60.74151275
 30
0.0
 40
2.25
  0
LINE
  8
0
  6
CONTINUOUS
 62
     116
  5
62
 10
-11.00121112
 20
-57.49151275
 30
0.0
 11
-11.00121112
 21
-63.99151275
 31
0.0
  0
LINE
  8
0
  6
CONTINUOUS
 62
     116
  5
63
 10
-7.75121112
 20
-60.74151275
 30
0.0
 11
-14.25121112
 21
-60.74151275
 31
0.0
  0
CIRCLE
  8
0
  6
CONTINUOUS
 62
     254
  5
64
 10
6.99878888
 20
-78.74151275
 30
0.0
 40
2.25
  0
LINE
  8
0
  6
CONTINUOUS
 62
     116
  5
65
 10
6.99878888
 20
-81.99151275
 30
0.0
 11
6.99878888
 21
-75.49151275
 31
0.0
  0
LINE
  8
0
  6
CONTINUOUS
 62
     116
  5
66
 10
3.74878888
 20
-78.74151275
 30
0.0
 11
10.24878888
 21
-78.74151275
 31
0.0
  0
LINE
  8
0
  6
CONTINUOUS
 62
     116
  5
67
 10
-2.00121112
 20
-42.74151275
 30
0.0
 11
-2.00121112
 21
-96.74151275
 31
0.0
  0
LINE
  8
0
  6
CONTINUOUS
 62
     116
  5
68
 10
-5.05755699
 20
-89.74151275
 30
0.0
 11
1.04416841
 21
-89.74151275
 31
0.0
  0
LINE
  8
0
  6
CONTINUOUS
 62
     116
  5
69
 10
-5.05755699
 20
-88.74151275
 30
0.0
 11
1.04416841
 21
-88.74151275
 31
0.0
  0
LINE
  8
0
  6
CONTINUOUS
 62
     254
  5
6A
 10
0.24878888
 20
-89.74151275
 30
0.0
 11
0.24878888
 21
-88.74151275
 31
0.0
  0
LINE
  8
0
  6
CONTINUOUS
 62
     254
  5
6B
 10
-4.25121112
 20
-89.74151275
 30
0.0
 11
-4.25121112
 21
-88.74151275
 31
0.0
  0
ARC
  8
0
  6
CONTINUOUS
 62
     254
  5
6C
 10
-2.00121112
 20
-89.74151275
 30
0.0
 40
2.25
 50
180.0
 51
270.0
  0
ARC
  8
0
  6
CONTINUOUS
 62
     254
  5
6D
 10
-2.00121112
 20
-89.74151275
 30
0.0
 40
2.25
 50
270.0
 51
0.0
  0
ARC
  8
0
  6
CONTINUOUS
 62
     254
  5
6E
 10
-2.00121112
 20
-88.74151275
 30
0.0
 40
2.25
 50
0.0
 51
90.0
  0
ARC
  8
0
  6
CONTINUOUS
 62
     254
  5
6F
 10
-2.00121112
 20
-88.74151275
 30
0.0
 40
2.25
 50
90.0
 51
180.0
  0
ARC
  8
0
  6
CONTINUOUS
 62
     254
  5
70
 10
-2.00121112
 20
-50.74151275
 30
0.0
 40
2.25
 50
180.0
 51
270.0
  0
ARC
  8
0
  6
CONTINUOUS
 62
     254
  5
71
 10
-2.00121112
 20
-50.74151275
 30
0.0
 40
2.25
 50
270.0
 51
0.0
  0
ARC
  8
0
  6
CONTINUOUS
 62
     254
  5
72
 10
-2.00121112
 20
-49.74151275
 30
0.0
 40
2.25
 50
0.0
 51
90.0
  0
ARC
  8
0
  6
CONTINUOUS
 62
     254
  5
73
 10
-2.00121112
 20
-49.74151275
 30
0.0
 40
2.25
 50
90.0
 51
180.0
  0
LINE
  8
0
  6
CONTINUOUS
 62
     254
  5
74
 10
-4.25121112
 20
-49.74151275
 30
0.0
 11
-4.25121112
 21
-50.74151275
 31
0.0
  0
LINE
  8
0
  6
CONTINUOUS
 62
     254
  5
75
 10
0.24878888
 20
-49.74151275
 30
0.0
 11
0.24878888
 21
-50.74151275
 31
0.0
  0
LINE
  8
0
  6
CONTINUOUS
 62
     116
  5
76
 10
-5.05755699
 20
-50.74151275
 30
0.0
 11
1.04416841
 21
-50.74151275
 31
0.0
  0
LINE
  8
0
  6
CONTINUOUS
 62
     116
  5
77
 10
-5.05755699
 20
-49.74151275
 30
0.0
 11
1.04416841
 21
-49.74151275
 31
0.0
  0
LINE
  8
0
  6
CONTINUOUS
 62
     254
  5
78
 10
4.99878888
 20
-93.74151275
 30
0.0
 11
10.99878888
 21
-87.74151275
 31
0.0
  0
LINE
  8
0
  6
CONTINUOUS
 62
     254
  5
79
 10
4.99878888
 20
-45.74151275
 30
0.0
 11
10.99878888
 21
-51.74151275
 31
0.0
  0
LINE
  8
0
  6
CONTINUOUS
 62
     254
  5
7A
 10
10.99878888
 20
-51.74151275
 30
0.0
 11
10.99878888
 21
-87.74151275
 31
0.0
  0
LINE
  8
0
  6
CONTINUOUS
 62
     254
  5
7B
 10
-9.00121112
 20
-93.74151275
 30
0.0
 11
-15.00121112
 21
-87.74151275
 31
0.0
  0
LINE
  8
0
  6
CONTINUOUS
 62
     254
  5
7C
 10
-9.00121112
 20
-93.74151275
 30
0.0
 11
4.99878888
 21
-93.74151275
 31
0.0
  0
LINE
  8
0
  6
CONTINUOUS
 62
     254
  5
7D
 10
-9.00121112
 20
-45.74151275
 30
0.0
 11
-15.00121112
 21
-51.74151275
 31
0.0
  0
LINE
  8
0
  6
CONTINUOUS
 62
     254
  5
7E
 10
-15.00121112
 20
-51.74151275
 30
0.0
 11
-15.00121112
 21
-87.74151275
 31
0.0
  0
LINE
  8
0
  6
CONTINUOUS
 62
     254
  5
7F
 10
-9.00121112
 20
-45.74151275
 30
0.0
 11
4.99878888
 21
-45.74151275
 31
0.0
  0
LINE
  8
0
  6
CONTINUOUS
 62
     116
  5
80
 10
6.99878888
 20
-66.36547079
 30
0.0
 11
6.99878888
 21
-55.13630412
 31
0.0
  0
CIRCLE
  8
0
  6
CONTINUOUS
 62
     254
  5
81
 10
6.99878888
 20
-60.74151275
 30
0.0
 40
3.5
  0
LINE
  8
0
  6
CONTINUOUS
 62
     116
  5
82
 10
12.84774721
 20
-60.74151275
 30
0.0
 11
1.31233055
 21
-60.74151275
 31
0.0
  0
LINE
  8
0
  6
CONTINUOUS
 62
     116
  5
83
 10
-11.00121112
 20
-84.36547079
 30
0.0
 11
-11.00121112
 21
-73.13630412
 31
0.0
  0
CIRCLE
  8
0
  6
CONTINUOUS
 62
     254
  5
84
 10
-11.00121112
 20
-78.74151275
 30
0.0
 40
3.5
  0
LINE
  8
0
  6
CONTINUOUS
 62
     116
  5
85
 10
-5.15225279
 20
-78.74151275
 30
0.0
 11
-16.68766945
 21
-78.74151275
 31
0.0
  0
POLYLINE
  8
0
  6
CONTINUOUS
 62
     254
  5
86
 66
       1
 10
0.0
 20
0.0
 30
0.0
  0
VERTEX
  8
0
  6
CONTINUOUS
 62
     254
  5
180
 10
-5.15121111
 20
5.95848734
 30
0.0
  0
VERTEX
  8
0
  6
CONTINUOUS
 62
     254
  5
181
 10
-5.0814294
 20
5.24777262
 30
0.0
  0
VERTEX
  8
0
  6
CONTINUOUS
 62
     254
  5
182
 10
-4.83454444
 20
4.59182068
 30
0.0
  0
VERTEX
  8
0
  6
CONTINUOUS
 62
     254
  5
183
 10
-4.31504889
 20
4.05066682
 30
0.0
  0
VERTEX
  8
0
  6
CONTINUOUS
 62
     254
  5
184
 10
-3.60389821
 20
3.69463873
 30
0.0
  0
VERTEX
  8
0
  6
CONTINUOUS
 62
     254
  5
185
 10
-2.79973732
 20
3.50386829
 30
0.0
  0
VERTEX
  8
0
  6
CONTINUOUS
 62
     254
  5
186
 10
-2.00121112
 20
3.45848735
 30
0.0
  0
SEQEND
  8
0
  6
CONTINUOUS
 62
     254
  5
187
  0
POLYLINE
  8
0
  6
CONTINUOUS
 62
     254
  5
87
 66
       1
 10
0.0
 20
0.0
 30
0.0
  0
VERTEX
  8
0
  6
CONTINUOUS
 62
     254
  5
188
 10
1.14878887
 20
5.95848734
 30
0.0
  0
VERTEX
  8
0
  6
CONTINUOUS
 62
     254
  5
189
 10
1.07900716
 20
5.24777262
 30
0.0
  0
VERTEX
  8
0
  6
CONTINUOUS
 62
     254
  5
18A
 10
0.8321222
 20
4.59182068
 30
0.0
  0
VERTEX
  8
0
  6
CONTINUOUS
 62
     254
  5
18B
 10
0.31262665
 20
4.05066682
 30
0.0
  0
VERTEX
  8
0
  6
CONTINUOUS
 62
     254
  5
18C
 10
-0.39852403
 20
3.69463873
 30
0.0
  0
VERTEX
  8
0
  6
CONTINUOUS
 62
     254
  5
18D
 10
-1.20268492
 20
3.50386829
 30
0.0
  0
VERTEX
  8
0
  6
CONTINUOUS
 62
     254
  5
18E
 10
-2.00121112
 20
3.45848735
 30
0.0
  0
SEQEND
  8
0
  6
CONTINUOUS
 62
     254
  5
18F
  0
POLYLINE
  8
0
  6
CONTINUOUS
 62
     254
  5
88
 66
       1
 10
0.0
 20
0.0
 30
0.0
  0
VERTEX
  8
0
  6
CONTINUOUS
 62
     254
  5
190
 10
-10.00121109
 20
82.25848703
 30
0.0
  0
VERTEX
  8
0
  6
CONTINUOUS
 62
     254
  5
191
 10
-10.11787775
 20
83.10848703
 30
0.0
  0
VERTEX
  8
0
  6
CONTINUOUS
 62
     254
  5
192
 10
-10.68923371
 20
83.75837552
 30
0.0
  0
VERTEX
  8
0
  6
CONTINUOUS
 62
     254
  5
193
 10
-11.56639554
 20
84.13382917
 30
0.0
  0
VERTEX
  8
0
  6
CONTINUOUS
 62
     254
  5
194
 10
-12.50121108
 20
84.25848703
 30
0.0
  0
SEQEND
  8
0
  6
CONTINUOUS
 62
     254
  5
195
  0
POLYLINE
  8
0
  6
CONTINUOUS
 62
     254
  5
89
 66
       1
 10
0.0
 20
0.0
 30
0.0
  0
VERTEX
  8
0
  6
CONTINUOUS
 62
     254
  5
196
 10
-15.00121107
 20
82.25848703
 30
0.0
  0
VERTEX
  8
0
  6
CONTINUOUS
 62
     254
  5
197
 10
-14.8845444
 20
83.10848703
 30
0.0
  0
VERTEX
  8
0
  6
CONTINUOUS
 62
     254
  5
198
 10
-14.31318799
 20
83.75837672
 30
0.0
  0
VERTEX
  8
0
  6
CONTINUOUS
 62
     254
  5
199
 10
-13.43602646
 20
84.13382977
 30
0.0
  0
VERTEX
  8
0
  6
CONTINUOUS
 62
     254
  5
19A
 10
-12.50121108
 20
84.25848703
 30
0.0
  0
SEQEND
  8
0
  6
CONTINUOUS
 62
     254
  5
19B
  0
POLYLINE
  8
0
  6
CONTINUOUS
 62
     254
  5
8A
 66
       1
 10
0.0
 20
0.0
 30
0.0
  0
VERTEX
  8
0
  6
CONTINUOUS
 62
     254
  5
19C
 10
105.99878885
 20
82.05848703
 30
0.0
  0
VERTEX
  8
0
  6
CONTINUOUS
 62
     254
  5
19D
 10
106.11545552
 20
82.90848703
 30
0.0
  0
VERTEX
  8
0
  6
CONTINUOUS
 62
     254
  5
19E
 10
106.68681052
 20
83.55837331
 30
0.0
  0
VERTEX
  8
0
  6
CONTINUOUS
 62
     254
  5
19F
 10
107.56397278
 20
83.93382806
 30
0.0
  0
VERTEX
  8
0
  6
CONTINUOUS
 62
     254
  5
1A0
 10
108.49878884
 20
84.05848703
 30
0.0
  0
SEQEND
  8
0
  6
CONTINUOUS
 62
     254
  5
1A1
  0
POLYLINE
  8
0
  6
CONTINUOUS
 62
     254
  5
8B
 66
       1
 10
0.0
 20
0.0
 30
0.0
  0
VERTEX
  8
0
  6
CONTINUOUS
 62
     254
  5
1A2
 10
110.99878883
 20
82.05848703
 30
0.0
  0
VERTEX
  8
0
  6
CONTINUOUS
 62
     254
  5
1A3
 10
110.88212216
 20
82.90848703
 30
0.0
  0
VERTEX
  8
0
  6
CONTINUOUS
 62
     254
  5
1A4
 10
110.31076528
 20
83.55837792
 30
0.0
  0
VERTEX
  8
0
  6
CONTINUOUS
 62
     254
  5
1A5
 10
109.43360407
 20
83.93383037
 30
0.0
  0
VERTEX
  8
0
  6
CONTINUOUS
 62
     254
  5
1A6
 10
108.49878884
 20
84.05848703
 30
0.0
  0
SEQEND
  8
0
  6
CONTINUOUS
 62
     254
  5
1A7
  0
POLYLINE
  8
0
  6
CONTINUOUS
 62
     254
  5
8C
 66
       1
 10
0.0
 20
0.0
 30
0.0
  0
VERTEX
  8
0
  6
CONTINUOUS
 62
     254
  5
1A8
 10
-84.00121115
 20
82.15848703
 30
0.0
  0
VERTEX
  8
0
  6
CONTINUOUS
 62
     254
  5
1A9
 10
-83.88454448
 20
83.00848703
 30
0.0
  0
VERTEX
  8
0
  6
CONTINUOUS
 62
     254
  5
1AA
 10
-83.31318662
 20
83.65838028
 30
0.0
  0
VERTEX
  8
0
  6
CONTINUOUS
 62
     254
  5
1AB
 10
-82.4360259
 20
84.03383154
 30
0.0
  0
VERTEX
  8
0
  6
CONTINUOUS
 62
     254
  5
1AC
 10
-81.50121116
 20
84.15848703
 30
0.0
  0
SEQEND
  8
0
  6
CONTINUOUS
 62
     254
  5
1AD
  0
POLYLINE
  8
0
  6
CONTINUOUS
 62
     254
  5
8D
 66
       1
 10
0.0
 20
0.0
 30
0.0
  0
VERTEX
  8
0
  6
CONTINUOUS
 62
     254
  5
1AE
 10
-79.00121117
 20
82.15848703
 30
0.0
  0
VERTEX
  8
0
  6
CONTINUOUS
 62
     254
  5
1AF
 10
-79.11787784
 20
83.00848703
 30
0.0
  0
VERTEX
  8
0
  6
CONTINUOUS
 62
     254
  5
1B0
 10
-79.68923689
 20
83.65838305
 30
0.0
  0
VERTEX
  8
0
  6
CONTINUOUS
 62
     254
  5
1B1
 10
-80.56639702
 20
84.03383293
 30
0.0
  0
VERTEX
  8
0
  6
CONTINUOUS
 62
     254
  5
1B2
 10
-81.50121116
 20
84.15848703
 30
0.0
  0
SEQEND
  8
0
  6
CONTINUOUS
 62
     254
  5
1B3
  0
CIRCLE
  8
0
  6
CONTINUOUS
 62
     254
  5
8E
 10
100.00709677
 20
67.0584698
 30
0.0
 40
0.50000002
  0
CIRCLE
  8
0
  6
CONTINUOUS
 62
     254
  5
8F
 10
96.00710696
 20
67.0584698
 30
0.0
 40
0.50000002
  0
CIRCLE
  8
0
  6
CONTINUOUS
 62
     254
  5
90
 10
100.00709677
 20
67.0584698
 30
0.0
 40
1.00000004
  0
CIRCLE
  8
0
  6
CONTINUOUS
 62
     254
  5
91
 10
96.00710696
 20
67.0584698
 30
0.0
 40
1.00000004
  0
ARC
  8
0
  6
CONTINUOUS
 62
     254
  5
92
 10
99.99878887
 20
67.05848709
 30
0.0
 40
3.50000985
 50
270.0
 51
90.0
  0
ARC
  8
0
  6
CONTINUOUS
 62
     254
  5
93
 10
95.99878889
 20
67.05848709
 30
0.0
 40
3.50000987
 50
90.0
 51
270.0
  0
ARC
  8
0
  6
CONTINUOUS
 62
     254
  5
94
 10
110.70291667
 20
83.56261487
 30
0.0
 40
0.79588286
 50
359.70283424
 51
90.29716576
  0
ARC
  8
0
  6
CONTINUOUS
 62
     254
  5
95
 10
85.30297398
 20
83.55430199
 30
0.0
 40
0.80419593
 50
90.29816912
 51
179.70183088
  0
ARC
  8
0
  6
CONTINUOUS
 62
     254
  5
96
 10
-104.70535409
 20
83.66263005
 30
0.0
 40
0.79586776
 50
89.70173581
 51
180.29826419
  0
ARC
  8
0
  6
CONTINUOUS
 62
     254
  5
97
 10
-79.30539877
 20
83.65429943
 30
0.0
 40
0.8041985
 50
0.2983503
 51
89.7016497
  0
ARC
  8
0
  6
CONTINUOUS
 62
     254
  5
98
 10
10.7029192
 20
83.7626174
 30
0.0
 40
0.79588034
 50
359.70265117
 51
90.29734883
  0
ARC
  8
0
  6
CONTINUOUS
 62
     254
  5
99
 10
-14.69702347
 20
83.75429943
 30
0.0
 40
0.8041985
 50
90.2983503
 51
179.7016497
  0
ARC
  8
0
  6
CONTINUOUS
 62
     254
  5
9A
 10
21.20294265
 20
46.55433331
 30
0.0
 40
0.79585697
 50
269.70095117
 51
0.29904883
  0
ARC
  8
0
  6
CONTINUOUS
 62
     254
  5
9B
 10
21.20292527
 20
75.46262354
 30
0.0
 40
0.79587426
 50
359.70220911
 51
90.29779089
  0
CIRCLE
  8
0
  6
CONTINUOUS
 62
     254
  5
9C
 10
7.00712218
 20
20.95849745
 30
0.0
 40
1.60000006
  0
CIRCLE
  8
0
  6
CONTINUOUS
 62
     254
  5
9D
 10
-10.99288284
 20
11.95848223
 30
0.0
 40
1.60000006
  0
LINE
  8
0
  6
CONTINUOUS
 62
     116
  5
9E
 10
-97.9012111
 20
19.65848728
 30
0.0
 11
-85.88454448
 21
19.65848728
 31
0.0
  0
LINE
  8
0
  6
CONTINUOUS
 62
     116
  5
9F
 10
104.38212219
 20
28.25848725
 30
0.0
 11
91.19878891
 21
28.25848725
 31
0.0
  0
LINE
  8
0
  6
CONTINUOUS
 62
     254
  5
A0
 10
12.99878882
 20
44.75848718
 30
0.0
 11
11.49878883
 21
44.75848718
 31
0.0
  0
LINE
  8
0
  6
CONTINUOUS
 62
     254
  5
A1
 10
12.99878882
 20
77.25848705
 30
0.0
 11
11.49878883
 21
77.25848705
 31
0.0
  0
LINE
  8
0
  6
CONTINUOUS
 62
     254
  5
A2
 10
12.99878882
 20
77.25848705
 30
0.0
 11
12.99878882
 21
44.75848718
 31
0.0
  0
LINE
  8
0
  6
CONTINUOUS
 62
     254
  5
A3
 10
85.99878893
 20
44.55848718
 30
0.0
 11
109.99878883
 21
44.55848718
 31
0.0
  0
LINE
  8
0
  6
CONTINUOUS
 62
     254
  5
A4
 10
85.99878893
 20
77.05848705
 30
0.0
 11
109.99878883
 21
77.05848705
 31
0.0
  0
LINE
  8
0
  6
CONTINUOUS
 62
     254
  5
A5
 10
109.99878883
 20
77.05848705
 30
0.0
 11
109.99878883
 21
44.55848718
 31
0.0
  0
LINE
  8
0
  6
CONTINUOUS
 62
     254
  5
A6
 10
85.99878893
 20
77.05848705
 30
0.0
 11
85.99878893
 21
44.55848718
 31
0.0
  0
LINE
  8
0
  6
CONTINUOUS
 62
     254
  5
A7
 10
30.01068145
 20
68.25848709
 30
0.0
 11
23.49878878
 21
68.25848709
 31
0.0
  0
LINE
  8
0
  6
CONTINUOUS
 62
     254
  5
A8
 10
28.01068146
 20
66.2584871
 30
0.0
 11
23.49878878
 21
66.2584871
 31
0.0
  0
LINE
  8
0
  6
CONTINUOUS
 62
     254
  5
A9
 10
43.2987887
 20
67.75848709
 30
0.0
 11
43.2987887
 21
66.7584871
 31
0.0
  0
LINE
  8
0
  6
CONTINUOUS
 62
     254
  5
AA
 10
38.29878872
 20
68.25848709
 30
0.0
 11
38.29878872
 21
66.2584871
 31
0.0
  0
LINE
  8
0
  6
CONTINUOUS
 62
     254
  5
AB
 10
43.2987887
 20
67.75848709
 30
0.0
 11
38.29878872
 21
67.75848709
 31
0.0
  0
LINE
  8
0
  6
CONTINUOUS
 62
     254
  5
AC
 10
43.2987887
 20
66.7584871
 30
0.0
 11
38.29878872
 21
66.7584871
 31
0.0
  0
LINE
  8
0
  6
CONTINUOUS
 62
     254
  5
AD
 10
38.29878872
 20
66.2584871
 30
0.0
 11
29.51068146
 21
66.2584871
 31
0.0
  0
LINE
  8
0
  6
CONTINUOUS
 62
     254
  5
AE
 10
38.29878872
 20
68.25848709
 30
0.0
 11
31.51068145
 21
68.25848709
 31
0.0
  0
LINE
  8
0
  6
CONTINUOUS
 62
     116
  5
AF
 10
44.2987887
 20
67.25848709
 30
0.0
 11
20.63212212
 21
67.25848709
 31
0.0
  0
LINE
  8
0
  6
CONTINUOUS
 62
     116
  5
B0
 10
99.99878887
 20
71.75848708
 30
0.0
 11
99.99878887
 21
62.62515378
 31
0.0
  0
LINE
  8
0
  6
CONTINUOUS
 62
     116
  5
B1
 10
95.99878889
 20
71.75848708
 30
0.0
 11
95.99878889
 21
62.44182045
 31
0.0
  0
LINE
  8
0
  6
CONTINUOUS
 62
     254
  5
B2
 10
99.99878887
 20
63.55848711
 30
0.0
 11
95.99878889
 21
63.55848711
 31
0.0
  0
LINE
  8
0
  6
CONTINUOUS
 62
     254
  5
B3
 10
99.99878887
 20
70.55848708
 30
0.0
 11
95.99878889
 21
70.55848708
 31
0.0
  0
LINE
  8
0
  6
CONTINUOUS
 62
     116
  5
B4
 10
106.01545552
 20
67.05848709
 30
0.0
 11
90.14878891
 21
67.05848709
 31
0.0
  0
LINE
  8
0
  6
CONTINUOUS
 62
     254
  5
B5
 10
21.19878879
 20
76.25848706
 30
0.0
 11
12.99878882
 21
76.25848706
 31
0.0
  0
LINE
  8
0
  6
CONTINUOUS
 62
     254
  5
B6
 10
21.19878879
 20
45.75848718
 30
0.0
 11
12.99878882
 21
45.75848718
 31
0.0
  0
LINE
  8
0
  6
CONTINUOUS
 62
     254
  5
B7
 10
86.99878893
 20
76.05848706
 30
0.0
 11
86.99878893
 21
45.55848718
 31
0.0
  0
LINE
  8
0
  6
CONTINUOUS
 62
     254
  5
B8
 10
108.99878884
 20
76.05848706
 30
0.0
 11
108.99878884
 21
45.55848718
 31
0.0
  0
LINE
  8
0
  6
CONTINUOUS
 62
     254
  5
B9
 10
1.14878887
 20
5.95848734
 30
0.0
 11
-5.15121111
 21
5.95848734
 31
0.0
  0
LINE
  8
0
  6
CONTINUOUS
 62
     254
  5
BA
 10
-5.15121111
 20
5.95848734
 30
0.0
 11
-5.15121111
 21
2.95848735
 31
0.0
  0
LINE
  8
0
  6
CONTINUOUS
 62
     254
  5
BB
 10
1.14878887
 20
5.95848734
 30
0.0
 11
1.14878887
 21
2.95848735
 31
0.0
  0
LINE
  8
0
  6
CONTINUOUS
 62
     254
  5
BC
 10
-15.00121107
 20
82.25848703
 30
0.0
 11
-15.00121107
 21
81.55848704
 31
0.0
  0
LINE
  8
0
  6
CONTINUOUS
 62
     254
  5
BD
 10
-10.00121109
 20
82.25848703
 30
0.0
 11
-15.00121107
 21
82.25848703
 31
0.0
  0
LINE
  8
0
  6
CONTINUOUS
 62
     254
  5
BE
 10
-10.00121109
 20
82.25848703
 30
0.0
 11
-10.00121109
 21
81.55848704
 31
0.0
  0
LINE
  8
0
  6
CONTINUOUS
 62
     254
  5
BF
 10
110.99878883
 20
82.05848703
 30
0.0
 11
110.99878883
 21
81.35848704
 31
0.0
  0
LINE
  8
0
  6
CONTINUOUS
 62
     254
  5
C0
 10
105.99878885
 20
82.05848703
 30
0.0
 11
110.99878883
 21
82.05848703
 31
0.0
  0
LINE
  8
0
  6
CONTINUOUS
 62
     254
  5
C1
 10
105.99878885
 20
82.05848703
 30
0.0
 11
105.99878885
 21
81.35848704
 31
0.0
  0
LINE
  8
0
  6
CONTINUOUS
 62
     254
  5
C2
 10
-79.00121117
 20
82.15848703
 30
0.0
 11
-79.00121117
 21
81.45848704
 31
0.0
  0
LINE
  8
0
  6
CONTINUOUS
 62
     254
  5
C3
 10
-84.00121115
 20
82.15848703
 30
0.0
 11
-84.00121115
 21
81.45848704
 31
0.0
  0
LINE
  8
0
  6
CONTINUOUS
 62
     254
  5
C4
 10
-79.00121117
 20
82.15848703
 30
0.0
 11
-84.00121115
 21
82.15848703
 31
0.0
  0
LINE
  8
0
  6
CONTINUOUS
 62
     116
  5
C5
 10
14.96545548
 20
28.45848725
 30
0.0
 11
8.54878884
 21
28.45848725
 31
0.0
  0
LINE
  8
0
  6
CONTINUOUS
 62
     254
  5
C6
 10
111.49878883
 20
40.0584872
 30
0.0
 11
84.49878894
 21
40.0584872
 31
0.0
  0
LINE
  8
0
  6
CONTINUOUS
 62
     254
  5
C7
 10
111.49878883
 20
7.75848733
 30
0.0
 11
84.49878894
 21
7.75848733
 31
0.0
  0
LINE
  8
0
  6
CONTINUOUS
 62
     116
  5
C8
 10
97.99878888
 20
87.55848702
 30
0.0
 11
97.99878888
 21
-6.24151265
 31
0.0
  0
LINE
  8
0
  6
CONTINUOUS
 62
     254
  5
C9
 10
110.69878883
 20
84.35848703
 30
0.0
 11
85.29878893
 21
84.35848703
 31
0.0
  0
LINE
  8
0
  6
CONTINUOUS
 62
     254
  5
CA
 10
111.49878883
 20
42.05848719
 30
0.0
 11
84.49878894
 21
42.05848719
 31
0.0
  0
LINE
  8
0
  6
CONTINUOUS
 62
     254
  5
CB
 10
111.49878883
 20
79.05848705
 30
0.0
 11
84.49878894
 21
79.05848705
 31
0.0
  0
LINE
  8
0
  6
CONTINUOUS
 62
     116
  5
CC
 10
108.49878884
 20
85.19182036
 30
0.0
 11
108.49878884
 21
80.35848704
 31
0.0
  0
LINE
  8
0
  6
CONTINUOUS
 62
     254
  5
CD
 10
104.99878885
 20
81.35848704
 30
0.0
 11
111.49878883
 21
81.35848704
 31
0.0
  0
LINE
  8
0
  6
CONTINUOUS
 62
     254
  5
CE
 10
104.99878885
 20
84.35848703
 30
0.0
 11
104.99878885
 21
81.35848704
 31
0.0
  0
LINE
  8
0
  6
CONTINUOUS
 62
     116
  5
CF
 10
108.49878884
 20
37.25848723
 30
0.0
 11
108.49878884
 21
28.85848723
 31
0.0
  0
LINE
  8
0
  6
CONTINUOUS
 62
     116
  5
D0
 10
87.49878892
 20
27.25848727
 30
0.0
 11
87.49878892
 21
18.85848727
 31
0.0
  0
LINE
  8
0
  6
CONTINUOUS
 62
     116
  5
D1
 10
112.69878884
 20
33.05848723
 30
0.0
 11
104.29878884
 21
33.05848723
 31
0.0
  0
LINE
  8
0
  6
CONTINUOUS
 62
     116
  5
D2
 10
91.69878892
 20
23.05848727
 30
0.0
 11
83.29878892
 21
23.05848727
 31
0.0
  0
LINE
  8
0
  6
CONTINUOUS
 62
     254
  5
D3
 10
111.49878883
 20
83.55848703
 30
0.0
 11
111.49878883
 21
3.25848735
 31
0.0
  0
LINE
  8
0
  6
CONTINUOUS
 62
     254
  5
D4
 10
84.49878894
 20
83.55848703
 30
0.0
 11
84.49878894
 21
3.25848735
 31
0.0
  0
LINE
  8
0
  6
CONTINUOUS
 62
     116
  5
D5
 10
-2.00121112
 20
87.55848702
 30
0.0
 11
-2.00121112
 21
-6.24151265
 31
0.0
  0
LINE
  8
0
  6
CONTINUOUS
 62
     254
  5
D6
 10
-105.50121106
 20
40.2584872
 30
0.0
 11
-78.50121117
 21
40.2584872
 31
0.0
  0
LINE
  8
0
  6
CONTINUOUS
 62
     254
  5
D7
 10
-105.50121106
 20
7.95848733
 30
0.0
 11
-78.50121117
 21
7.95848733
 31
0.0
  0
LINE
  8
0
  6
CONTINUOUS
 62
     254
  5
D8
 10
-104.70121107
 20
84.45848702
 30
0.0
 11
-79.30121117
 21
84.45848702
 31
0.0
  0
LINE
  8
0
  6
CONTINUOUS
 62
     254
  5
D9
 10
-105.50121106
 20
42.25848719
 30
0.0
 11
-78.50121117
 21
42.25848719
 31
0.0
  0
LINE
  8
0
  6
CONTINUOUS
 62
     254
  5
DA
 10
-105.50121106
 20
79.15848705
 30
0.0
 11
-78.50121117
 21
79.15848705
 31
0.0
  0
LINE
  8
0
  6
CONTINUOUS
 62
     116
  5
DB
 10
-81.50121116
 20
85.59182035
 30
0.0
 11
-81.50121116
 21
80.45848704
 31
0.0
  0
LINE
  8
0
  6
CONTINUOUS
 62
     254
  5
DC
 10
-85.00121115
 20
81.45848704
 30
0.0
 11
-78.50121117
 21
81.45848704
 31
0.0
  0
LINE
  8
0
  6
CONTINUOUS
 62
     254
  5
DD
 10
-85.00121115
 20
84.45848702
 30
0.0
 11
-85.00121115
 21
81.45848704
 31
0.0
  0
LINE
  8
0
  6
CONTINUOUS
 62
     116
  5
DE
 10
-102.50121108
 20
38.14182054
 30
0.0
 11
-102.50121108
 21
28.14182058
 31
0.0
  0
LINE
  8
0
  6
CONTINUOUS
 62
     116
  5
DF
 10
-81.50121116
 20
28.77515392
 30
0.0
 11
-81.50121116
 21
18.14182062
 31
0.0
  0
LINE
  8
0
  6
CONTINUOUS
 62
     116
  5
E0
 10
-106.73454439
 20
33.45848723
 30
0.0
 11
-97.68454443
 21
33.45848723
 31
0.0
  0
LINE
  8
0
  6
CONTINUOUS
 62
     116
  5
E1
 10
-86.53454447
 20
23.45848727
 30
0.0
 11
-77.80121118
 21
23.45848727
 31
0.0
  0
LINE
  8
0
  6
CONTINUOUS
 62
     116
  5
E2
 10
-17.80121106
 20
19.65848728
 30
0.0
 11
-13.41787774
 21
19.65848728
 31
0.0
  0
LINE
  8
0
  6
CONTINUOUS
 62
     254
  5
E3
 10
-105.50121106
 20
83.65848703
 30
0.0
 11
-105.50121106
 21
3.45848735
 31
0.0
  0
LINE
  8
0
  6
CONTINUOUS
 62
     254
  5
E4
 10
-78.50121117
 20
83.65848703
 30
0.0
 11
-78.50121117
 21
3.45848735
 31
0.0
  0
LINE
  8
0
  6
CONTINUOUS
 62
     116
  5
E5
 10
-8.39288278
 20
11.95848731
 30
0.0
 11
-13.59288289
 21
11.95848731
 31
0.0
  0
LINE
  8
0
  6
CONTINUOUS
 62
     116
  5
E6
 10
9.60712224
 20
20.95848728
 30
0.0
 11
4.40712212
 21
20.95848728
 31
0.0
  0
LINE
  8
0
  6
CONTINUOUS
 62
     116
  5
E7
 10
6.99878885
 20
23.55847581
 30
0.0
 11
6.99878885
 21
18.3585191
 31
0.0
  0
LINE
  8
0
  6
CONTINUOUS
 62
     116
  5
E8
 10
-11.00121108
 20
14.55846061
 30
0.0
 11
-11.00121108
 21
9.35850385
 31
0.0
  0
LINE
  8
0
  6
CONTINUOUS
 62
     254
  5
E9
 10
23.49878878
 20
70.75848708
 30
0.0
 11
23.49878878
 21
63.75848711
 31
0.0
  0
LINE
  8
0
  6
CONTINUOUS
 62
     254
  5
EA
 10
23.49878878
 20
70.75848708
 30
0.0
 11
21.99878879
 21
70.75848708
 31
0.0
  0
LINE
  8
0
  6
CONTINUOUS
 62
     254
  5
EB
 10
23.49878878
 20
63.75848711
 30
0.0
 11
21.99878879
 21
63.75848711
 31
0.0
  0
LINE
  8
0
  6
CONTINUOUS
 62
     116
  5
EC
 10
-12.50121108
 20
86.07515369
 30
0.0
 11
-12.50121108
 21
80.60848704
 31
0.0
  0
LINE
  8
0
  6
CONTINUOUS
 62
     254
  5
ED
 10
-9.00121109
 20
84.55848702
 30
0.0
 11
-9.00121109
 21
81.55848704
 31
0.0
  0
LINE
  8
0
  6
CONTINUOUS
 62
     254
  5
EE
 10
-15.50121106
 20
81.55848704
 30
0.0
 11
-9.00121109
 21
81.55848704
 31
0.0
  0
LINE
  8
0
  6
CONTINUOUS
 62
     254
  5
EF
 10
86.99878893
 20
76.05848706
 30
0.0
 11
108.99878884
 21
76.05848706
 31
0.0
  0
LINE
  8
0
  6
CONTINUOUS
 62
     254
  5
F0
 10
86.99878893
 20
45.55848718
 30
0.0
 11
108.99878884
 21
45.55848718
 31
0.0
  0
LINE
  8
0
  6
CONTINUOUS
 62
     254
  5
F1
 10
21.99878879
 20
75.45848706
 30
0.0
 11
21.99878879
 21
46.55848718
 31
0.0
  0
LINE
  8
0
  6
CONTINUOUS
 62
     254
  5
F2
 10
11.49878883
 20
83.75848703
 30
0.0
 11
11.49878883
 21
3.45848735
 31
0.0
  0
LINE
  8
0
  6
CONTINUOUS
 62
     254
  5
F3
 10
-15.50121106
 20
83.75848703
 30
0.0
 11
-15.50121106
 21
3.45848735
 31
0.0
  0
LINE
  8
0
  6
CONTINUOUS
 62
     254
  5
F4
 10
10.69878883
 20
84.55848702
 30
0.0
 11
-14.70121107
 21
84.55848702
 31
0.0
  0
LINE
  8
0
  6
CONTINUOUS
 62
     254
  5
F5
 10
11.49878883
 20
79.25848705
 30
0.0
 11
-15.50121106
 21
79.25848705
 31
0.0
  0
LINE
  8
0
  6
CONTINUOUS
 62
     254
  5
F6
 10
11.49878883
 20
42.25848719
 30
0.0
 11
-15.50121106
 21
42.25848719
 31
0.0
  0
LINE
  8
0
  6
CONTINUOUS
 62
     254
  5
F7
 10
10.99878883
 20
2.95848735
 30
0.0
 11
-15.00121106
 21
2.95848735
 31
0.0
  0
LINE
  8
0
  6
CONTINUOUS
 62
     254
  5
F8
 10
11.49878883
 20
40.2584872
 30
0.0
 11
-15.50121106
 21
40.2584872
 31
0.0
  0
LINE
  8
0
  6
CONTINUOUS
 62
     254
  5
F9
 10
11.49878883
 20
7.95848733
 30
0.0
 11
-15.50121106
 21
7.95848733
 31
0.0
  0
LINE
  8
0
  6
CONTINUOUS
 62
     254
  5
FA
 10
-68.00121112
 20
-3.04151265
 30
0.0
 11
-76.00121112
 21
-3.04151265
 31
0.0
  0
LINE
  8
0
  6
CONTINUOUS
 62
     254
  5
FB
 10
-68.00121112
 20
-1.04151265
 30
0.0
 11
-76.00121112
 21
-1.04151265
 31
0.0
  0
ARC
  8
0
  6
CONTINUOUS
 62
     254
  5
FC
 10
-76.00121112
 20
-0.04151265
 30
0.0
 40
1.0
 50
180.0
 51
270.0
  0
ARC
  8
0
  6
CONTINUOUS
 62
     254
  5
FD
 10
-76.00121112
 20
-0.04151265
 30
0.0
 40
3.0
 50
180.0
 51
270.0
  0
LINE
  8
0
  6
CONTINUOUS
 62
     254
  5
FE
 10
-68.00121112
 20
-1.04151265
 30
0.0
 11
-68.00121112
 21
-3.04151265
 31
0.0
  0
ARC
  8
0
  6
CONTINUOUS
 62
     254
  5
FF
 10
-80.00121112
 20
-0.04151265
 30
0.0
 40
3.0
 50
0.0
 51
90.0
  0
ARC
  8
0
  6
CONTINUOUS
 62
     254
  5
100
 10
-80.00121112
 20
-0.04151265
 30
0.0
 40
1.0
 50
0.0
 51
90.0
  0
LINE
  8
0
  6
CONTINUOUS
 62
     254
  5
101
 10
-116.00121112
 20
-1.04151265
 30
0.0
 11
-116.00121112
 21
-3.04151265
 31
0.0
  0
ARC
  8
0
  6
CONTINUOUS
 62
     254
  5
102
 10
-104.00121112
 20
-0.04151265
 30
0.0
 40
3.0
 50
90.0
 51
180.0
  0
ARC
  8
0
  6
CONTINUOUS
 62
     254
  5
103
 10
-104.00121112
 20
-0.04151265
 30
0.0
 40
1.0
 50
90.0
 51
180.0
  0
ARC
  8
0
  6
CONTINUOUS
 62
     254
  5
104
 10
-108.00121112
 20
-0.04151265
 30
0.0
 40
3.0
 50
270.0
 51
0.0
  0
ARC
  8
0
  6
CONTINUOUS
 62
     254
  5
105
 10
-108.00121112
 20
-0.04151265
 30
0.0
 40
1.0
 50
270.0
 51
0.0
  0
LINE
  8
0
  6
CONTINUOUS
 62
     254
  5
106
 10
-104.00121112
 20
0.95848735
 30
0.0
 11
-80.00121112
 21
0.95848735
 31
0.0
  0
LINE
  8
0
  6
CONTINUOUS
 62
     254
  5
107
 10
-105.00121106
 20
2.95848735
 30
0.0
 11
-79.00121117
 21
2.95848735
 31
0.0
  0
LINE
  8
0
  6
CONTINUOUS
 62
     254
  5
108
 10
-116.00121112
 20
-1.04151265
 30
0.0
 11
-108.00121112
 21
-1.04151265
 31
0.0
  0
LINE
  8
0
  6
CONTINUOUS
 62
     254
  5
109
 10
-116.00121112
 20
-3.04151265
 30
0.0
 11
-108.00121112
 21
-3.04151265
 31
0.0
  0
LINE
  8
0
  6
CONTINUOUS
 62
     254
  5
10A
 10
-74.00121112
 20
-1.04151265
 30
0.0
 11
-74.00121112
 21
-3.04151265
 31
0.0
  0
LINE
  8
0
  6
CONTINUOUS
 62
     254
  5
10B
 10
-110.00121112
 20
-1.04151265
 30
0.0
 11
-110.00121112
 21
-3.04151265
 31
0.0
  0
ARC
  8
0
  6
CONTINUOUS
 62
     254
  5
10C
 10
85.99878888
 20
-0.24151265
 30
0.0
 40
3.0
 50
90.0
 51
180.0
  0
ARC
  8
0
  6
CONTINUOUS
 62
     254
  5
10D
 10
81.99878888
 20
-0.24151265
 30
0.0
 40
3.0
 50
270.0
 51
0.0
  0
LINE
  8
0
  6
CONTINUOUS
 62
     254
  5
10E
 10
79.99878888
 20
-1.24151265
 30
0.0
 11
79.99878888
 21
-3.24151265
 31
0.0
  0
LINE
  8
0
  6
CONTINUOUS
 62
     254
  5
10F
 10
73.99878888
 20
-3.24151265
 30
0.0
 11
81.99878888
 21
-3.24151265
 31
0.0
  0
LINE
  8
0
  6
CONTINUOUS
 62
     254
  5
110
 10
73.99878888
 20
-1.24151265
 30
0.0
 11
81.99878888
 21
-1.24151265
 31
0.0
  0
ARC
  8
0
  6
CONTINUOUS
 62
     254
  5
111
 10
81.99878888
 20
-0.24151265
 30
0.0
 40
1.0
 50
270.0
 51
0.0
  0
LINE
  8
0
  6
CONTINUOUS
 62
     254
  5
112
 10
73.99878888
 20
-1.24151265
 30
0.0
 11
73.99878888
 21
-3.24151265
 31
0.0
  0
ARC
  8
0
  6
CONTINUOUS
 62
     254
  5
113
 10
85.99878888
 20
-0.24151265
 30
0.0
 40
1.0
 50
90.0
 51
180.0
  0
ARC
  8
0
  6
CONTINUOUS
 62
     254
  5
114
 10
113.99878888
 20
-0.24151265
 30
0.0
 40
3.0
 50
180.0
 51
270.0
  0
ARC
  8
0
  6
CONTINUOUS
 62
     254
  5
115
 10
109.99878888
 20
-0.24151265
 30
0.0
 40
3.0
 50
0.0
 51
90.0
  0
LINE
  8
0
  6
CONTINUOUS
 62
     254
  5
116
 10
115.99878888
 20
-1.24151265
 30
0.0
 11
115.99878888
 21
-3.24151265
 31
0.0
  0
LINE
  8
0
  6
CONTINUOUS
 62
     254
  5
117
 10
121.99878888
 20
-1.24151265
 30
0.0
 11
121.99878888
 21
-3.24151265
 31
0.0
  0
ARC
  8
0
  6
CONTINUOUS
 62
     254
  5
118
 10
113.99878888
 20
-0.24151265
 30
0.0
 40
1.0
 50
180.0
 51
270.0
  0
LINE
  8
0
  6
CONTINUOUS
 62
     254
  5
119
 10
121.99878888
 20
-1.24151265
 30
0.0
 11
113.99878888
 21
-1.24151265
 31
0.0
  0
LINE
  8
0
  6
CONTINUOUS
 62
     254
  5
11A
 10
121.99878888
 20
-3.24151265
 30
0.0
 11
113.99878888
 21
-3.24151265
 31
0.0
  0
LINE
  8
0
  6
CONTINUOUS
 62
     254
  5
11B
 10
85.99878888
 20
0.75848735
 30
0.0
 11
109.99878888
 21
0.75848735
 31
0.0
  0
ARC
  8
0
  6
CONTINUOUS
 62
     254
  5
11C
 10
109.99878888
 20
-0.24151265
 30
0.0
 40
1.0
 50
0.0
 51
90.0
  0
LINE
  8
0
  6
CONTINUOUS
 62
     254
  5
11D
 10
84.99878894
 20
2.75848735
 30
0.0
 11
110.99878883
 21
2.75848735
 31
0.0
  0
LINE
  8
0
  6
CONTINUOUS
 62
     254
  5
11E
 10
10.99878888
 20
2.95848735
 30
0.0
 11
10.99878888
 21
-3.24151265
 31
0.0
  0
LINE
  8
0
  6
CONTINUOUS
 62
     254
  5
11F
 10
-15.00121112
 20
2.95848735
 30
0.0
 11
-15.00121112
 21
-3.24151265
 31
0.0
  0
LINE
  8
0
  6
CONTINUOUS
 62
     254
  5
120
 10
10.99878888
 20
-3.24151265
 30
0.0
 11
-15.00121112
 21
-3.24151265
 31
0.0
  0
LINE
  8
0
  6
CONTINUOUS
 62
     254
  5
121
 10
10.99878888
 20
-1.24151265
 30
0.0
 11
-15.00121112
 21
-1.24151265
 31
0.0
  0
ARC
  8
0
  6
CONTINUOUS
 62
     254
  5
122
 10
10.99878883
 20
3.45848735
 30
0.0
 40
0.5
 50
270.0
 51
0.0
  0
ARC
  8
0
  6
CONTINUOUS
 62
     254
  5
123
 10
-15.00121106
 20
3.45848735
 30
0.0
 40
0.5
 50
180.0
 51
270.0
  0
ARC
  8
0
  6
CONTINUOUS
 62
     254
  5
124
 10
-79.00121117
 20
3.45848735
 30
0.0
 40
0.5
 50
270.0
 51
0.0
  0
ARC
  8
0
  6
CONTINUOUS
 62
     254
  5
125
 10
-105.00121106
 20
3.45848735
 30
0.0
 40
0.5
 50
180.0
 51
270.0
  0
ARC
  8
0
  6
CONTINUOUS
 62
     254
  5
126
 10
110.99878883
 20
3.25848735
 30
0.0
 40
0.5
 50
270.0
 51
0.0
  0
ARC
  8
0
  6
CONTINUOUS
 62
     254
  5
127
 10
84.99878894
 20
3.25848735
 30
0.0
 40
0.5
 50
180.0
 51
270.0
  0
LINE
  8
0
  6
CONTINUOUS
 62
     116
  5
128
 10
-92.00121112
 20
87.55848702
 30
0.0
 11
-92.00121112
 21
-6.24151265
 31
0.0
  0
LINE
  8
0
  6
CONTINUOUS
 62
     116
  5
129
 10
-83.00121112
 20
-4.46691819
 30
0.0
 11
-83.00121112
 21
2.16982015
 31
0.0
  0
ARC
  8
0
  6
CONTINUOUS
 62
     254
  5
12A
 10
-80.89420036
 20
-1.04762537
 30
0.0
 40
1.3
 50
285.88085001
 51
354.99999998
  0
LINE
  8
0
  6
CONTINUOUS
 62
     254
  5
12B
 10
-79.59914726
 20
-1.16092784
 30
0.0
 11
-79.50121112
 21
-0.04151268
 31
0.0
  0
ARC
  8
0
  6
CONTINUOUS
 62
     254
  5
12C
 10
-85.10822187
 20
-1.04762537
 30
0.0
 40
1.3
 50
185.00000002
 51
254.11914999
  0
LINE
  8
0
  6
CONTINUOUS
 62
     254
  5
12D
 10
-86.40327498
 20
-1.16092784
 30
0.0
 11
-86.50121112
 21
-0.04151268
 31
0.0
  0
ARC
  8
0
  6
CONTINUOUS
 62
     254
  5
12E
 10
-83.00121112
 20
6.35848735
 30
0.0
 40
9.0
 50
254.11914999
 51
285.88085001
  0
LINE
  8
0
  6
CONTINUOUS
 62
     254
  5
12F
 10
-79.50121112
 20
-0.04151265
 30
0.0
 11
-86.50121112
 21
-0.04151265
 31
0.0
  0
LINE
  8
0
  6
CONTINUOUS
 62
     254
  5
130
 10
-79.50121112
 20
-0.04151268
 30
0.0
 11
-79.50121112
 21
0.82451276
 31
0.0
  0
LINE
  8
0
  6
CONTINUOUS
 62
     254
  5
131
 10
-86.50121112
 20
-0.04151268
 30
0.0
 11
-86.50121112
 21
0.95848735
 31
0.0
  0
LINE
  8
0
  6
CONTINUOUS
 62
     116
  5
132
 10
-101.00121112
 20
-4.46691819
 30
0.0
 11
-101.00121112
 21
2.16982015
 31
0.0
  0
ARC
  8
0
  6
CONTINUOUS
 62
     254
  5
133
 10
-101.00121112
 20
6.35848735
 30
0.0
 40
9.0
 50
254.11914999
 51
285.88085001
  0
LINE
  8
0
  6
CONTINUOUS
 62
     254
  5
134
 10
-104.50121112
 20
-0.04151265
 30
0.0
 11
-97.50121112
 21
-0.04151265
 31
0.0
  0
LINE
  8
0
  6
CONTINUOUS
 62
     254
  5
135
 10
-97.50121112
 20
-0.04151268
 30
0.0
 11
-97.50121112
 21
0.95848735
 31
0.0
  0
LINE
  8
0
  6
CONTINUOUS
 62
     254
  5
136
 10
-97.59914726
 20
-1.16092784
 30
0.0
 11
-97.50121112
 21
-0.04151268
 31
0.0
  0
ARC
  8
0
  6
CONTINUOUS
 62
     254
  5
137
 10
-98.89420036
 20
-1.04762537
 30
0.0
 40
1.3
 50
285.88085001
 51
354.99999998
  0
LINE
  8
0
  6
CONTINUOUS
 62
     254
  5
138
 10
-104.50121112
 20
-0.04151268
 30
0.0
 11
-104.50121112
 21
0.82451276
 31
0.0
  0
LINE
  8
0
  6
CONTINUOUS
 62
     254
  5
139
 10
-104.40327498
 20
-1.16092784
 30
0.0
 11
-104.50121112
 21
-0.04151268
 31
0.0
  0
ARC
  8
0
  6
CONTINUOUS
 62
     254
  5
13A
 10
-103.10822187
 20
-1.04762537
 30
0.0
 40
1.3
 50
185.00000002
 51
254.11914999
  0
LINE
  8
0
  6
CONTINUOUS
 62
     116
  5
13B
 10
88.99878888
 20
-4.66691819
 30
0.0
 11
88.99878888
 21
1.96982015
 31
0.0
  0
ARC
  8
0
  6
CONTINUOUS
 62
     254
  5
13C
 10
88.99878888
 20
6.15848735
 30
0.0
 40
9.0
 50
254.11914999
 51
285.88085001
  0
LINE
  8
0
  6
CONTINUOUS
 62
     254
  5
13D
 10
85.49878888
 20
-0.24151265
 30
0.0
 11
92.49878888
 21
-0.24151265
 31
0.0
  0
LINE
  8
0
  6
CONTINUOUS
 62
     254
  5
13E
 10
92.49878888
 20
-0.24151268
 30
0.0
 11
92.49878888
 21
0.75848735
 31
0.0
  0
ARC
  8
0
  6
CONTINUOUS
 62
     254
  5
13F
 10
91.10579964
 20
-1.24762537
 30
0.0
 40
1.3
 50
285.88085001
 51
354.99999998
  0
LINE
  8
0
  6
CONTINUOUS
 62
     254
  5
140
 10
92.40085274
 20
-1.36092784
 30
0.0
 11
92.49878888
 21
-0.24151268
 31
0.0
  0
LINE
  8
0
  6
CONTINUOUS
 62
     254
  5
141
 10
85.49878888
 20
-0.24151268
 30
0.0
 11
85.49878888
 21
0.62451276
 31
0.0
  0
LINE
  8
0
  6
CONTINUOUS
 62
     254
  5
142
 10
85.59672502
 20
-1.36092784
 30
0.0
 11
85.49878888
 21
-0.24151268
 31
0.0
  0
ARC
  8
0
  6
CONTINUOUS
 62
     254
  5
143
 10
86.89177813
 20
-1.24762537
 30
0.0
 40
1.3
 50
185.00000002
 51
254.11914999
  0
LINE
  8
0
  6
CONTINUOUS
 62
     116
  5
144
 10
106.99878888
 20
-4.66691819
 30
0.0
 11
106.99878888
 21
1.96982015
 31
0.0
  0
ARC
  8
0
  6
CONTINUOUS
 62
     254
  5
145
 10
106.99878888
 20
6.15848735
 30
0.0
 40
9.0
 50
254.11914999
 51
285.88085001
  0
LINE
  8
0
  6
CONTINUOUS
 62
     254
  5
146
 10
110.49878888
 20
-0.24151265
 30
0.0
 11
103.49878888
 21
-0.24151265
 31
0.0
  0
LINE
  8
0
  6
CONTINUOUS
 62
     254
  5
147
 10
103.49878888
 20
-0.24151268
 30
0.0
 11
103.49878888
 21
0.75848735
 31
0.0
  0
LINE
  8
0
  6
CONTINUOUS
 62
     254
  5
148
 10
103.59672502
 20
-1.36092784
 30
0.0
 11
103.49878888
 21
-0.24151268
 31
0.0
  0
ARC
  8
0
  6
CONTINUOUS
 62
     254
  5
149
 10
104.89177813
 20
-1.24762537
 30
0.0
 40
1.3
 50
185.00000002
 51
254.11914999
  0
LINE
  8
0
  6
CONTINUOUS
 62
     254
  5
14A
 10
110.49878888
 20
-0.24151268
 30
0.0
 11
110.49878888
 21
0.62451276
 31
0.0
  0
LINE
  8
0
  6
CONTINUOUS
 62
     254
  5
14B
 10
110.40085274
 20
-1.36092784
 30
0.0
 11
110.49878888
 21
-0.24151268
 31
0.0
  0
ARC
  8
0
  6
CONTINUOUS
 62
     254
  5
14C
 10
109.10579964
 20
-1.24762537
 30
0.0
 40
1.3
 50
285.88085001
 51
354.99999998
  0
LINE
  8
0
  6
CONTINUOUS
 62
     116
  5
14D
 10
24.66971422
 20
13.95848731
 30
0.0
 11
5.55963342
 21
13.95848731
 31
0.0
  0
LINE
  8
0
  6
CONTINUOUS
 62
     254
  5
14E
 10
22.99878883
 20
18.95848731
 30
0.0
 11
22.99878883
 21
8.95848731
 31
0.0
  0
LINE
  8
0
  6
CONTINUOUS
 62
     254
  5
14F
 10
22.55220684
 20
19.73199
 30
0.0
 11
17.50310584
 21
19.73199
 31
0.0
  0
LINE
  8
0
  6
CONTINUOUS
 62
     254
  5
150
 10
16.99878883
 20
18.85848731
 30
0.0
 11
16.99878883
 21
9.05848731
 31
0.0
  0
LINE
  8
0
  6
CONTINUOUS
 62
     254
  5
151
 10
22.55220684
 20
16.84523865
 30
0.0
 11
17.44537081
 21
16.84523865
 31
0.0
  0
LINE
  8
0
  6
CONTINUOUS
 62
     254
  5
152
 10
22.55220684
 20
8.18498461
 30
0.0
 11
17.50310584
 21
8.18498461
 31
0.0
  0
LINE
  8
0
  6
CONTINUOUS
 62
     254
  5
153
 10
22.55220684
 20
11.07173596
 30
0.0
 11
17.44537081
 21
11.07173596
 31
0.0
  0
LINE
  8
0
  6
CONTINUOUS
 62
     254
  5
154
 10
22.99878883
 20
18.95848731
 30
0.0
 11
22.55220684
 21
19.73199
 31
0.0
  0
LINE
  8
0
  6
CONTINUOUS
 62
     254
  5
155
 10
22.99878883
 20
8.95848731
 30
0.0
 11
22.55220684
 21
8.18498461
 31
0.0
  0
ARC
  8
0
  6
CONTINUOUS
 62
     254
  5
156
 10
20.44296608
 20
18.28861433
 30
0.0
 40
2.55582275
 50
325.61575253
 51
34.38424747
  0
ARC
  8
0
  6
CONTINUOUS
 62
     254
  5
157
 10
13.44537081
 20
13.95848731
 30
0.0
 40
9.55341801
 50
342.41204623
 51
17.58795377
  0
ARC
  8
0
  6
CONTINUOUS
 62
     254
  5
158
 10
20.44296608
 20
9.62836029
 30
0.0
 40
2.55582275
 50
325.61575253
 51
34.38424747
  0
LINE
  8
0
  6
CONTINUOUS
 62
     254
  5
159
 10
16.99878883
 20
18.85848731
 30
0.0
 11
17.50310584
 21
19.73199
 31
0.0
  0
LINE
  8
0
  6
CONTINUOUS
 62
     254
  5
15A
 10
16.99878883
 20
9.05848731
 30
0.0
 11
17.50310584
 21
8.18498461
 31
0.0
  0
LINE
  8
0
  6
CONTINUOUS
 62
     254
  5
15B
 10
15.99878883
 20
18.90998625
 30
0.0
 11
15.99878883
 21
9.00721736
 31
0.0
  0
ARC
  8
0
  6
CONTINUOUS
 62
     254
  5
15C
 10
19.55461158
 20
18.28861433
 30
0.0
 40
2.55582275
 50
145.61575253
 51
214.38424747
  0
ARC
  8
0
  6
CONTINUOUS
 62
     254
  5
15D
 10
26.55220684
 20
13.95848731
 30
0.0
 40
9.55341801
 50
162.41204623
 51
197.58795377
  0
ARC
  8
0
  6
CONTINUOUS
 62
     254
  5
15E
 10
19.55461158
 20
9.62836029
 30
0.0
 40
2.55582275
 50
145.61575253
 51
214.38424747
  0
LINE
  8
0
  6
CONTINUOUS
 62
     116
  5
15F
 10
16.99878883
 20
8.97596736
 30
0.0
 11
11.49878883
 21
9.14784236
 31
0.0
  0
LINE
  8
0
  6
CONTINUOUS
 62
     254
  5
160
 10
15.99878883
 20
9.59315561
 30
0.0
 11
11.49878883
 21
9.73378061
 31
0.0
  0
LINE
  8
0
  6
CONTINUOUS
 62
     254
  5
161
 10
15.99878883
 20
18.32398694
 30
0.0
 11
11.49878883
 21
18.18336194
 31
0.0
  0
LINE
  8
0
  6
CONTINUOUS
 62
     116
  5
162
 10
16.99878883
 20
18.94123625
 30
0.0
 11
11.49878883
 21
18.76936125
 31
0.0
  0
LINE
  8
0
  6
CONTINUOUS
 62
     254
  5
163
 10
97.99878888
 20
19.53199
 30
0.0
 11
92.99878888
 21
16.64523865
 31
0.0
  0
LINE
  8
0
  6
CONTINUOUS
 62
     254
  5
164
 10
92.99878888
 20
16.64523865
 30
0.0
 11
92.99878888
 21
10.87173596
 31
0.0
  0
LINE
  8
0
  6
CONTINUOUS
 62
     254
  5
165
 10
92.99878888
 20
10.87173596
 30
0.0
 11
97.99878888
 21
7.98498462
 31
0.0
  0
LINE
  8
0
  6
CONTINUOUS
 62
     254
  5
166
 10
97.99878888
 20
7.98498462
 30
0.0
 11
102.99878888
 21
10.87173596
 31
0.0
  0
LINE
  8
0
  6
CONTINUOUS
 62
     254
  5
167
 10
102.99878888
 20
10.87173596
 30
0.0
 11
102.99878888
 21
16.64523865
 31
0.0
  0
LINE
  8
0
  6
CONTINUOUS
 62
     254
  5
168
 10
102.99878888
 20
16.64523865
 30
0.0
 11
97.99878888
 21
19.53199
 31
0.0
  0
LINE
  8
0
  6
CONTINUOUS
 62
     254
  5
169
 10
96.52909504
 20
14.25848731
 30
0.0
 11
99.46848273
 21
14.25848731
 31
0.0
  0
ARC
  8
0
  6
CONTINUOUS
 62
     254
  5
16A
 10
97.99878888
 20
13.75848731
 30
0.0
 40
3.1
 50
45.5846914
 51
134.4153086
  0
ARC
  8
0
  6
CONTINUOUS
 62
     254
  5
16B
 10
96.52909504
 20
15.25848731
 30
0.0
 40
1.0
 50
134.4153086
 51
270.0
  0
ARC
  8
0
  6
CONTINUOUS
 62
     254
  5
16C
 10
99.46848273
 20
15.25848731
 30
0.0
 40
1.0
 50
270.0
 51
45.5846914
  0
LINE
  8
0
  6
CONTINUOUS
 62
     254
  5
16D
 10
96.52909504
 20
13.25848731
 30
0.0
 11
99.46848273
 21
13.25848731
 31
0.0
  0
ARC
  8
0
  6
CONTINUOUS
 62
     254
  5
16E
 10
97.99878888
 20
13.75848731
 30
0.0
 40
3.1
 50
225.5846914
 51
314.4153086
  0
ARC
  8
0
  6
CONTINUOUS
 62
     254
  5
16F
 10
99.46848273
 20
12.25848731
 30
0.0
 40
1.0
 50
314.4153086
 51
90.0
  0
ARC
  8
0
  6
CONTINUOUS
 62
     254
  5
170
 10
96.52909504
 20
12.25848731
 30
0.0
 40
1.0
 50
90.0
 51
225.5846914
  0
LINE
  8
0
  6
CONTINUOUS
 62
     116
  5
171
 10
91.53212224
 20
13.75848731
 30
0.0
 11
104.40323764
 21
13.75848731
 31
0.0
  0
CIRCLE
  8
0
  6
CONTINUOUS
 62
     254
  5
172
 10
97.99878888
 20
13.75848731
 30
0.0
 40
5.0
  0
POLYLINE
  8
0
  6
CONTINUOUS
 62
       7
  5
173
 66
       1
 10
0.0
 20
0.0
 30
0.0
  0
VERTEX
  8
0
  6
CONTINUOUS
 62
       7
  5
1B4
 10
20.43365216
 20
19.73199
 30
0.0
  0
VERTEX
  8
0
  6
CONTINUOUS
 62
       7
  5
1B5
 10
26.39356427
 20
29.79657319
 30
0.0
  0
VERTEX
  8
0
  6
CONTINUOUS
 62
       7
  5
1B6
 10
36.79920392
 20
29.79657319
 30
0.0
  0
SEQEND
  8
0
  6
CONTINUOUS
 62
       7
  5
1B7
  0
INSERT
  8
0
  6
CONTINUOUS
 62
       7
  5
174
  2
_OPEN30
 10
20.43365216
 20
19.73199
 30
0.0
 41
2.77
 42
2.77
 50
239.36739064
 43
2.77
  0
TEXT
  8
0
  6
CONTINUOUS
 62
       7
  5
175
 10
28.29920392
 20
31.79657307
 30
0.0
 40
3.20000005
  1
-75
 41
0.93749999
  7
MX_NOTE_STANDARD
 11
28.29920392
 21
33.39657309
 31
0.0
 73
       2
  0
TEXT
  8
0
  6
CONTINUOUS
 62
       7
  5
176
 10
-185.67346939
 20
115.3500061
 30
0.0
 40
4.5
  1
MODEL:V100E1-21-75
 41
1.10204081
  7
MX_NOTE_STANDARD
 11
-185.67346939
 21
117.6000061
 31
0.0
 73
       2
  0
LINE
  8
0
  6
CONTINUOUS
 62
     254
  5
177
 10
-194.25
 20
132.6000061
 30
0.0
 11
194.80000305
 21
132.6000061
 31
0.0
  0
LINE
  8
0
  6
CONTINUOUS
 62
     254
  5
178
 10
194.80000305
 20
132.6000061
 30
0.0
 11
194.80000305
 21
-133.5
 31
0.0
  0
LINE
  8
0
  6
CONTINUOUS
 62
     254
  5
179
 10
-194.25
 20
132.6000061
 30
0.0
 11
-194.25
 21
-133.5
 31
0.0
  0
LINE
  8
0
  6
CONTINUOUS
 62
     254
  5
17A
 10
-194.25
 20
-133.5
 30
0.0
 11
194.80000305
 21
-133.5
 31
0.0
  0
ENDSEC
  0
EOF
