  0
SECTION
  2
HEADER
  9
$ACADVER
  1
AC1015
  9
$ACADMAINTVER
 70
    20
  9
$DWGCODEPAGE
  3
ANSI_932
  9
$INSBASE
 10
0.0
 20
0.0
 30
0.0
  9
$EXTMIN
 10
-152.5249899999999
 20
-150.1026850309885
 30
0.0
  9
$EXTMAX
 10
370.765410393262
 20
186.5272859279363
 30
0.0
  9
$LIMMIN
 10
0.0
 20
0.0
  9
$LIMMAX
 10
12.0
 20
9.0
  9
$ORTHOMODE
 70
     0
  9
$REGENMODE
 70
     1
  9
$FILLMODE
 70
     1
  9
$QTEXTMODE
 70
     0
  9
$MIRRTEXT
 70
     0
  9
$LTSCALE
 40
1.0
  9
$ATTMODE
 70
     1
  9
$TEXTSIZE
 40
0.2
  9
$TRACEWID
 40
0.05
  9
$TEXTSTYLE
  7
STANDARD
  9
$CLAYER
  8
0
  9
$CELTYPE
  6
CONTINUOUS
  9
$CECOLOR
 62
   256
  9
$CELTSCALE
 40
1.0
  9
$DISPSILH
 70
     0
  9
$DIMSCALE
 40
1.0
  9
$DIMASZ
 40
0.18
  9
$DIMEXO
 40
0.0625
  9
$DIMDLI
 40
0.38
  9
$DIMRND
 40
0.0
  9
$DIMDLE
 40
0.0
  9
$DIMEXE
 40
0.18
  9
$DIMTP
 40
0.0
  9
$DIMTM
 40
0.0
  9
$DIMTXT
 40
0.18
  9
$DIMCEN
 40
0.09
  9
$DIMTSZ
 40
0.0
  9
$DIMTOL
 70
     0
  9
$DIMLIM
 70
     0
  9
$DIMTIH
 70
     1
  9
$DIMTOH
 70
     1
  9
$DIMSE1
 70
     0
  9
$DIMSE2
 70
     0
  9
$DIMTAD
 70
     0
  9
$DIMZIN
 70
     0
  9
$DIMBLK
  1

  9
$DIMASO
 70
     1
  9
$DIMSHO
 70
     1
  9
$DIMPOST
  1

  9
$DIMAPOST
  1

  9
$DIMALT
 70
     0
  9
$DIMALTD
 70
     2
  9
$DIMALTF
 40
25.4
  9
$DIMLFAC
 40
1.0
  9
$DIMTOFL
 70
     0
  9
$DIMTVP
 40
0.0
  9
$DIMTIX
 70
     0
  9
$DIMSOXD
 70
     0
  9
$DIMSAH
 70
     0
  9
$DIMBLK1
  1

  9
$DIMBLK2
  1

  9
$DIMSTYLE
  2
Standard
  9
$DIMCLRD
 70
     0
  9
$DIMCLRE
 70
     0
  9
$DIMCLRT
 70
     0
  9
$DIMTFAC
 40
1.0
  9
$DIMGAP
 40
0.09
  9
$DIMJUST
 70
     0
  9
$DIMSD1
 70
     0
  9
$DIMSD2
 70
     0
  9
$DIMTOLJ
 70
     1
  9
$DIMTZIN
 70
     0
  9
$DIMALTZ
 70
     0
  9
$DIMALTTZ
 70
     0
  9
$DIMUPT
 70
     0
  9
$DIMDEC
 70
     4
  9
$DIMTDEC
 70
     4
  9
$DIMALTU
 70
     2
  9
$DIMALTTD
 70
     2
  9
$DIMTXSTY
  7
STANDARD
  9
$DIMAUNIT
 70
     0
  9
$DIMADEC
 70
     0
  9
$DIMALTRND
 40
0.0
  9
$DIMAZIN
 70
     0
  9
$DIMDSEP
 70
    46
  9
$DIMATFIT
 70
     3
  9
$DIMFRAC
 70
     0
  9
$DIMLDRBLK
  1

  9
$DIMLUNIT
 70
     2
  9
$DIMLWD
 70
    -2
  9
$DIMLWE
 70
    -2
  9
$DIMTMOVE
 70
     0
  9
$LUNITS
 70
     2
  9
$LUPREC
 70
     4
  9
$SKETCHINC
 40
0.1
  9
$FILLETRAD
 40
0.0
  9
$AUNITS
 70
     0
  9
$AUPREC
 70
     0
  9
$MENU
  1
.
  9
$ELEVATION
 40
0.0
  9
$PELEVATION
 40
0.0
  9
$THICKNESS
 40
0.0
  9
$LIMCHECK
 70
     0
  9
$CHAMFERA
 40
0.0
  9
$CHAMFERB
 40
0.0
  9
$CHAMFERC
 40
0.0
  9
$CHAMFERD
 40
0.0
  9
$SKPOLY
 70
     0
  9
$TDCREATE
 40
2454301.483055266
  9
$TDUCREATE
 40
2454301.108055266
  9
$TDUPDATE
 40
2454301.496310729
  9
$TDUUPDATE
 40
2454301.121310729
  9
$TDINDWG
 40
0.0133919560
  9
$TDUSRTIMER
 40
0.0133919560
  9
$USRTIMER
 70
     1
  9
$ANGBASE
 50
0.0
  9
$ANGDIR
 70
     0
  9
$PDMODE
 70
     0
  9
$PDSIZE
 40
0.0
  9
$PLINEWID
 40
0.0
  9
$SPLFRAME
 70
     0
  9
$SPLINETYPE
 70
     6
  9
$SPLINESEGS
 70
     8
  9
$HANDSEED
  5
72A
  9
$SURFTAB1
 70
     6
  9
$SURFTAB2
 70
     6
  9
$SURFTYPE
 70
     6
  9
$SURFU
 70
     6
  9
$SURFV
 70
     6
  9
$UCSBASE
  2

  9
$UCSNAME
  2

  9
$UCSORG
 10
0.0
 20
0.0
 30
0.0
  9
$UCSXDIR
 10
1.0
 20
0.0
 30
0.0
  9
$UCSYDIR
 10
0.0
 20
1.0
 30
0.0
  9
$UCSORTHOREF
  2

  9
$UCSORTHOVIEW
 70
     0
  9
$UCSORGTOP
 10
0.0
 20
0.0
 30
0.0
  9
$UCSORGBOTTOM
 10
0.0
 20
0.0
 30
0.0
  9
$UCSORGLEFT
 10
0.0
 20
0.0
 30
0.0
  9
$UCSORGRIGHT
 10
0.0
 20
0.0
 30
0.0
  9
$UCSORGFRONT
 10
0.0
 20
0.0
 30
0.0
  9
$UCSORGBACK
 10
0.0
 20
0.0
 30
0.0
  9
$PUCSBASE
  2

  9
$PUCSNAME
  2

  9
$PUCSORG
 10
0.0
 20
0.0
 30
0.0
  9
$PUCSXDIR
 10
1.0
 20
0.0
 30
0.0
  9
$PUCSYDIR
 10
0.0
 20
1.0
 30
0.0
  9
$PUCSORTHOREF
  2

  9
$PUCSORTHOVIEW
 70
     0
  9
$PUCSORGTOP
 10
0.0
 20
0.0
 30
0.0
  9
$PUCSORGBOTTOM
 10
0.0
 20
0.0
 30
0.0
  9
$PUCSORGLEFT
 10
0.0
 20
0.0
 30
0.0
  9
$PUCSORGRIGHT
 10
0.0
 20
0.0
 30
0.0
  9
$PUCSORGFRONT
 10
0.0
 20
0.0
 30
0.0
  9
$PUCSORGBACK
 10
0.0
 20
0.0
 30
0.0
  9
$USERI1
 70
     0
  9
$USERI2
 70
     0
  9
$USERI3
 70
     0
  9
$USERI4
 70
     0
  9
$USERI5
 70
     0
  9
$USERR1
 40
0.0
  9
$USERR2
 40
0.0
  9
$USERR3
 40
0.0
  9
$USERR4
 40
0.0
  9
$USERR5
 40
0.0
  9
$WORLDVIEW
 70
     1
  9
$SHADEDGE
 70
     3
  9
$SHADEDIF
 70
    70
  9
$TILEMODE
 70
     1
  9
$MAXACTVP
 70
    64
  9
$PINSBASE
 10
0.0
 20
0.0
 30
0.0
  9
$PLIMCHECK
 70
     0
  9
$PEXTMIN
 10
1.000000000000000E+20
 20
1.000000000000000E+20
 30
1.000000000000000E+20
  9
$PEXTMAX
 10
-1.000000000000000E+20
 20
-1.000000000000000E+20
 30
-1.000000000000000E+20
  9
$PLIMMIN
 10
0.0
 20
0.0
  9
$PLIMMAX
 10
12.0
 20
9.0
  9
$UNITMODE
 70
     0
  9
$VISRETAIN
 70
     1
  9
$PLINEGEN
 70
     0
  9
$PSLTSCALE
 70
     1
  9
$TREEDEPTH
 70
  3020
  9
$CMLSTYLE
  2
Standard
  9
$CMLJUST
 70
     0
  9
$CMLSCALE
 40
1.0
  9
$PROXYGRAPHICS
 70
     1
  9
$MEASUREMENT
 70
     0
  9
$CELWEIGHT
370
    -1
  9
$ENDCAPS
280
     0
  9
$JOINSTYLE
280
     0
  9
$LWDISPLAY
290
     0
  9
$INSUNITS
 70
     0
  9
$HYPERLINKBASE
  1

  9
$STYLESHEET
  1

  9
$XEDIT
290
     1
  9
$CEPSNTYPE
380
     0
  9
$PSTYLEMODE
290
     1
  9
$FINGERPRINTGUID
  2
{9CD6E6C0-D421-4A47-BC7E-8ECA10B725E2}
  9
$VERSIONGUID
  2
{A5DD92E4-5414-4365-85A2-FCC18F6D235E}
  9
$EXTNAMES
290
     1
  9
$PSVPSCALE
 40
0.0
  9
$OLESTARTUP
290
     0
  0
ENDSEC
  0
SECTION
  2
CLASSES
  0
CLASS
  1
ACDBDICTIONARYWDFLT
  2
AcDbDictionaryWithDefault
  3
ObjectDBX Classes
 90
        0
280
     0
281
     0
  0
CLASS
  1
TABLESTYLE
  2
AcDbTableStyle
  3
ObjectDBX Classes
 90
     2047
280
     0
281
     0
  0
CLASS
  1
DICTIONARYVAR
  2
AcDbDictionaryVar
  3
ObjectDBX Classes
 90
        0
280
     0
281
     0
  0
CLASS
  1
ACDBPLACEHOLDER
  2
AcDbPlaceHolder
  3
ObjectDBX Classes
 90
        0
280
     0
281
     0
  0
CLASS
  1
LAYOUT
  2
AcDbLayout
  3
ObjectDBX Classes
 90
        0
280
     0
281
     0
  0
ENDSEC
  0
SECTION
  2
TABLES
  0
TABLE
  2
VPORT
  5
8
330
0
100
AcDbSymbolTable
 70
    11
  0
VPORT
  5
724
330
8
100
AcDbSymbolTableRecord
100
AcDbViewportTableRecord
  2
*Active
 70
     0
 10
0.0
 20
0.0
 11
1.0
 21
1.0
 12
-48.52850205121365
 22
-55.01487358645926
 13
0.0
 23
0.0
 14
1.0
 24
1.0
 15
0.0
 25
0.0
 16
0.0
 26
0.0
 36
1.0
 17
0.0
 27
0.0
 37
0.0
 40
687.1895325745196
 41
1.540229885057471
 42
50.0
 43
0.0
 44
0.0
 50
0.0
 51
0.0
 71
     0
 72
   100
 73
     1
 74
     1
 75
     0
 76
     0
 77
     0
 78
     0
281
     0
 65
     1
110
0.0
120
0.0
130
0.0
111
1.0
121
0.0
131
0.0
112
0.0
122
1.0
132
0.0
 79
     0
146
0.0
  0
ENDTAB
  0
TABLE
  2
LTYPE
  5
5
330
0
100
AcDbSymbolTable
 70
    23
  0
LTYPE
  5
13
330
5
100
AcDbSymbolTableRecord
100
AcDbLinetypeTableRecord
  2
ByBlock
 70
     0
  3

 72
    65
 73
     0
 40
0.0
  0
LTYPE
  5
14
330
5
100
AcDbSymbolTableRecord
100
AcDbLinetypeTableRecord
  2
ByLayer
 70
     0
  3

 72
    65
 73
     0
 40
0.0
  0
LTYPE
  5
15
330
5
100
AcDbSymbolTableRecord
100
AcDbLinetypeTableRecord
  2
CONTINUOUS
 70
     0
  3
Solid line
 72
    65
 73
     0
 40
0.0
  0
LTYPE
  5
26
330
5
100
AcDbSymbolTableRecord
100
AcDbLinetypeTableRecord
  2
DASHED
 70
     0
  3
__ __ __ __ __ __ __ __ __ __ __ __ __ __ __
 72
    65
 73
     2
 40
3.5
 49
2.0
 74
     0
 49
-1.5
 74
     0
  0
LTYPE
  5
27
330
5
100
AcDbSymbolTableRecord
100
AcDbLinetypeTableRecord
  2
CENTER
 70
     0
  3
____ _ ____ _ ____ _ ____ _ ____ _ ____ _ ____
 72
    65
 73
     4
 40
17.5
 49
13.0
 74
     0
 49
-1.5
 74
     0
 49
1.5
 74
     0
 49
-1.5
 74
     0
  0
LTYPE
  5
28
330
5
100
AcDbSymbolTableRecord
100
AcDbLinetypeTableRecord
  2
PHANTOM
 70
     0
  3
_____ _ _ _____ _ _ _____ _ _ _____ _ _ ____  
 72
    65
 73
     6
 40
15.5
 49
8.0
 74
     0
 49
-1.5
 74
     0
 49
1.5
 74
     0
 49
-1.5
 74
     0
 49
1.5
 74
     0
 49
-1.5
 74
     0
  0
LTYPE
  5
29
330
5
100
AcDbSymbolTableRecord
100
AcDbLinetypeTableRecord
  2
DASHED1
 70
     0
  3
__ __ __ __ __ __ __ __ __ __ __ __ __ __ __
 72
    65
 73
     2
 40
1.5
 49
1.0
 74
     0
 49
-0.5
 74
     0
  0
LTYPE
  5
2A
330
5
100
AcDbSymbolTableRecord
100
AcDbLinetypeTableRecord
  2
DASHED2
 70
     0
  3
__ __ __ __ __ __ __ __ __ __ __ __ __ __ __
 72
    65
 73
     2
 40
3.5
 49
2.5
 74
     0
 49
-1.0
 74
     0
  0
LTYPE
  5
2B
330
5
100
AcDbSymbolTableRecord
100
AcDbLinetypeTableRecord
  2
DASHED3
 70
     0
  3
__ __ __ __ __ __ __ __ __ __ __ __ __ __ __
 72
    65
 73
     2
 40
6.0
 49
4.0
 74
     0
 49
-2.0
 74
     0
  0
LTYPE
  5
2C
330
5
100
AcDbSymbolTableRecord
100
AcDbLinetypeTableRecord
  2
DASHED4
 70
     0
  3
__ __ __ __ __ __ __ __ __ __ __ __ __ __ __
 72
    65
 73
     2
 40
12.0
 49
10.0
 74
     0
 49
-2.0
 74
     0
  0
LTYPE
  5
2D
330
5
100
AcDbSymbolTableRecord
100
AcDbLinetypeTableRecord
  2
DASHED5
 70
     0
  3
__ __ __ __ __ __ __ __ __ __ __ __ __ __ __
 72
    65
 73
     2
 40
17.0
 49
15.0
 74
     0
 49
-2.0
 74
     0
  0
LTYPE
  5
2E
330
5
100
AcDbSymbolTableRecord
100
AcDbLinetypeTableRecord
  2
DASHED6
 70
     0
  3
__ __ __ __ __ __ __ __ __ __ __ __ __ __ __
 72
    65
 73
     2
 40
29.0
 49
27.0
 74
     0
 49
-2.0
 74
     0
  0
LTYPE
  5
2F
330
5
100
AcDbSymbolTableRecord
100
AcDbLinetypeTableRecord
  2
PHANTOM1
 70
     0
  3
_____ _ _ _____ _ _ _____ _ _ _____ _ _ ____  
 72
    65
 73
     6
 40
31.0
 49
25.0
 74
     0
 49
-1.5
 74
     0
 49
1.0
 74
     0
 49
-1.0
 74
     0
 49
1.0
 74
     0
 49
-1.5
 74
     0
  0
LTYPE
  5
30
330
5
100
AcDbSymbolTableRecord
100
AcDbLinetypeTableRecord
  2
PHANTOM2
 70
     0
  3
_____ _ _ _____ _ _ _____ _ _ _____ _ _ ____  
 72
    65
 73
     6
 40
36.0
 49
27.0
 74
     0
 49
-1.5
 74
     0
 49
2.5
 74
     0
 49
-1.0
 74
     0
 49
2.5
 74
     0
 49
-1.5
 74
     0
  0
LTYPE
  5
31
330
5
100
AcDbSymbolTableRecord
100
AcDbLinetypeTableRecord
  2
PHANTOM3
 70
     0
  3
_____ _ _ _____ _ _ _____ _ _ _____ _ _ ____  
 72
    65
 73
     6
 40
78.0
 49
64.0
 74
     0
 49
-2.0
 74
     0
 49
4.0
 74
     0
 49
-2.0
 74
     0
 49
4.0
 74
     0
 49
-2.0
 74
     0
  0
LTYPE
  5
32
330
5
100
AcDbSymbolTableRecord
100
AcDbLinetypeTableRecord
  2
CENTER1
 70
     0
  3
____ _ ____ _ ____ _ ____ _ ____ _ ____ _ ____
 72
    65
 73
     4
 40
19.0
 49
14.0
 74
     0
 49
-1.0
 74
     0
 49
3.0
 74
     0
 49
-1.0
 74
     0
  0
LTYPE
  5
33
330
5
100
AcDbSymbolTableRecord
100
AcDbLinetypeTableRecord
  2
CENTER2
 70
     0
  3
____ _ ____ _ ____ _ ____ _ ____ _ ____ _ ____
 72
    65
 73
     4
 40
28.5
 49
25.0
 74
     0
 49
-1.0
 74
     0
 49
1.5
 74
     0
 49
-1.0
 74
     0
  0
LTYPE
  5
34
330
5
100
AcDbSymbolTableRecord
100
AcDbLinetypeTableRecord
  2
CENTER3
 70
     0
  3
____ _ ____ _ ____ _ ____ _ ____ _ ____ _ ____
 72
    65
 73
     4
 40
31.5
 49
27.0
 74
     0
 49
-1.0
 74
     0
 49
2.5
 74
     0
 49
-1.0
 74
     0
  0
LTYPE
  5
35
330
5
100
AcDbSymbolTableRecord
100
AcDbLinetypeTableRecord
  2
CENTER4
 70
     0
  3
____ _ ____ _ ____ _ ____ _ ____ _ ____ _ ____
 72
    65
 73
     4
 40
50.0
 49
45.0
 74
     0
 49
-1.0
 74
     0
 49
3.0
 74
     0
 49
-1.0
 74
     0
  0
LTYPE
  5
36
330
5
100
AcDbSymbolTableRecord
100
AcDbLinetypeTableRecord
  2
CENTER5
 70
     0
  3
____ _ ____ _ ____ _ ____ _ ____ _ ____ _ ____
 72
    65
 73
     4
 40
100.0
 49
92.0
 74
     0
 49
-2.0
 74
     0
 49
4.0
 74
     0
 49
-2.0
 74
     0
  0
LTYPE
  5
37
330
5
100
AcDbSymbolTableRecord
100
AcDbLinetypeTableRecord
  2
SBK1
 70
     0
  3
______ _ _ _ ______ _ _ _ ______ _ _ _ _____  
 72
    65
 73
     8
 40
60.5
 49
45.0
 74
     0
 49
-2.0
 74
     0
 49
2.5
 74
     0
 49
-2.0
 74
     0
 49
2.5
 74
     0
 49
-2.0
 74
     0
 49
2.5
 74
     0
 49
-2.0
 74
     0
  0
LTYPE
  5
38
330
5
100
AcDbSymbolTableRecord
100
AcDbLinetypeTableRecord
  2
SBK2
 70
     0
  3
______ _ _ _ ______ _ _ _ ______ _ _ _ _____  
 72
    65
 73
     8
 40
84.0
 49
64.0
 74
     0
 49
-2.0
 74
     0
 49
4.0
 74
     0
 49
-2.0
 74
     0
 49
4.0
 74
     0
 49
-2.0
 74
     0
 49
4.0
 74
     0
 49
-2.0
 74
     0
  0
LTYPE
  5
39
330
5
100
AcDbSymbolTableRecord
100
AcDbLinetypeTableRecord
  2
STCH
 70
     0
  3
__ __ __ __ __ __ __ __ __ __ __ __ __ __ __
 72
    65
 73
     2
 40
3.0
 49
1.0
 74
     0
 49
-2.0
 74
     0
  0
LTYPE
  5
3A
330
5
100
AcDbSymbolTableRecord
100
AcDbLinetypeTableRecord
  2
MTCH
 70
     0
  3
_____ _ _ _____ _ _ _____ _ _ _____ _ _ ____  
 72
    65
 73
     6
 40
80.0
 49
66.0
 74
     0
 49
-2.0
 74
     0
 49
4.0
 74
     0
 49
-2.0
 74
     0
 49
4.0
 74
     0
 49
-2.0
 74
     0
  0
ENDTAB
  0
TABLE
  2
LAYER
  5
2
330
0
100
AcDbSymbolTable
 70
     1
  0
LAYER
  5
10
330
2
100
AcDbSymbolTableRecord
100
AcDbLayerTableRecord
  2
0
 70
     0
 62
     7
  6
CONTINUOUS
370
    -3
390
F
  0
ENDTAB
  0
TABLE
  2
STYLE
  5
3
330
0
100
AcDbSymbolTable
 70
     1
  0
STYLE
  5
11
330
3
100
AcDbSymbolTableRecord
100
AcDbTextStyleTableRecord
  2
STANDARD
 70
     0
 40
0.0
 41
1.0
 50
0.0
 71
     0
 42
0.2
  3
txt
  4
BIGFONT
  0
ENDTAB
  0
TABLE
  2
VIEW
  5
6
330
0
100
AcDbSymbolTable
 70
     0
  0
ENDTAB
  0
TABLE
  2
UCS
  5
7
330
0
100
AcDbSymbolTable
 70
     0
  0
ENDTAB
  0
TABLE
  2
APPID
  5
9
330
0
100
AcDbSymbolTable
 70
     1
  0
APPID
  5
12
330
9
100
AcDbSymbolTableRecord
100
AcDbRegAppTableRecord
  2
ACAD
 70
     0
  0
ENDTAB
  0
TABLE
  2
DIMSTYLE
  5
A
330
0
100
AcDbSymbolTable
 70
     2
100
AcDbDimStyleTable
 71
     0
  0
DIMSTYLE
105
1A9
330
A
100
AcDbSymbolTableRecord
100
AcDbDimStyleTableRecord
  2
Standard
 70
     0
340
11
  0
ENDTAB
  0
TABLE
  2
BLOCK_RECORD
  5
1
330
0
100
AcDbSymbolTable
 70
     8
  0
BLOCK_RECORD
  5
22
330
1
100
AcDbSymbolTableRecord
100
AcDbBlockTableRecord
  2
*Model_Space
340
25
  0
BLOCK_RECORD
  5
1E
330
1
100
AcDbSymbolTableRecord
100
AcDbBlockTableRecord
  2
*Paper_Space
340
21
  0
ENDTAB
  0
ENDSEC
  0
SECTION
  2
BLOCKS
  0
BLOCK
  5
23
330
22
100
AcDbEntity
  8
0
100
AcDbBlockBegin
  2
*Model_Space
 70
     0
 10
0.0
 20
0.0
 30
0.0
  3
*Model_Space
  1

  0
ENDBLK
  5
24
330
22
100
AcDbEntity
  8
0
100
AcDbBlockEnd
  0
BLOCK
  5
1F
330
1E
100
AcDbEntity
 67
     1
  8
0
100
AcDbBlockBegin
  2
*Paper_Space
 70
     0
 10
0.0
 20
0.0
 30
0.0
  3
*Paper_Space
  1

  0
ENDBLK
  5
20
330
1E
100
AcDbEntity
 67
     1
  8
0
100
AcDbBlockEnd
  0
ENDSEC
  0
SECTION
  2
ENTITIES
  0
LINE
  5
3E
330
22
100
AcDbEntity
  8
0
100
AcDbLine
 10
85.57505799999999
 20
-14.501983
 30
0.0
 11
100.575058
 21
-14.501983
 31
0.0
  0
LINE
  5
48
330
22
100
AcDbEntity
  8
0
100
AcDbLine
 10
100.575058
 20
9.998015999999999
 30
0.0
 11
100.575058
 21
-14.501983
 31
0.0
  0
LINE
  5
49
330
22
100
AcDbEntity
  8
0
100
AcDbLine
 10
85.57505799999999
 20
9.998015999999999
 30
0.0
 11
85.57505799999999
 21
-14.501983
 31
0.0
  0
LINE
  5
4A
330
22
100
AcDbEntity
  8
0
100
AcDbLine
 10
100.575058
 20
-12.001983
 30
0.0
 11
85.57505799999999
 21
-12.001983
 31
0.0
  0
LINE
  5
4B
330
22
100
AcDbEntity
  8
0
100
AcDbLine
 10
100.575058
 20
9.998015999999999
 30
0.0
 11
85.57505799999999
 21
9.998015999999999
 31
0.0
  0
LINE
  5
4C
330
22
100
AcDbEntity
  8
0
  6
CENTER
 62
     2
100
AcDbLine
 10
93.07505799999999
 20
35.818016
 30
0.0
 11
93.07505799999999
 21
-18.501984
 31
0.0
  0
LINE
  5
72
330
22
100
AcDbEntity
  8
0
  6
CENTER
 62
     2
100
AcDbLine
 10
85.06483499999999
 20
-3.506982999999999
 30
0.0
 11
89.86988100000001
 21
-3.506982999999999
 31
0.0
  0
LINE
  5
73
330
22
100
AcDbEntity
  8
0
  6
CENTER
 62
     2
100
AcDbLine
 10
98.575058
 20
-1.115352
 30
0.0
 11
98.575058
 21
-5.720184999999999
 31
0.0
  0
LINE
  5
74
330
22
100
AcDbEntity
  8
0
  6
CENTER
 62
     2
100
AcDbLine
 10
87.575058
 20
-0.9651939999999999
 30
0.0
 11
87.575058
 21
-5.720184999999999
 31
0.0
  0
LINE
  5
75
330
22
100
AcDbEntity
  8
0
  6
CENTER
 62
     2
100
AcDbLine
 10
97.027397
 20
-0.5019840000000001
 30
0.0
 11
89.2192
 21
-0.5019840000000001
 31
0.0
  0
LINE
  5
76
330
22
100
AcDbEntity
  8
0
  6
CENTER
 62
     2
100
AcDbLine
 10
94.92519399999999
 20
-6.001983
 30
0.0
 11
91.07114399999998
 21
-6.001983
 31
0.0
  0
LINE
  5
77
330
22
100
AcDbEntity
  8
0
  6
CENTER
 62
     2
100
AcDbLine
 10
95.525818
 20
-3.506982999999999
 30
0.0
 11
101.231812
 21
-3.506982999999999
 31
0.0
  0
LINE
  5
92
330
22
100
AcDbEntity
  8
0
100
AcDbLine
 10
-33.674965
 20
-39.045105
 30
0.0
 11
-48.674961
 21
-39.045105
 31
0.0
  0
LINE
  5
97
330
22
100
AcDbEntity
  8
0
  6
CENTER
 62
     2
100
AcDbLine
 10
-41.174965
 20
-64.715103
 30
0.0
 11
-41.174965
 21
-37.385105
 31
0.0
  0
LINE
  5
B5
330
22
100
AcDbEntity
  8
0
 62
     4
100
AcDbLine
 10
-48.674961
 20
45.04112199999999
 30
0.0
 11
-33.674965
 21
45.04112199999999
 31
0.0
  0
LINE
  5
D3
330
22
100
AcDbEntity
  8
0
  6
CENTER
 62
     2
100
AcDbLine
 10
-41.174965
 20
42.391113
 30
0.0
 11
-41.174965
 21
72.524445
 31
0.0
  0
LINE
  5
D6
330
22
100
AcDbEntity
  8
0
100
AcDbLine
 10
10.675049
 20
-14.501983
 30
0.0
 11
34.675049
 21
-14.501983
 31
0.0
  0
LINE
  5
E2
330
22
100
AcDbEntity
  8
0
100
AcDbLine
 10
10.675049
 20
5.498016
 30
0.0
 11
10.675049
 21
-14.501983
 31
0.0
  0
LINE
  5
E3
330
22
100
AcDbEntity
  8
0
100
AcDbLine
 10
34.675049
 20
5.498016
 30
0.0
 11
34.675049
 21
-14.501983
 31
0.0
  0
LINE
  5
E4
330
22
100
AcDbEntity
  8
0
100
AcDbLine
 10
13.675049
 20
-5.321982
 30
0.0
 11
10.675049
 21
-5.321982
 31
0.0
  0
LINE
  5
E5
330
22
100
AcDbEntity
  8
0
100
AcDbLine
 10
13.675049
 20
-1.691983
 30
0.0
 11
10.675049
 21
-1.691983
 31
0.0
  0
LINE
  5
E6
330
22
100
AcDbEntity
  8
0
100
AcDbLine
 10
13.675049
 20
-1.691983
 30
0.0
 11
13.675049
 21
-5.321982
 31
0.0
  0
LINE
  5
E7
330
22
100
AcDbEntity
  8
0
100
AcDbLine
 10
34.675049
 20
-12.001983
 30
0.0
 11
10.675049
 21
-12.001983
 31
0.0
  0
LINE
  5
E8
330
22
100
AcDbEntity
  8
0
100
AcDbLine
 10
34.675049
 20
5.498016
 30
0.0
 11
10.675049
 21
5.498016
 31
0.0
  0
LINE
  5
E9
330
22
100
AcDbEntity
  8
0
100
AcDbLine
 10
13.075058
 20
-1.691983
 30
0.0
 11
13.075058
 21
-5.321982
 31
0.0
  0
LINE
  5
105
330
22
100
AcDbEntity
  8
0
  6
CENTER
 62
     2
100
AcDbLine
 10
22.675049
 20
36.59447500000001
 30
0.0
 11
22.675049
 21
-20.925425
 31
0.0
  0
LINE
  5
106
330
22
100
AcDbEntity
  8
0
  6
CENTER
 62
     2
100
AcDbLine
 10
37.175049
 20
-3.506982999999999
 30
0.0
 11
32.175049
 21
-3.506982999999999
 31
0.0
  0
LINE
  5
107
330
22
100
AcDbEntity
  8
0
100
AcDbLine
 10
-112.024994
 20
-14.501983
 30
0.0
 11
-88.024994
 21
-14.501983
 31
0.0
  0
LINE
  5
108
330
22
100
AcDbEntity
  8
0
  6
CENTER
 62
     2
100
AcDbLine
 10
-100.024994
 20
36.28167
 30
0.0
 11
-100.024994
 21
-21.977777
 31
0.0
  0
LINE
  5
12C
330
22
100
AcDbEntity
  8
0
100
AcDbLine
 10
-90.425003
 20
-1.691983
 30
0.0
 11
-90.425003
 21
-5.321982
 31
0.0
  0
LINE
  5
12D
330
22
100
AcDbEntity
  8
0
100
AcDbLine
 10
-112.024994
 20
5.498016
 30
0.0
 11
-88.024994
 21
5.498016
 31
0.0
  0
LINE
  5
12E
330
22
100
AcDbEntity
  8
0
100
AcDbLine
 10
-112.024994
 20
-12.001983
 30
0.0
 11
-88.024994
 21
-12.001983
 31
0.0
  0
LINE
  5
12F
330
22
100
AcDbEntity
  8
0
100
AcDbLine
 10
-91.02499399999999
 20
-1.691983
 30
0.0
 11
-91.02499399999999
 21
-5.321982
 31
0.0
  0
LINE
  5
130
330
22
100
AcDbEntity
  8
0
100
AcDbLine
 10
-91.02499399999999
 20
-1.691983
 30
0.0
 11
-88.024994
 21
-1.691983
 31
0.0
  0
LINE
  5
131
330
22
100
AcDbEntity
  8
0
100
AcDbLine
 10
-91.02499399999999
 20
-5.321982
 30
0.0
 11
-88.024994
 21
-5.321982
 31
0.0
  0
LINE
  5
132
330
22
100
AcDbEntity
  8
0
100
AcDbLine
 10
-112.024994
 20
5.498016
 30
0.0
 11
-112.024994
 21
-14.501983
 31
0.0
  0
LINE
  5
133
330
22
100
AcDbEntity
  8
0
100
AcDbLine
 10
-88.024994
 20
5.498016
 30
0.0
 11
-88.024994
 21
-14.501983
 31
0.0
  0
LINE
  5
134
330
22
100
AcDbEntity
  8
0
  6
CENTER
 62
     2
100
AcDbLine
 10
-109.524994
 20
-3.506982999999999
 30
0.0
 11
-114.524994
 21
-3.506982999999999
 31
0.0
  0
LINE
  5
135
330
22
100
AcDbEntity
  8
0
100
AcDbLine
 10
-48.674961
 20
-14.501983
 30
0.0
 11
-33.674965
 21
-14.501983
 31
0.0
  0
LINE
  5
150
330
22
100
AcDbEntity
  8
0
  6
CENTER
 62
     2
100
AcDbLine
 10
-36.674965
 20
-10.501983
 30
0.0
 11
-36.674965
 21
-18.501984
 31
0.0
  0
LINE
  5
151
330
22
100
AcDbEntity
  8
0
  6
CENTER
 62
     2
100
AcDbLine
 10
-45.67496499999999
 20
-10.501983
 30
0.0
 11
-45.67496499999999
 21
-18.501984
 31
0.0
  0
LINE
  5
152
330
22
100
AcDbEntity
  8
0
 62
     4
100
AcDbLine
 10
-47.704964
 20
33.638004
 30
0.0
 11
-47.67496099999999
 21
33.698017
 31
0.0
  0
LINE
  5
153
330
22
100
AcDbEntity
  8
0
 62
     4
100
AcDbLine
 10
-48.22496
 20
32.298012
 30
0.0
 11
-48.22496
 21
31.698004
 31
0.0
  0
LINE
  5
154
330
22
100
AcDbEntity
  8
0
 62
     4
100
AcDbLine
 10
-43.124962
 20
32.298012
 30
0.0
 11
-43.124962
 21
31.698004
 31
0.0
  0
LINE
  5
155
330
22
100
AcDbEntity
  8
0
 62
     4
100
AcDbLine
 10
-43.124962
 20
32.298012
 30
0.0
 11
-48.22496
 21
32.298012
 31
0.0
  0
LINE
  5
156
330
22
100
AcDbEntity
  8
0
 62
     4
100
AcDbLine
 10
-48.674961
 20
30.698004
 30
0.0
 11
-33.674965
 21
30.698004
 31
0.0
  0
LINE
  5
157
330
22
100
AcDbEntity
  8
0
 62
     4
100
AcDbLine
 10
-48.674961
 20
31.698004
 30
0.0
 11
-33.674965
 21
31.698004
 31
0.0
  0
LINE
  5
158
330
22
100
AcDbEntity
  8
0
 62
     4
100
AcDbLine
 10
-33.674961
 20
31.698004
 30
0.0
 11
-34.674961
 21
33.698006
 31
0.0
  0
LINE
  5
159
330
22
100
AcDbEntity
  8
0
 62
     4
100
AcDbLine
 10
-43.854961
 20
33.698006
 30
0.0
 11
-34.674965
 21
33.698006
 31
0.0
  0
LINE
  5
15A
330
22
100
AcDbEntity
  8
0
 62
     4
100
AcDbLine
 10
-43.424965
 20
33.558006
 30
0.0
 11
-43.424965
 21
32.298012
 31
0.0
  0
LINE
  5
15B
330
22
100
AcDbEntity
  8
0
 62
     4
100
AcDbLine
 10
-47.67496099999999
 20
33.698006
 30
0.0
 11
-47.55496199999999
 21
33.698006
 31
0.0
  0
LINE
  5
15C
330
22
100
AcDbEntity
  8
0
 62
     4
100
AcDbLine
 10
-47.924961
 20
33.558006
 30
0.0
 11
-47.924961
 21
32.298012
 31
0.0
  0
LINE
  5
15D
330
22
100
AcDbEntity
  8
0
 62
     4
100
AcDbLine
 10
-48.674961
 20
31.698013
 30
0.0
 11
-47.924961
 21
33.198013
 31
0.0
  0
LINE
  5
15E
330
22
100
AcDbEntity
  8
0
 62
     4
100
AcDbLine
 10
-42.674965
 20
33.698006
 30
0.0
 11
-42.674965
 21
31.698004
 31
0.0
  0
LINE
  5
15F
330
22
100
AcDbEntity
  8
0
 62
     4
100
AcDbLine
 10
-33.674965
 20
31.698004
 30
0.0
 11
-33.674965
 21
5.498016
 31
0.0
  0
LINE
  5
160
330
22
100
AcDbEntity
  8
0
 62
     4
100
AcDbLine
 10
-48.674961
 20
31.698004
 30
0.0
 11
-48.674961
 21
5.498016
 31
0.0
  0
LINE
  5
161
330
22
100
AcDbEntity
  8
0
100
AcDbLine
 10
-33.674965
 20
-4.541983
 30
0.0
 11
-33.674965
 21
-14.501983
 31
0.0
  0
LINE
  5
162
330
22
100
AcDbEntity
  8
0
100
AcDbLine
 10
-48.674961
 20
-4.541983
 30
0.0
 11
-48.674961
 21
-14.501983
 31
0.0
  0
LINE
  5
163
330
22
100
AcDbEntity
  8
0
100
AcDbLine
 10
-36.594963
 20
-4.421982999999999
 30
0.0
 11
-34.764961
 21
-2.591983
 31
0.0
  0
LINE
  5
164
330
22
100
AcDbEntity
  8
0
100
AcDbLine
 10
-36.594963
 20
-2.591984
 30
0.0
 11
-34.764961
 21
-4.421983999999999
 31
0.0
  0
LINE
  5
165
330
22
100
AcDbEntity
  8
0
100
AcDbLine
 10
-47.594963
 20
-4.421983999999999
 30
0.0
 11
-45.76496099999999
 21
-2.591984
 31
0.0
  0
LINE
  5
166
330
22
100
AcDbEntity
  8
0
100
AcDbLine
 10
-47.594963
 20
-2.591981999999999
 30
0.0
 11
-45.76496099999999
 21
-4.421982999999999
 31
0.0
  0
LINE
  5
167
330
22
100
AcDbEntity
  8
0
100
AcDbLine
 10
-48.674961
 20
5.498016
 30
0.0
 11
-33.674965
 21
5.498016
 31
0.0
  0
LINE
  5
168
330
22
100
AcDbEntity
  8
0
  6
CENTER
 62
     2
100
AcDbLine
 10
-44.674965
 20
-6.501983
 30
0.0
 11
-37.674965
 21
-6.501983
 31
0.0
  0
LINE
  5
169
330
22
100
AcDbEntity
  8
0
  6
CENTER
 62
     2
100
AcDbLine
 10
-43.674965
 20
1.998015999999999
 30
0.0
 11
-38.674965
 21
1.998015999999999
 31
0.0
  0
LINE
  5
16A
330
22
100
AcDbEntity
  8
0
100
AcDbLine
 10
-48.674961
 20
5.498016
 30
0.0
 11
-48.674961
 21
-2.471983
 31
0.0
  0
LINE
  5
16B
330
22
100
AcDbEntity
  8
0
100
AcDbLine
 10
-33.674965
 20
5.498016
 30
0.0
 11
-33.674965
 21
-2.471983
 31
0.0
  0
LINE
  5
16C
330
22
100
AcDbEntity
  8
0
100
AcDbLine
 10
-48.674961
 20
-12.001983
 30
0.0
 11
-33.674965
 21
-12.001983
 31
0.0
  0
LINE
  5
16D
330
22
100
AcDbEntity
  8
0
  6
CENTER
 62
     2
100
AcDbLine
 10
-41.174965
 20
36.128014
 30
0.0
 11
-41.174965
 21
-18.501984
 31
0.0
  0
CIRCLE
  5
181
330
22
100
AcDbEntity
  8
0
100
AcDbCircle
 10
87.575058
 20
-3.501983
 30
0.0
 40
1.399999999999999
  0
CIRCLE
  5
182
330
22
100
AcDbEntity
  8
0
100
AcDbCircle
 10
98.575058
 20
-3.501983
 30
0.0
 40
1.399999999999999
  0
CIRCLE
  5
183
330
22
100
AcDbEntity
  8
0
 62
     2
100
AcDbCircle
 10
93.07505799999999
 20
-0.5019840000000001
 30
0.0
 40
2.5
  0
CIRCLE
  5
184
330
22
100
AcDbEntity
  8
0
100
AcDbCircle
 10
93.07505799999999
 20
-6.001983
 30
0.0
 40
0.9
  0
CIRCLE
  5
185
330
22
100
AcDbEntity
  8
0
100
AcDbCircle
 10
93.07505799999999
 20
-0.5019840000000001
 30
0.0
 40
2.099998999999999
  0
ARC
  5
195
330
22
100
AcDbEntity
  8
0
100
AcDbCircle
 10
17.375061
 20
-3.506982999999999
 30
0.0
 40
5.991519
100
AcDbArc
 50
162.36644
 51
197.6335449999999
  0
ARC
  5
199
330
22
100
AcDbEntity
  8
0
100
AcDbCircle
 10
-94.72500600000001
 20
-3.506982999999999
 30
0.0
 40
5.991519999999999
100
AcDbArc
 50
342.366455
 51
17.633556
  0
CIRCLE
  5
19A
330
22
100
AcDbEntity
  8
0
100
AcDbCircle
 10
-41.174965
 20
-6.501983
 30
0.0
 40
2.099998999999999
  0
ARC
  5
19D
330
22
100
AcDbEntity
  8
0
 62
     4
100
AcDbCircle
 10
-45.67496499999999
 20
27.997992
 30
0.0
 40
5.998021999999999
100
AcDbArc
 50
67.96804
 51
112.031921
  0
ARC
  5
19E
330
22
100
AcDbEntity
  8
0
 62
     4
100
AcDbCircle
 10
-36.679962
 20
27.997992
 30
0.0
 40
6.000483999999999
100
AcDbArc
 50
71.791527
 51
108.208397
  0
CIRCLE
  5
19F
330
22
100
AcDbEntity
  8
0
100
AcDbCircle
 10
-35.674965
 20
-3.501983
 30
0.0
 40
2.25
  0
CIRCLE
  5
1A0
330
22
100
AcDbEntity
  8
0
100
AcDbCircle
 10
-46.674961
 20
-3.501983
 30
0.0
 40
2.25
  0
CIRCLE
  5
1A1
330
22
100
AcDbEntity
  8
0
 62
     2
100
AcDbCircle
 10
-41.174965
 20
-6.501983
 30
0.0
 40
2.5
  0
ARC
  5
1A2
330
22
100
AcDbEntity
  8
0
100
AcDbCircle
 10
-46.67495699999999
 20
-3.506982999999999
 30
0.0
 40
2.700785999999999
100
AcDbArc
 50
222.223709
 51
137.776291
  0
ARC
  5
1A3
330
22
100
AcDbEntity
  8
0
100
AcDbCircle
 10
-35.674965
 20
-3.506982999999999
 30
0.0
 40
2.700784999999999
100
AcDbArc
 50
42.223686
 51
317.776306
  0
CIRCLE
  5
1A4
330
22
100
AcDbEntity
  8
0
100
AcDbCircle
 10
-41.174965
 20
1.998015999999999
 30
0.0
 40
1.5
  0
TEXT
  5
1A6
330
22
100
AcDbEntity
  8
0
100
AcDbText
 10
-128.149994
 20
73.58000200000001
 30
0.0
 40
3.2
  1
MODEL:V030E1-PLL
 41
1.052632
100
AcDbText
  0
LINE
  5
46A
330
22
100
AcDbEntity
  8
0
 62
     4
100
AcDbLine
 10
-89.00499799999995
 20
33.63799999999997
 30
0.0
 11
-89.02500199999996
 21
33.69799700000001
 31
0.0
  0
LINE
  5
46B
330
22
100
AcDbEntity
  8
0
 62
     4
100
AcDbLine
 10
-152.5249899999999
 20
30.29800299999999
 30
0.0
 11
-152.5249899999999
 21
29.678008
 31
0.0
  0
LINE
  5
46C
330
22
100
AcDbEntity
  8
0
 62
     4
100
AcDbLine
 10
-138.064984
 20
30.84800599999999
 30
0.0
 11
-142.5249899999999
 21
30.84800599999999
 31
0.0
  0
LINE
  5
46D
330
22
100
AcDbEntity
  8
0
 62
     4
100
AcDbLine
 10
-138.5249899999999
 20
29.14800899999999
 30
0.0
 11
-142.5249899999999
 21
29.14800899999999
 31
0.0
  0
LINE
  5
46E
330
22
100
AcDbEntity
  8
0
  6
PHANTOM
 62
     1
100
AcDbLine
 10
-137.534985
 20
32.84800599999999
 30
0.0
 11
-139.064987
 21
27.148009
 31
0.0
  0
LINE
  5
46F
330
22
100
AcDbEntity
  8
0
  6
PHANTOM
 62
     1
100
AcDbLine
 10
-135.984986
 20
32.84800599999999
 30
0.0
 11
-137.504986
 21
27.147994
 31
0.0
  0
LINE
  5
470
330
22
100
AcDbEntity
  8
0
 62
     4
100
AcDbLine
 10
-142.5249899999999
 20
30.84800599999999
 30
0.0
 11
-142.5249899999999
 21
29.14800899999999
 31
0.0
  0
LINE
  5
471
330
22
100
AcDbEntity
  8
0
 62
     4
100
AcDbLine
 10
-142.5249899999999
 20
29.678008
 30
0.0
 11
-152.5249899999999
 21
29.678008
 31
0.0
  0
LINE
  5
472
330
22
100
AcDbEntity
  8
0
 62
     4
100
AcDbLine
 10
-142.5249899999999
 20
30.31800799999999
 30
0.0
 11
-152.5249899999999
 21
30.31800799999999
 31
0.0
  0
LINE
  5
473
330
22
100
AcDbEntity
  8
0
 62
     4
100
AcDbLine
 10
-132.5249899999999
 20
30.84800599999999
 30
0.0
 11
-136.514981
 21
30.84800599999999
 31
0.0
  0
LINE
  5
474
330
22
100
AcDbEntity
  8
0
 62
     4
100
AcDbLine
 10
-132.5249899999999
 20
29.14800899999999
 30
0.0
 11
-136.974987
 21
29.14800899999999
 31
0.0
  0
LINE
  5
475
330
22
100
AcDbEntity
  8
0
 62
     4
100
AcDbLine
 10
-122.3249819999999
 20
27.398009
 30
0.0
 11
-121.1249849999999
 21
27.398009
 31
0.0
  0
LINE
  5
476
330
22
100
AcDbEntity
  8
0
 62
     4
100
AcDbLine
 10
-122.3249819999999
 20
28.898009
 30
0.0
 11
-122.3249819999999
 21
27.398009
 31
0.0
  0
LINE
  5
477
330
22
100
AcDbEntity
  8
0
 62
     4
100
AcDbLine
 10
-132.5249899999999
 20
31.498016
 30
0.0
 11
-132.5249899999999
 21
26.498016
 31
0.0
  0
LINE
  5
478
330
22
100
AcDbEntity
  8
0
 62
     4
100
AcDbLine
 10
-125.024994
 20
31.498016
 30
0.0
 11
-132.5249899999999
 21
31.498016
 31
0.0
  0
LINE
  5
479
330
22
100
AcDbEntity
  8
0
 62
     4
100
AcDbLine
 10
-125.024994
 20
32.498016
 30
0.0
 11
-125.344986
 21
32.498016
 31
0.0
  0
LINE
  5
47A
330
22
100
AcDbEntity
  8
0
 62
     4
100
AcDbLine
 10
-126.3249819999999
 20
31.79800299999999
 30
0.0
 11
-132.224987
 21
31.79800299999999
 31
0.0
  0
LINE
  5
47B
330
22
100
AcDbEntity
  8
0
 62
     4
100
AcDbLine
 10
-121.724984
 20
31.797988
 30
0.0
 11
-122.0249869999999
 21
31.498016
 31
0.0
  0
LINE
  5
47C
330
22
100
AcDbEntity
  8
0
 62
     4
100
AcDbLine
 10
-126.024994
 20
31.498016
 30
0.0
 11
-126.32499
 21
31.79800299999999
 31
0.0
  0
LINE
  5
47D
330
22
100
AcDbEntity
  8
0
 62
     4
100
AcDbLine
 10
-132.22498
 20
31.79800299999999
 30
0.0
 11
-132.5249829999999
 21
31.498016
 31
0.0
  0
LINE
  5
47E
330
22
100
AcDbEntity
  8
0
 62
     4
100
AcDbLine
 10
-121.1249849999999
 20
31.79800299999999
 30
0.0
 11
-121.724991
 21
31.79800299999999
 31
0.0
  0
LINE
  5
47F
330
22
100
AcDbEntity
  8
0
 62
     4
100
AcDbLine
 10
-124.524994
 20
27.498016
 30
0.0
 11
-124.524994
 21
26.498016
 31
0.0
  0
LINE
  5
480
330
22
100
AcDbEntity
  8
0
 62
     4
100
AcDbLine
 10
-121.1249849999999
 20
31.498016
 30
0.0
 11
-123.024994
 21
31.498016
 31
0.0
  0
LINE
  5
481
330
22
100
AcDbEntity
  8
0
 62
     4
100
AcDbLine
 10
-131.0249829999999
 20
33.49799999999998
 30
0.0
 11
-125.344994
 21
32.49799999999999
 31
0.0
  0
LINE
  5
482
330
22
100
AcDbEntity
  8
0
 62
     4
100
AcDbLine
 10
-130.5249869999999
 20
34.49799999999998
 30
0.0
 11
-124.844979
 21
33.49799999999998
 31
0.0
  0
LINE
  5
483
330
22
100
AcDbEntity
  8
0
 62
     4
100
AcDbLine
 10
-132.5249899999999
 20
33.498016
 30
0.0
 11
-131.0249899999999
 21
33.498016
 31
0.0
  0
LINE
  5
484
330
22
100
AcDbEntity
  8
0
 62
     4
100
AcDbLine
 10
-132.5249899999999
 20
34.498016
 30
0.0
 11
-130.5249899999999
 21
34.498016
 31
0.0
  0
LINE
  5
485
330
22
100
AcDbEntity
  8
0
 62
     4
100
AcDbLine
 10
-113.524994
 20
33.498016
 30
0.0
 11
-124.844986
 21
33.498016
 31
0.0
  0
LINE
  5
486
330
22
100
AcDbEntity
  8
0
 62
     4
100
AcDbLine
 10
-132.5249899999999
 20
30.698012
 30
0.0
 11
-121.1249849999999
 21
30.698012
 31
0.0
  0
LINE
  5
487
330
22
100
AcDbEntity
  8
0
 62
     4
100
AcDbLine
 10
-132.5249899999999
 20
28.898009
 30
0.0
 11
-121.1249849999999
 21
28.898009
 31
0.0
  0
LINE
  5
488
330
22
100
AcDbEntity
  8
0
 62
     4
100
AcDbLine
 10
-131.0249899999999
 20
27.498016
 30
0.0
 11
-124.524994
 21
27.498016
 31
0.0
  0
LINE
  5
489
330
22
100
AcDbEntity
  8
0
 62
     4
100
AcDbLine
 10
-132.5249899999999
 20
26.498016
 30
0.0
 11
-131.0249899999999
 21
26.498016
 31
0.0
  0
LINE
  5
48A
330
22
100
AcDbEntity
  8
0
 62
     4
100
AcDbLine
 10
-113.524994
 20
33.498016
 30
0.0
 11
-113.524994
 21
32.498016
 31
0.0
  0
LINE
  5
48B
330
22
100
AcDbEntity
  8
0
 62
     4
100
AcDbLine
 10
-131.0249899999999
 20
27.498016
 30
0.0
 11
-131.0249899999999
 21
26.498016
 31
0.0
  0
LINE
  5
48C
330
22
100
AcDbEntity
  8
0
 62
     4
100
AcDbLine
 10
-132.5249899999999
 20
34.498016
 30
0.0
 11
-132.5249899999999
 21
33.498016
 31
0.0
  0
LINE
  5
48D
330
22
100
AcDbEntity
  8
0
 62
     4
100
AcDbLine
 10
-89.15499099999999
 20
33.698012
 30
0.0
 11
-89.02499399999999
 21
33.698012
 31
0.0
  0
LINE
  5
48E
330
22
100
AcDbEntity
  8
0
 62
     4
100
AcDbLine
 10
-93.27498699999996
 20
33.55801300000001
 30
0.0
 11
-93.27498699999996
 21
32.29800299999999
 31
0.0
  0
LINE
  5
48F
330
22
100
AcDbEntity
  8
0
 62
     4
100
AcDbLine
 10
-88.77499399999999
 20
33.55801300000001
 30
0.0
 11
-88.77499399999999
 21
32.29800299999999
 31
0.0
  0
LINE
  5
490
330
22
100
AcDbEntity
  8
0
 62
     4
100
AcDbLine
 10
-93.57499000000002
 20
32.29800299999999
 30
0.0
 11
-93.57499000000002
 21
31.698012
 31
0.0
  0
LINE
  5
491
330
22
100
AcDbEntity
  8
0
 62
     4
100
AcDbLine
 10
-88.47499099999998
 20
32.29800299999999
 30
0.0
 11
-88.47499099999998
 21
31.698012
 31
0.0
  0
LINE
  5
492
330
22
100
AcDbEntity
  8
0
 62
     4
100
AcDbLine
 10
-88.47499099999998
 20
32.29800299999999
 30
0.0
 11
-93.57499000000002
 21
32.29800299999999
 31
0.0
  0
LINE
  5
493
330
22
100
AcDbEntity
  8
0
 62
     4
100
AcDbLine
 10
-94.02498699999995
 20
33.698012
 30
0.0
 11
-94.02498699999995
 21
31.698012
 31
0.0
  0
LINE
  5
494
330
22
100
AcDbEntity
  8
0
 62
     4
100
AcDbLine
 10
-88.024994
 20
31.69799700000001
 30
0.0
 11
-88.77499399999999
 21
33.19799700000001
 31
0.0
  0
LINE
  5
495
330
22
100
AcDbEntity
  8
0
 62
     4
100
AcDbLine
 10
-112.024994
 20
31.69799700000001
 30
0.0
 11
-111.024994
 21
33.69799700000001
 31
0.0
  0
LINE
  5
496
330
22
100
AcDbEntity
  8
0
 62
     4
100
AcDbLine
 10
-88.024994
 20
31.698012
 30
0.0
 11
-112.024994
 21
31.698012
 31
0.0
  0
LINE
  5
497
330
22
100
AcDbEntity
  8
0
 62
     4
100
AcDbLine
 10
-111.024994
 20
33.698012
 30
0.0
 11
-92.90499099999999
 21
33.698012
 31
0.0
  0
LINE
  5
498
330
22
100
AcDbEntity
  8
0
 62
     4
100
AcDbLine
 10
-112.024994
 20
26.498016
 30
0.0
 11
-124.524994
 21
26.498016
 31
0.0
  0
LINE
  5
499
330
22
100
AcDbEntity
  8
0
 62
     4
100
AcDbLine
 10
-121.1249849999999
 20
32.498016
 30
0.0
 11
-121.1249849999999
 21
26.498016
 31
0.0
  0
LINE
  5
49A
330
22
100
AcDbEntity
  8
0
 62
     4
100
AcDbLine
 10
-112.024994
 20
32.498016
 30
0.0
 11
-123.024994
 21
32.498016
 31
0.0
  0
LINE
  5
49B
330
22
100
AcDbEntity
  8
0
 62
     4
100
AcDbLine
 10
-122.024994
 20
26.498016
 30
0.0
 11
-122.024994
 21
5.498016
 31
0.0
  0
LINE
  5
49C
330
22
100
AcDbEntity
  8
0
 62
     4
100
AcDbLine
 10
-112.024994
 20
32.498016
 30
0.0
 11
-112.024994
 21
5.498016
 31
0.0
  0
LINE
  5
49D
330
22
100
AcDbEntity
  8
0
 62
     4
100
AcDbLine
 10
-88.024994
 20
31.698012
 30
0.0
 11
-88.024994
 21
5.498016
 31
0.0
  0
LINE
  5
49E
330
22
100
AcDbEntity
  8
0
 62
     4
100
AcDbLine
 10
-112.024994
 20
5.498016
 30
0.0
 11
-122.024994
 21
5.498016
 31
0.0
  0
LINE
  5
49F
330
22
100
AcDbEntity
  8
0
 62
     4
100
AcDbLine
 10
-88.024994
 20
30.698012
 30
0.0
 11
-112.024994
 21
30.698012
 31
0.0
  0
LINE
  5
4A0
330
22
100
AcDbEntity
  8
0
  6
CENTER
 62
     2
100
AcDbLine
 10
-100.029999
 20
38.698012
 30
0.0
 11
-100.029999
 21
0.4980160000000007
 31
0.0
  0
LINE
  5
4A1
330
22
100
AcDbEntity
  8
0
100
AcDbLine
 10
-88.03004499999998
 20
5.498007999999992
 30
0.0
 11
-112.030045
 21
5.497947000000004
 31
0.0
  0
ARC
  5
4A2
330
22
100
AcDbEntity
  8
0
 62
     4
100
AcDbCircle
 10
-123.024994
 20
31.998016
 30
0.0
 40
0.5
100
AcDbArc
 50
90.0
 51
270.0
  0
ARC
  5
4A3
330
22
100
AcDbEntity
  8
0
 62
     4
100
AcDbCircle
 10
-125.024994
 20
31.998016
 30
0.0
 40
0.5
100
AcDbArc
 50
270.0
 51
90.0
  0
ARC
  5
4A4
330
22
100
AcDbEntity
  8
0
 62
     4
100
AcDbCircle
 10
-109.0199889999999
 20
27.99790899999999
 30
0.0
 40
6.000553
100
AcDbArc
 50
71.79177900000062
 51
108.2082209999994
  0
ARC
  5
4A5
330
22
100
AcDbEntity
  8
0
 62
     4
100
AcDbCircle
 10
-91.02499399999999
 20
27.99795399999999
 30
0.0
 40
5.998048
100
AcDbArc
 50
67.96814699999979
 51
112.0318530000002
  0
LINE
  5
4E9
330
22
100
AcDbEntity
  8
0
 62
     4
100
AcDbLine
 10
33.695053
 20
33.63801499999999
 30
0.0
 11
33.675049
 21
33.698013
 31
0.0
  0
LINE
  5
4EA
330
22
100
AcDbEntity
  8
0
 62
     4
100
AcDbLine
 10
60.71504200000001
 20
29.14800999999999
 30
0.0
 11
65.17503400000001
 21
29.14800999999999
 31
0.0
  0
LINE
  5
4EB
330
22
100
AcDbEntity
  8
0
 62
     4
100
AcDbLine
 10
61.17503400000001
 20
30.84800699999999
 30
0.0
 11
65.17503400000001
 21
30.84800699999999
 31
0.0
  0
LINE
  5
4EC
330
22
100
AcDbEntity
  8
0
  6
PHANTOM
 62
     1
100
AcDbLine
 10
60.18503599999999
 20
27.14802499999998
 30
0.0
 11
61.715034
 21
32.84800699999999
 31
0.0
  0
LINE
  5
4ED
330
22
100
AcDbEntity
  8
0
  6
PHANTOM
 62
     1
100
AcDbLine
 10
58.63504
 20
27.14801
 30
0.0
 11
60.15504100000001
 21
32.84800699999999
 31
0.0
  0
LINE
  5
4EE
330
22
100
AcDbEntity
  8
0
 62
     4
100
AcDbLine
 10
75.17503400000001
 20
30.31800799999999
 30
0.0
 11
75.17503400000001
 21
29.678008
 31
0.0
  0
LINE
  5
4EF
330
22
100
AcDbEntity
  8
0
 62
     4
100
AcDbLine
 10
65.17503400000001
 20
30.84800699999999
 30
0.0
 11
65.17503400000001
 21
29.14800999999999
 31
0.0
  0
LINE
  5
4F0
330
22
100
AcDbEntity
  8
0
 62
     4
100
AcDbLine
 10
65.17503400000001
 20
29.678008
 30
0.0
 11
75.17503400000001
 21
29.678008
 31
0.0
  0
LINE
  5
4F1
330
22
100
AcDbEntity
  8
0
 62
     4
100
AcDbLine
 10
65.17503400000001
 20
30.31800799999999
 30
0.0
 11
75.17503400000001
 21
30.31800799999999
 31
0.0
  0
LINE
  5
4F2
330
22
100
AcDbEntity
  8
0
 62
     4
100
AcDbLine
 10
55.17503400000001
 20
30.84800699999999
 30
0.0
 11
59.62504600000002
 21
30.84800699999999
 31
0.0
  0
LINE
  5
4F3
330
22
100
AcDbEntity
  8
0
 62
     4
100
AcDbLine
 10
55.17503400000001
 20
29.14800999999999
 30
0.0
 11
59.16503900000001
 21
29.14800999999999
 31
0.0
  0
LINE
  5
4F4
330
22
100
AcDbEntity
  8
0
 62
     4
100
AcDbLine
 10
44.97503700000001
 20
27.39800999999999
 30
0.0
 11
43.77504000000001
 21
27.39800999999999
 31
0.0
  0
LINE
  5
4F5
330
22
100
AcDbEntity
  8
0
 62
     4
100
AcDbLine
 10
44.97503700000001
 20
28.89800999999999
 30
0.0
 11
44.97503700000001
 21
27.39800999999999
 31
0.0
  0
LINE
  5
4F6
330
22
100
AcDbEntity
  8
0
 62
     4
100
AcDbLine
 10
55.17503400000001
 20
31.498016
 30
0.0
 11
55.17503400000001
 21
26.498016
 31
0.0
  0
LINE
  5
4F7
330
22
100
AcDbEntity
  8
0
 62
     4
100
AcDbLine
 10
47.67503400000001
 20
31.498016
 30
0.0
 11
55.17503400000001
 21
31.498016
 31
0.0
  0
LINE
  5
4F8
330
22
100
AcDbEntity
  8
0
 62
     4
100
AcDbLine
 10
47.67503400000001
 20
32.498016
 30
0.0
 11
47.99504099999999
 21
32.498016
 31
0.0
  0
LINE
  5
4F9
330
22
100
AcDbEntity
  8
0
 62
     4
100
AcDbLine
 10
48.97503700000001
 20
31.79800399999999
 30
0.0
 11
54.87504600000002
 21
31.79800399999999
 31
0.0
  0
LINE
  5
4FA
330
22
100
AcDbEntity
  8
0
 62
     4
100
AcDbLine
 10
44.37504600000003
 20
31.79801899999997
 30
0.0
 11
44.675049
 21
31.498016
 31
0.0
  0
LINE
  5
4FB
330
22
100
AcDbEntity
  8
0
 62
     4
100
AcDbLine
 10
48.67505600000001
 20
31.498016
 30
0.0
 11
48.97505200000001
 21
31.79800399999999
 31
0.0
  0
LINE
  5
4FC
330
22
100
AcDbEntity
  8
0
 62
     4
100
AcDbLine
 10
54.87504600000002
 20
31.79801899999997
 30
0.0
 11
55.175037
 21
31.498016
 31
0.0
  0
LINE
  5
4FD
330
22
100
AcDbEntity
  8
0
 62
     4
100
AcDbLine
 10
43.77504000000001
 20
31.79800399999999
 30
0.0
 11
44.37504600000003
 21
31.79800399999999
 31
0.0
  0
LINE
  5
4FE
330
22
100
AcDbEntity
  8
0
 62
     4
100
AcDbLine
 10
47.175034
 20
27.498016
 30
0.0
 11
47.175034
 21
26.498016
 31
0.0
  0
LINE
  5
4FF
330
22
100
AcDbEntity
  8
0
 62
     4
100
AcDbLine
 10
43.77504000000001
 20
31.498016
 30
0.0
 11
45.67503400000001
 21
31.498016
 31
0.0
  0
LINE
  5
500
330
22
100
AcDbEntity
  8
0
 62
     4
100
AcDbLine
 10
53.675049
 20
33.49803099999999
 30
0.0
 11
47.99504099999999
 21
32.49803099999999
 31
0.0
  0
LINE
  5
501
330
22
100
AcDbEntity
  8
0
 62
     4
100
AcDbLine
 10
53.17504500000001
 20
34.498016
 30
0.0
 11
47.49504900000002
 21
33.498016
 31
0.0
  0
LINE
  5
502
330
22
100
AcDbEntity
  8
0
 62
     4
100
AcDbLine
 10
55.17503400000001
 20
33.498016
 30
0.0
 11
53.67503400000001
 21
33.498016
 31
0.0
  0
LINE
  5
503
330
22
100
AcDbEntity
  8
0
 62
     4
100
AcDbLine
 10
55.17503400000001
 20
34.498016
 30
0.0
 11
53.17503400000001
 21
34.498016
 31
0.0
  0
LINE
  5
504
330
22
100
AcDbEntity
  8
0
 62
     4
100
AcDbLine
 10
36.175049
 20
33.498016
 30
0.0
 11
47.49504099999998
 21
33.498016
 31
0.0
  0
LINE
  5
505
330
22
100
AcDbEntity
  8
0
 62
     4
100
AcDbLine
 10
55.17503400000001
 20
30.698013
 30
0.0
 11
43.77504000000001
 21
30.698013
 31
0.0
  0
LINE
  5
506
330
22
100
AcDbEntity
  8
0
 62
     4
100
AcDbLine
 10
55.17503400000001
 20
28.89800999999999
 30
0.0
 11
43.77504000000001
 21
28.89800999999999
 31
0.0
  0
LINE
  5
507
330
22
100
AcDbEntity
  8
0
 62
     4
100
AcDbLine
 10
53.67503400000001
 20
27.498016
 30
0.0
 11
47.175034
 21
27.498016
 31
0.0
  0
LINE
  5
508
330
22
100
AcDbEntity
  8
0
 62
     4
100
AcDbLine
 10
55.17503400000001
 20
26.498016
 30
0.0
 11
53.67503400000001
 21
26.498016
 31
0.0
  0
LINE
  5
509
330
22
100
AcDbEntity
  8
0
 62
     4
100
AcDbLine
 10
36.175049
 20
33.498016
 30
0.0
 11
36.175049
 21
32.498016
 31
0.0
  0
LINE
  5
50A
330
22
100
AcDbEntity
  8
0
 62
     4
100
AcDbLine
 10
53.67503400000001
 20
27.498016
 30
0.0
 11
53.67503400000001
 21
26.498016
 31
0.0
  0
LINE
  5
50B
330
22
100
AcDbEntity
  8
0
 62
     4
100
AcDbLine
 10
55.17503400000001
 20
34.498016
 30
0.0
 11
55.17503400000001
 21
33.498016
 31
0.0
  0
LINE
  5
50C
330
22
100
AcDbEntity
  8
0
 62
     4
100
AcDbLine
 10
33.54504399999999
 20
33.698013
 30
0.0
 11
33.675049
 21
33.698013
 31
0.0
  0
LINE
  5
50D
330
22
100
AcDbEntity
  8
0
 62
     4
100
AcDbLine
 10
29.425049
 20
33.55801300000001
 30
0.0
 11
29.425049
 21
32.29800399999998
 31
0.0
  0
LINE
  5
50E
330
22
100
AcDbEntity
  8
0
 62
     4
100
AcDbLine
 10
33.925049
 20
33.55801300000001
 30
0.0
 11
33.925049
 21
32.29800399999998
 31
0.0
  0
LINE
  5
50F
330
22
100
AcDbEntity
  8
0
 62
     4
100
AcDbLine
 10
29.12504600000003
 20
32.29800399999998
 30
0.0
 11
29.12504600000003
 21
31.698013
 31
0.0
  0
LINE
  5
510
330
22
100
AcDbEntity
  8
0
 62
     4
100
AcDbLine
 10
34.22505200000001
 20
32.29800399999998
 30
0.0
 11
34.22505200000001
 21
31.698013
 31
0.0
  0
LINE
  5
511
330
22
100
AcDbEntity
  8
0
 62
     4
100
AcDbLine
 10
34.22505200000001
 20
32.29800399999998
 30
0.0
 11
29.12504600000003
 21
32.29800399999998
 31
0.0
  0
LINE
  5
512
330
22
100
AcDbEntity
  8
0
 62
     4
100
AcDbLine
 10
28.675049
 20
33.698013
 30
0.0
 11
28.675049
 21
31.698013
 31
0.0
  0
LINE
  5
513
330
22
100
AcDbEntity
  8
0
 62
     4
100
AcDbLine
 10
34.67504099999999
 20
31.698013
 30
0.0
 11
33.925041
 21
33.19799699999998
 31
0.0
  0
LINE
  5
514
330
22
100
AcDbEntity
  8
0
 62
     4
100
AcDbLine
 10
10.67505600000001
 20
31.69799699999998
 30
0.0
 11
11.67505600000001
 21
33.69799699999998
 31
0.0
  0
LINE
  5
515
330
22
100
AcDbEntity
  8
0
 62
     4
100
AcDbLine
 10
10.675049
 20
31.698013
 30
0.0
 11
34.675049
 21
31.698013
 31
0.0
  0
LINE
  5
516
330
22
100
AcDbEntity
  8
0
 62
     4
100
AcDbLine
 10
11.675049
 20
33.698013
 30
0.0
 11
29.795052
 21
33.698013
 31
0.0
  0
LINE
  5
517
330
22
100
AcDbEntity
  8
0
 62
     4
100
AcDbLine
 10
34.675049
 20
26.498016
 30
0.0
 11
47.175034
 21
26.498016
 31
0.0
  0
LINE
  5
518
330
22
100
AcDbEntity
  8
0
 62
     4
100
AcDbLine
 10
43.77504000000001
 20
32.498016
 30
0.0
 11
43.77504000000001
 21
26.498016
 31
0.0
  0
LINE
  5
519
330
22
100
AcDbEntity
  8
0
 62
     4
100
AcDbLine
 10
34.675049
 20
32.498016
 30
0.0
 11
45.67503400000001
 21
32.498016
 31
0.0
  0
LINE
  5
51A
330
22
100
AcDbEntity
  8
0
 62
     4
100
AcDbLine
 10
44.675034
 20
26.498016
 30
0.0
 11
44.675034
 21
5.498016
 31
0.0
  0
LINE
  5
51B
330
22
100
AcDbEntity
  8
0
 62
     4
100
AcDbLine
 10
34.675049
 20
32.498016
 30
0.0
 11
34.675049
 21
5.498016
 31
0.0
  0
LINE
  5
51C
330
22
100
AcDbEntity
  8
0
 62
     4
100
AcDbLine
 10
10.675049
 20
31.698013
 30
0.0
 11
10.675049
 21
5.498016
 31
0.0
  0
LINE
  5
51D
330
22
100
AcDbEntity
  8
0
 62
     4
100
AcDbLine
 10
34.675049
 20
5.498016
 30
0.0
 11
44.675034
 21
5.498016
 31
0.0
  0
LINE
  5
51E
330
22
100
AcDbEntity
  8
0
 62
     4
100
AcDbLine
 10
10.675049
 20
30.698013
 30
0.0
 11
34.675049
 21
30.698013
 31
0.0
  0
LINE
  5
51F
330
22
100
AcDbEntity
  8
0
  6
CENTER
 62
     2
100
AcDbLine
 10
22.680038
 20
38.698013
 30
0.0
 11
22.680038
 21
0.4980159999999865
 31
0.0
  0
LINE
  5
520
330
22
100
AcDbEntity
  8
0
100
AcDbLine
 10
10.675049
 20
5.498016
 30
0.0
 11
34.675049
 21
5.498016
 31
0.0
  0
ARC
  5
521
330
22
100
AcDbEntity
  8
0
 62
     4
100
AcDbCircle
 10
45.67503400000001
 20
31.998016
 30
0.0
 40
0.5
100
AcDbArc
 50
270.0
 51
90.0
  0
ARC
  5
522
330
22
100
AcDbEntity
  8
0
 62
     4
100
AcDbCircle
 10
47.67503400000001
 20
31.998016
 30
0.0
 40
0.5
100
AcDbArc
 50
90.0
 51
270.0
  0
ARC
  5
523
330
22
100
AcDbEntity
  8
0
 62
     4
100
AcDbCircle
 10
15.134071
 20
32.98805199999998
 30
0.0
 40
0.80103
100
AcDbArc
 50
62.4108580000001
 51
73.98624400000065
  0
ARC
  5
524
330
22
100
AcDbEntity
  8
0
 62
     4
100
AcDbCircle
 10
12.224625
 20
32.991577
 30
0.0
 40
0.7972660000000001
100
AcDbArc
 50
105.9863659999997
 51
117.6165310000008
  0
ARC
  5
525
330
22
100
AcDbEntity
  8
0
 62
     4
100
AcDbCircle
 10
13.680046
 20
27.997985
 30
0.0
 40
6.000483
100
AcDbArc
 50
71.7914809999997
 51
108.2083819999999
  0
ARC
  5
526
330
22
100
AcDbEntity
  8
0
 62
     4
100
AcDbCircle
 10
31.675049
 20
27.99803099999999
 30
0.0
 40
5.997991999999999
100
AcDbArc
 50
67.96792599999927
 51
112.0320740000007
  0
LINE
  5
57C
330
22
100
AcDbEntity
  8
0
 62
     4
100
AcDbLine
 10
86.55006400000001
 20
38.13803100000001
 30
0.0
 11
86.57006500000004
 21
38.19804400000001
 31
0.0
  0
LINE
  5
57D
330
22
100
AcDbEntity
  8
0
 62
     4
100
AcDbLine
 10
99.57006700000004
 20
38.19804400000001
 30
0.0
 11
97.07006700000004
 21
38.19804400000001
 31
0.0
  0
LINE
  5
57E
330
22
100
AcDbEntity
  8
0
 62
     4
100
AcDbLine
 10
95.07006600000003
 20
33.54803499999999
 30
0.0
 11
95.07006600000003
 21
33.24804700000001
 31
0.0
  0
LINE
  5
57F
330
22
100
AcDbEntity
  8
0
 62
     4
100
AcDbLine
 10
96.07006600000005
 20
33.54803499999999
 30
0.0
 11
96.07006600000005
 21
33.24804700000001
 31
0.0
  0
LINE
  5
580
330
22
100
AcDbEntity
  8
0
 62
     4
100
AcDbLine
 10
93.57006700000004
 20
33.54803499999999
 30
0.0
 11
93.57006700000004
 21
33.24804700000001
 31
0.0
  0
LINE
  5
581
330
22
100
AcDbEntity
  8
0
 62
     4
100
AcDbLine
 10
92.57006700000003
 20
33.54803499999999
 30
0.0
 11
92.57006700000003
 21
33.24804700000001
 31
0.0
  0
LINE
  5
582
330
22
100
AcDbEntity
  8
0
 62
     4
100
AcDbLine
 10
91.07006700000004
 20
33.54803499999999
 30
0.0
 11
91.07006700000004
 21
33.24804700000001
 31
0.0
  0
LINE
  5
583
330
22
100
AcDbEntity
  8
0
 62
     4
100
AcDbLine
 10
90.07006700000003
 20
33.54803499999999
 30
0.0
 11
90.07006700000003
 21
33.24804700000001
 31
0.0
  0
LINE
  5
584
330
22
100
AcDbEntity
  8
0
 62
     4
100
AcDbLine
 10
95.07006600000003
 20
33.24804700000001
 30
0.0
 11
96.07006600000005
 21
33.24804700000001
 31
0.0
  0
LINE
  5
585
330
22
100
AcDbEntity
  8
0
 62
     4
100
AcDbLine
 10
92.57006700000003
 20
33.24804700000001
 30
0.0
 11
93.57006700000004
 21
33.24804700000001
 31
0.0
  0
LINE
  5
586
330
22
100
AcDbEntity
  8
0
 62
     4
100
AcDbLine
 10
90.07006700000003
 20
33.24804700000001
 30
0.0
 11
91.07006700000004
 21
33.24804700000001
 31
0.0
  0
LINE
  5
587
330
22
100
AcDbEntity
  8
0
 62
     4
100
AcDbLine
 10
94.62006700000005
 20
35.648041
 30
0.0
 11
96.52006600000003
 21
35.648041
 31
0.0
  0
LINE
  5
588
330
22
100
AcDbEntity
  8
0
 62
     4
100
AcDbLine
 10
92.12006700000005
 20
35.648041
 30
0.0
 11
94.02006700000002
 21
35.648041
 31
0.0
  0
LINE
  5
589
330
22
100
AcDbEntity
  8
0
 62
     4
100
AcDbLine
 10
89.62006700000005
 20
35.648041
 30
0.0
 11
91.52006700000002
 21
35.648041
 31
0.0
  0
LINE
  5
58A
330
22
100
AcDbEntity
  8
0
 62
     4
100
AcDbLine
 10
89.07006700000003
 20
38.99804700000001
 30
0.0
 11
89.07006700000003
 21
35.198044
 31
0.0
  0
LINE
  5
58B
330
22
100
AcDbEntity
  8
0
 62
     4
100
AcDbLine
 10
97.07006700000004
 20
38.99804700000001
 30
0.0
 11
97.07006700000004
 21
35.198044
 31
0.0
  0
LINE
  5
58C
330
22
100
AcDbEntity
  8
0
 62
     4
100
AcDbLine
 10
89.07006700000003
 20
38.99804700000001
 30
0.0
 11
97.07006700000004
 21
38.99804700000001
 31
0.0
  0
LINE
  5
58D
330
22
100
AcDbEntity
  8
0
 62
     4
100
AcDbLine
 10
89.37006700000004
 20
36.29803499999999
 30
0.0
 11
96.77006600000003
 21
36.29803499999999
 31
0.0
  0
LINE
  5
58E
330
22
100
AcDbEntity
  8
0
 62
     4
100
AcDbLine
 10
88.87006800000005
 20
35.99804700000001
 30
0.0
 11
97.27006600000002
 21
35.99804700000001
 31
0.0
  0
LINE
  5
58F
330
22
100
AcDbEntity
  8
0
 62
     4
100
AcDbLine
 10
94.62006700000005
 20
35.448044
 30
0.0
 11
96.52006600000003
 21
35.448044
 31
0.0
  0
LINE
  5
590
330
22
100
AcDbEntity
  8
0
 62
     4
100
AcDbLine
 10
94.62006700000005
 20
33.54803499999999
 30
0.0
 11
96.52006600000003
 21
33.54803499999999
 31
0.0
  0
LINE
  5
591
330
22
100
AcDbEntity
  8
0
 62
     4
100
AcDbLine
 10
92.12006700000005
 20
33.54803499999999
 30
0.0
 11
94.02006700000002
 21
33.54803499999999
 31
0.0
  0
LINE
  5
592
330
22
100
AcDbEntity
  8
0
 62
     4
100
AcDbLine
 10
92.12006700000005
 20
35.448044
 30
0.0
 11
94.02006700000002
 21
35.448044
 31
0.0
  0
LINE
  5
593
330
22
100
AcDbEntity
  8
0
 62
     4
100
AcDbLine
 10
94.62006700000005
 20
35.648041
 30
0.0
 11
94.62006700000005
 21
33.54803499999999
 31
0.0
  0
LINE
  5
594
330
22
100
AcDbEntity
  8
0
 62
     4
100
AcDbLine
 10
96.52006600000003
 20
35.648041
 30
0.0
 11
96.52006600000003
 21
33.54803499999999
 31
0.0
  0
LINE
  5
595
330
22
100
AcDbEntity
  8
0
 62
     4
100
AcDbLine
 10
94.02006700000002
 20
35.648041
 30
0.0
 11
94.02006700000002
 21
33.54803499999999
 31
0.0
  0
LINE
  5
596
330
22
100
AcDbEntity
  8
0
 62
     4
100
AcDbLine
 10
92.12006700000005
 20
35.648041
 30
0.0
 11
92.12006700000005
 21
33.54803499999999
 31
0.0
  0
LINE
  5
597
330
22
100
AcDbEntity
  8
0
 62
     4
100
AcDbLine
 10
91.52006700000002
 20
35.648041
 30
0.0
 11
91.52006700000002
 21
33.54803499999999
 31
0.0
  0
LINE
  5
598
330
22
100
AcDbEntity
  8
0
 62
     4
100
AcDbLine
 10
89.62006700000005
 20
35.648041
 30
0.0
 11
89.62006700000005
 21
33.54803499999999
 31
0.0
  0
LINE
  5
599
330
22
100
AcDbEntity
  8
0
 62
     4
100
AcDbLine
 10
89.62006700000005
 20
33.54803499999999
 30
0.0
 11
91.52006700000002
 21
33.54803499999999
 31
0.0
  0
LINE
  5
59A
330
22
100
AcDbEntity
  8
0
 62
     4
100
AcDbLine
 10
89.62006700000005
 20
35.448044
 30
0.0
 11
91.52006700000002
 21
35.448044
 31
0.0
  0
LINE
  5
59B
330
22
100
AcDbEntity
  8
0
 62
     4
100
AcDbLine
 10
97.07006700000004
 20
35.198044
 30
0.0
 11
98.57006700000004
 21
35.198044
 31
0.0
  0
LINE
  5
59C
330
22
100
AcDbEntity
  8
0
 62
     4
100
AcDbLine
 10
97.07006700000004
 20
33.398041
 30
0.0
 11
97.07006700000004
 21
30.99804700000001
 31
0.0
  0
LINE
  5
59D
330
22
100
AcDbEntity
  8
0
 62
     4
100
AcDbLine
 10
89.07006700000003
 20
33.398041
 30
0.0
 11
89.07006700000003
 21
30.99804700000001
 31
0.0
  0
LINE
  5
59E
330
22
100
AcDbEntity
  8
0
 62
     4
100
AcDbLine
 10
97.07006500000005
 20
35.99804700000001
 30
0.0
 11
96.77006700000003
 21
36.29805000000001
 31
0.0
  0
LINE
  5
59F
330
22
100
AcDbEntity
  8
0
 62
     4
100
AcDbLine
 10
89.07007300000001
 20
35.99803200000002
 30
0.0
 11
89.37007700000002
 21
36.29803499999999
 31
0.0
  0
LINE
  5
5A0
330
22
100
AcDbEntity
  8
0
 62
     4
100
AcDbLine
 10
98.57006700000004
 20
35.198044
 30
0.0
 11
98.57006700000004
 21
33.398041
 31
0.0
  0
LINE
  5
5A1
330
22
100
AcDbEntity
  8
0
 62
     4
100
AcDbLine
 10
87.57006800000004
 20
35.198044
 30
0.0
 11
87.57006800000004
 21
33.398041
 31
0.0
  0
LINE
  5
5A2
330
22
100
AcDbEntity
  8
0
 62
     4
100
AcDbLine
 10
89.07006700000003
 20
37.99804700000001
 30
0.0
 11
97.07006700000004
 21
37.99804700000001
 31
0.0
  0
LINE
  5
5A3
330
22
100
AcDbEntity
  8
0
 62
     4
100
AcDbLine
 10
87.57006800000004
 20
35.198044
 30
0.0
 11
89.07006700000003
 21
35.198044
 31
0.0
  0
LINE
  5
5A4
330
22
100
AcDbEntity
  8
0
 62
     4
100
AcDbLine
 10
97.07006700000004
 20
33.398041
 30
0.0
 11
98.77006600000003
 21
33.398041
 31
0.0
  0
LINE
  5
5A5
330
22
100
AcDbEntity
  8
0
 62
     4
100
AcDbLine
 10
97.27006600000002
 20
35.398041
 30
0.0
 11
98.77006600000003
 21
35.398041
 31
0.0
  0
LINE
  5
5A6
330
22
100
AcDbEntity
  8
0
 62
     4
100
AcDbLine
 10
97.27006600000002
 20
33.398041
 30
0.0
 11
97.27006600000002
 21
30.99804700000001
 31
0.0
  0
LINE
  5
5A7
330
22
100
AcDbEntity
  8
0
 62
     4
100
AcDbLine
 10
88.87006800000005
 20
33.398041
 30
0.0
 11
88.87006800000005
 21
30.99804700000001
 31
0.0
  0
LINE
  5
5A8
330
22
100
AcDbEntity
  8
0
 62
     4
100
AcDbLine
 10
87.37006800000004
 20
35.398041
 30
0.0
 11
87.37006800000004
 21
33.398041
 31
0.0
  0
LINE
  5
5A9
330
22
100
AcDbEntity
  8
0
 62
     4
100
AcDbLine
 10
98.77006600000003
 20
35.398041
 30
0.0
 11
98.77006600000003
 21
33.398041
 31
0.0
  0
LINE
  5
5AA
330
22
100
AcDbEntity
  8
0
 62
     4
100
AcDbLine
 10
88.87006800000005
 20
36.99804700000001
 30
0.0
 11
88.87006800000005
 21
35.398041
 31
0.0
  0
LINE
  5
5AB
330
22
100
AcDbEntity
  8
0
 62
     4
100
AcDbLine
 10
97.27006600000002
 20
36.99804700000001
 30
0.0
 11
97.27006600000002
 21
35.398041
 31
0.0
  0
LINE
  5
5AC
330
22
100
AcDbEntity
  8
0
 62
     4
100
AcDbLine
 10
87.37006800000004
 20
35.398041
 30
0.0
 11
88.87006800000005
 21
35.398041
 31
0.0
  0
LINE
  5
5AD
330
22
100
AcDbEntity
  8
0
 62
     4
100
AcDbLine
 10
87.37006800000004
 20
33.398041
 30
0.0
 11
89.07006700000003
 21
33.398041
 31
0.0
  0
LINE
  5
5AE
330
22
100
AcDbEntity
  8
0
 62
     4
100
AcDbLine
 10
86.32006700000003
 20
38.05804500000002
 30
0.0
 11
86.32006700000003
 21
36.99804700000001
 31
0.0
  0
LINE
  5
5AF
330
22
100
AcDbEntity
  8
0
 62
     4
100
AcDbLine
 10
100.070067
 20
36.198044
 30
0.0
 11
100.570067
 21
36.198044
 31
0.0
  0
LINE
  5
5B0
330
22
100
AcDbEntity
  8
0
 62
     4
100
AcDbLine
 10
86.02006800000003
 20
36.79803499999999
 30
0.0
 11
86.02006800000003
 21
36.198044
 31
0.0
  0
LINE
  5
5B1
330
22
100
AcDbEntity
  8
0
 62
     4
100
AcDbLine
 10
86.07006700000004
 20
36.79803499999999
 30
0.0
 11
86.02006800000003
 21
36.79803499999999
 31
0.0
  0
LINE
  5
5B2
330
22
100
AcDbEntity
  8
0
 62
     4
100
AcDbLine
 10
100.57007
 20
36.19802900000002
 30
0.0
 11
99.57006900000003
 21
38.19802900000001
 31
0.0
  0
LINE
  5
5B3
330
22
100
AcDbEntity
  8
0
 62
     4
100
AcDbLine
 10
85.57007500000002
 20
36.198044
 30
0.0
 11
86.32007600000001
 21
37.69802900000001
 31
0.0
  0
LINE
  5
5B4
330
22
100
AcDbEntity
  8
0
 62
     4
100
AcDbLine
 10
85.57006700000004
 20
36.198044
 30
0.0
 11
86.07006700000004
 21
36.198044
 31
0.0
  0
LINE
  5
5B5
330
22
100
AcDbEntity
  8
0
 62
     4
100
AcDbLine
 10
86.57006700000003
 20
38.19804400000001
 30
0.0
 11
86.70006800000003
 21
38.19804400000001
 31
0.0
  0
LINE
  5
5B6
330
22
100
AcDbEntity
  8
0
 62
     4
100
AcDbLine
 10
95.57006600000004
 20
23.99804700000001
 30
0.0
 11
95.57006600000004
 21
20.99804700000001
 31
0.0
  0
LINE
  5
5B7
330
22
100
AcDbEntity
  8
0
 62
     4
100
AcDbLine
 10
90.57006700000004
 20
20.99804700000001
 30
0.0
 11
95.57006600000004
 21
20.99804700000001
 31
0.0
  0
LINE
  5
5B8
330
22
100
AcDbEntity
  8
0
 62
     4
100
AcDbLine
 10
90.57006700000004
 20
23.99804700000001
 30
0.0
 11
90.57006700000004
 21
20.99804700000001
 31
0.0
  0
LINE
  5
5B9
330
22
100
AcDbEntity
  8
0
 62
     4
100
AcDbLine
 10
90.57006700000004
 20
23.99804700000001
 30
0.0
 11
95.57006600000004
 21
23.99804700000001
 31
0.0
  0
LINE
  5
5BA
330
22
100
AcDbEntity
  8
0
 62
     4
100
AcDbLine
 10
95.07006600000003
 20
23.49804700000001
 30
0.0
 11
95.07006600000003
 21
21.49804700000001
 31
0.0
  0
LINE
  5
5BB
330
22
100
AcDbEntity
  8
0
 62
     4
100
AcDbLine
 10
91.07006700000004
 20
23.49804700000001
 30
0.0
 11
91.07006700000004
 21
21.49804700000001
 31
0.0
  0
LINE
  5
5BC
330
22
100
AcDbEntity
  8
0
 62
     4
100
AcDbLine
 10
91.07006700000004
 20
21.49804700000001
 30
0.0
 11
95.07006600000003
 21
21.49804700000001
 31
0.0
  0
LINE
  5
5BD
330
22
100
AcDbEntity
  8
0
 62
     4
100
AcDbLine
 10
91.07006700000004
 20
23.49804700000001
 30
0.0
 11
95.07006600000003
 21
23.49804700000001
 31
0.0
  0
LINE
  5
5BE
330
22
100
AcDbEntity
  8
0
 62
     4
100
AcDbLine
 10
100.070067
 20
35.198044
 30
0.0
 11
100.570067
 21
35.198044
 31
0.0
  0
LINE
  5
5BF
330
22
100
AcDbEntity
  8
0
 62
     4
100
AcDbLine
 10
86.07006700000004
 20
30.99804700000001
 30
0.0
 11
100.070067
 21
30.99804700000001
 31
0.0
  0
LINE
  5
5C0
330
22
100
AcDbEntity
  8
0
 62
     4
100
AcDbLine
 10
86.07006700000004
 20
36.99804700000001
 30
0.0
 11
100.070067
 21
36.99804700000001
 31
0.0
  0
LINE
  5
5C1
330
22
100
AcDbEntity
  8
0
 62
     4
100
AcDbLine
 10
86.07006700000004
 20
36.99804700000001
 30
0.0
 11
86.07006700000004
 21
9.998047000000006
 31
0.0
  0
LINE
  5
5C2
330
22
100
AcDbEntity
  8
0
 62
     4
100
AcDbLine
 10
100.070067
 20
36.99804700000001
 30
0.0
 11
100.070067
 21
9.998047000000006
 31
0.0
  0
LINE
  5
5C3
330
22
100
AcDbEntity
  8
0
 62
     4
100
AcDbLine
 10
85.57006700000004
 20
35.198044
 30
0.0
 11
86.07006700000004
 21
35.198044
 31
0.0
  0
LINE
  5
5C4
330
22
100
AcDbEntity
  8
0
 62
     4
100
AcDbLine
 10
100.570067
 20
36.198044
 30
0.0
 11
100.570067
 21
9.998047000000006
 31
0.0
  0
LINE
  5
5C5
330
22
100
AcDbEntity
  8
0
 62
     4
100
AcDbLine
 10
85.57006700000004
 20
36.198044
 30
0.0
 11
85.57006700000004
 21
9.998047000000006
 31
0.0
  0
LINE
  5
5C6
330
22
100
AcDbEntity
  8
0
  6
CENTER
 62
     2
100
AcDbLine
 10
93.07505799999999
 20
44.128037
 30
0.0
 11
93.07505799999999
 21
4.998047000000006
 31
0.0
  0
LINE
  5
5C7
330
22
100
AcDbEntity
  8
0
100
AcDbLine
 10
85.56507400000002
 20
9.998015999999999
 30
0.0
 11
100.565073
 21
9.998015999999999
 31
0.0
  0
CIRCLE
  5
5C8
330
22
100
AcDbEntity
  8
0
 62
     4
100
AcDbCircle
 10
95.57005100000003
 20
34.49804700000001
 30
0.0
 40
0.85
  0
CIRCLE
  5
5C9
330
22
100
AcDbEntity
  8
0
 62
     4
100
AcDbCircle
 10
90.57006700000004
 20
34.49804700000001
 30
0.0
 40
0.85
  0
ARC
  5
5CA
330
22
100
AcDbEntity
  8
0
 62
     4
100
AcDbCircle
 10
97.590055
 20
32.49571199999999
 30
0.0
 40
5.994925
100
AcDbArc
 50
72.02534499999792
 51
94.97597499999898
  0
ARC
  5
5CB
330
22
100
AcDbEntity
  8
0
 62
     4
100
AcDbCircle
 10
88.55491700000003
 20
32.49575800000002
 30
0.0
 40
5.994451999999999
100
AcDbArc
 50
85.07000699999879
 51
111.8896180000005
  0
LINE
  5
61E
330
22
100
AcDbEntity
  8
0
  6
CENTER
 62
     2
100
AcDbLine
 10
-41.174965
 20
38.54111247953483
 30
0.0
 11
-41.174965
 21
112.8211114795348
 31
0.0
  0
LINE
  5
622
330
22
100
AcDbEntity
  8
0
100
AcDbLine
 10
-48.68486699999995
 20
45.04110647953482
 30
0.0
 11
-33.68486800000001
 21
45.04113747953481
 31
0.0
  0
LINE
  5
67B
330
22
100
AcDbEntity
  8
0
 62
     4
100
AcDbLine
 10
-44.7499649977542
 20
47.121124
 30
0.0
 11
-46.57996599775418
 21
48.951126
 31
0.0
  0
LINE
  5
67C
330
22
100
AcDbEntity
  8
0
 62
     4
100
AcDbLine
 10
-35.75997899775416
 20
66.95112600000001
 30
0.0
 11
-37.58997999775419
 21
65.12112400000001
 31
0.0
  0
LINE
  5
67D
330
22
100
AcDbEntity
  8
0
 62
     4
100
AcDbLine
 10
-44.74997999775416
 20
48.951126
 30
0.0
 11
-46.5799809977542
 21
47.121124
 31
0.0
  0
LINE
  5
67E
330
22
100
AcDbEntity
  8
0
 62
     4
100
AcDbLine
 10
-37.5899779977542
 20
66.95112600000001
 30
0.0
 11
-35.75997799775416
 21
65.12112400000001
 31
0.0
  0
LINE
  5
67F
330
22
100
AcDbEntity
  8
0
 62
     4
100
AcDbLine
 10
-37.81997499775417
 20
94.41111699999998
 30
0.0
 11
-37.81997499775417
 21
99.541122
 31
0.0
  0
LINE
  5
680
330
22
100
AcDbEntity
  8
0
 62
     4
100
AcDbLine
 10
-39.51997399775416
 20
94.87110900000002
 30
0.0
 11
-39.51997399775416
 21
99.541122
 31
0.0
  0
LINE
  5
681
330
22
100
AcDbEntity
  8
0
 62
     4
100
AcDbLine
 10
-42.81997399775416
 20
95.75111300000001
 30
0.0
 11
-42.81997399775416
 21
99.541122
 31
0.0
  0
LINE
  5
682
330
22
100
AcDbEntity
  8
0
 62
     4
100
AcDbLine
 10
-44.51997399775415
 20
96.21112
 30
0.0
 11
-44.51997399775415
 21
99.541122
 31
0.0
  0
LINE
  5
683
330
22
100
AcDbEntity
  8
0
  6
PHANTOM
 62
     1
100
AcDbLine
 10
-35.81997699775422
 20
93.88110299999999
 30
0.0
 11
-46.51996499775417
 21
96.75111300000001
 31
0.0
  0
LINE
  5
684
330
22
100
AcDbEntity
  8
0
  6
PHANTOM
 62
     1
100
AcDbLine
 10
-35.81997999775421
 20
92.33111499999997
 30
0.0
 11
-46.5199789977542
 21
95.191116
 31
0.0
  0
LINE
  5
685
330
22
100
AcDbEntity
  8
0
 62
     4
100
AcDbLine
 10
-37.81997499775417
 20
89.541122
 30
0.0
 11
-37.81997499775417
 21
92.86111399999999
 31
0.0
  0
LINE
  5
686
330
22
100
AcDbEntity
  8
0
 62
     4
100
AcDbLine
 10
-39.51997399775416
 20
99.541122
 30
0.0
 11
-37.81997499775417
 21
99.541122
 31
0.0
  0
LINE
  5
687
330
22
100
AcDbEntity
  8
0
 62
     4
100
AcDbLine
 10
-39.51997399775416
 20
89.541122
 30
0.0
 11
-39.51997399775416
 21
93.32112100000001
 31
0.0
  0
LINE
  5
688
330
22
100
AcDbEntity
  8
0
 62
     4
100
AcDbLine
 10
-38.3499739977542
 20
99.541122
 30
0.0
 11
-38.3499739977542
 21
109.541122
 31
0.0
  0
LINE
  5
689
330
22
100
AcDbEntity
  8
0
 62
     4
100
AcDbLine
 10
-38.98997499775418
 20
109.541122
 30
0.0
 11
-38.3499739977542
 21
109.541122
 31
0.0
  0
LINE
  5
68A
330
22
100
AcDbEntity
  8
0
 62
     4
100
AcDbLine
 10
-38.98997499775418
 20
99.541122
 30
0.0
 11
-38.98997499775418
 21
109.541122
 31
0.0
  0
LINE
  5
68B
330
22
100
AcDbEntity
  8
0
 62
     4
100
AcDbLine
 10
-43.3499729977542
 20
99.541122
 30
0.0
 11
-43.3499729977542
 21
109.541122
 31
0.0
  0
LINE
  5
68C
330
22
100
AcDbEntity
  8
0
 62
     4
100
AcDbLine
 10
-43.98997399775418
 20
109.541122
 30
0.0
 11
-43.3499729977542
 21
109.541122
 31
0.0
  0
LINE
  5
68D
330
22
100
AcDbEntity
  8
0
 62
     4
100
AcDbLine
 10
-44.51997399775415
 20
99.541122
 30
0.0
 11
-42.81997399775416
 21
99.541122
 31
0.0
  0
LINE
  5
68E
330
22
100
AcDbEntity
  8
0
 62
     4
100
AcDbLine
 10
-43.98997399775418
 20
99.541122
 30
0.0
 11
-43.98997399775418
 21
109.541122
 31
0.0
  0
LINE
  5
68F
330
22
100
AcDbEntity
  8
0
 62
     4
100
AcDbLine
 10
-42.81997399775416
 20
89.541122
 30
0.0
 11
-42.81997399775416
 21
94.20111
 31
0.0
  0
LINE
  5
690
330
22
100
AcDbEntity
  8
0
 62
     4
100
AcDbLine
 10
-44.51997399775415
 20
89.541122
 30
0.0
 11
-44.51997399775415
 21
94.66111699999999
 31
0.0
  0
LINE
  5
691
330
22
100
AcDbEntity
  8
0
 62
     4
100
AcDbLine
 10
-37.16997399775419
 20
70.541122
 30
0.0
 11
-37.16997399775419
 21
89.541122
 31
0.0
  0
LINE
  5
692
330
22
100
AcDbEntity
  8
0
 62
     4
100
AcDbLine
 10
-45.16997299775419
 20
70.541122
 30
0.0
 11
-45.16997299775419
 21
89.541122
 31
0.0
  0
LINE
  5
693
330
22
100
AcDbEntity
  8
0
 62
     4
100
AcDbLine
 10
-46.66997299775419
 20
78.14111299999999
 30
0.0
 11
-46.66997299775419
 21
89.541122
 31
0.0
  0
LINE
  5
694
330
22
100
AcDbEntity
  8
0
 62
     4
100
AcDbLine
 10
-46.66997299775419
 20
89.541122
 30
0.0
 11
-35.66997399775419
 21
89.541122
 31
0.0
  0
LINE
  5
695
330
22
100
AcDbEntity
  8
0
 62
     4
100
AcDbLine
 10
-35.66997399775419
 20
78.14111299999999
 30
0.0
 11
-35.66997399775419
 21
89.541122
 31
0.0
  0
LINE
  5
696
330
22
100
AcDbEntity
  8
0
 62
     4
100
AcDbLine
 10
-34.16997399775419
 20
69.041122
 30
0.0
 11
-34.16997399775419
 21
79.041122
 31
0.0
  0
LINE
  5
697
330
22
100
AcDbEntity
  8
0
 62
     4
100
AcDbLine
 10
-35.66997399775419
 20
79.041122
 30
0.0
 11
-34.16997399775419
 21
79.041122
 31
0.0
  0
LINE
  5
698
330
22
100
AcDbEntity
  8
0
 62
     4
100
AcDbLine
 10
-48.16997299775419
 20
79.041122
 30
0.0
 11
-46.66997299775419
 21
79.041122
 31
0.0
  0
LINE
  5
699
330
22
100
AcDbEntity
  8
0
 62
     4
100
AcDbLine
 10
-48.16997299775419
 20
69.041122
 30
0.0
 11
-48.16997299775419
 21
79.041122
 31
0.0
  0
LINE
  5
69A
330
22
100
AcDbEntity
  8
0
 62
     4
100
AcDbLine
 10
-33.66997399775425
 20
45.04112199999999
 30
0.0
 11
-33.66997399775419
 21
69.041122
 31
0.0
  0
LINE
  5
69B
330
22
100
AcDbEntity
  8
0
 62
     4
100
AcDbLine
 10
-48.6699729977542
 20
45.04112199999999
 30
0.0
 11
-33.66997399775425
 21
45.04112199999999
 31
0.0
  0
LINE
  5
69C
330
22
100
AcDbEntity
  8
0
 62
     4
100
AcDbLine
 10
-48.6699729977542
 20
45.04112199999999
 30
0.0
 11
-48.6699729977542
 21
69.041122
 31
0.0
  0
LINE
  5
69D
330
22
100
AcDbEntity
  8
0
 62
     4
100
AcDbLine
 10
-37.16997399775419
 20
72.541122
 30
0.0
 11
-36.9699739977542
 21
72.541122
 31
0.0
  0
LINE
  5
69E
330
22
100
AcDbEntity
  8
0
 62
     4
100
AcDbLine
 10
-37.16997399775419
 20
73.541122
 30
0.0
 11
-36.9699739977542
 21
73.541122
 31
0.0
  0
LINE
  5
69F
330
22
100
AcDbEntity
  8
0
 62
     4
100
AcDbLine
 10
-37.16997399775419
 20
78.14111299999999
 30
0.0
 11
-34.16997399775419
 21
78.14111299999999
 31
0.0
  0
LINE
  5
6A0
330
22
100
AcDbEntity
  8
0
 62
     4
100
AcDbLine
 10
-45.36997299775418
 20
73.541122
 30
0.0
 11
-45.36997299775418
 21
78.14111299999999
 31
0.0
  0
LINE
  5
6A1
330
22
100
AcDbEntity
  8
0
 62
     4
100
AcDbLine
 10
-36.9699739977542
 20
73.541122
 30
0.0
 11
-36.9699739977542
 21
78.14111299999999
 31
0.0
  0
LINE
  5
6A2
330
22
100
AcDbEntity
  8
0
 62
     4
100
AcDbLine
 10
-45.36997299775418
 20
73.541122
 30
0.0
 11
-45.16997299775419
 21
73.541122
 31
0.0
  0
LINE
  5
6A3
330
22
100
AcDbEntity
  8
0
 62
     4
100
AcDbLine
 10
-45.36997299775418
 20
72.541122
 30
0.0
 11
-45.16997299775419
 21
72.541122
 31
0.0
  0
LINE
  5
6A4
330
22
100
AcDbEntity
  8
0
 62
     4
100
AcDbLine
 10
-45.36997299775418
 20
69.041122
 30
0.0
 11
-45.36997299775418
 21
72.541122
 31
0.0
  0
LINE
  5
6A5
330
22
100
AcDbEntity
  8
0
 62
     4
100
AcDbLine
 10
-36.9699739977542
 20
69.041122
 30
0.0
 11
-36.9699739977542
 21
72.541122
 31
0.0
  0
LINE
  5
6A6
330
22
100
AcDbEntity
  8
0
 62
     4
100
AcDbLine
 10
-45.16997299775419
 20
70.541122
 30
0.0
 11
-37.16997399775419
 21
70.541122
 31
0.0
  0
LINE
  5
6A7
330
22
100
AcDbEntity
  8
0
 62
     4
100
AcDbLine
 10
-45.16997299775419
 20
81.86111399999999
 30
0.0
 11
-37.16997399775419
 21
81.86111399999999
 31
0.0
  0
LINE
  5
6A8
330
22
100
AcDbEntity
  8
0
 62
     4
100
AcDbLine
 10
-45.16997299775419
 20
87.54112199999999
 30
0.0
 11
-37.16997399775419
 21
87.54112199999999
 31
0.0
  0
LINE
  5
6A9
330
22
100
AcDbEntity
  8
0
 62
     4
100
AcDbLine
 10
-34.66997399775419
 20
46.04112199999999
 30
0.0
 11
-34.66997399775419
 21
63.04112199999999
 31
0.0
  0
LINE
  5
6AA
330
22
100
AcDbEntity
  8
0
 62
     4
100
AcDbLine
 10
-47.66997299775419
 20
51.04112199999999
 30
0.0
 11
-47.66997299775419
 21
68.041122
 31
0.0
  0
LINE
  5
6AB
330
22
100
AcDbEntity
  8
0
 62
     4
100
AcDbLine
 10
-47.66997299775419
 20
68.041122
 30
0.0
 11
-39.66997399775419
 21
68.041122
 31
0.0
  0
LINE
  5
6AC
330
22
100
AcDbEntity
  8
0
 62
     4
100
AcDbLine
 10
-42.66997299775419
 20
46.04112199999999
 30
0.0
 11
-34.66997399775419
 21
46.04112199999999
 31
0.0
  0
LINE
  5
6AD
330
22
100
AcDbEntity
  8
0
 62
     4
100
AcDbLine
 10
-36.66997399775419
 20
63.04112199999999
 30
0.0
 11
-33.66997399775419
 21
63.04112199999999
 31
0.0
  0
LINE
  5
6AE
330
22
100
AcDbEntity
  8
0
 62
     4
100
AcDbLine
 10
-45.66997299775419
 20
51.04112199999999
 30
0.0
 11
-48.6699729977542
 21
51.04112199999999
 31
0.0
  0
LINE
  5
6AF
330
22
100
AcDbEntity
  8
0
 62
     4
100
AcDbLine
 10
-42.66997299775419
 20
48.04112199999999
 30
0.0
 11
-42.66997299775419
 21
45.04112199999999
 31
0.0
  0
LINE
  5
6B0
330
22
100
AcDbEntity
  8
0
 62
     4
100
AcDbLine
 10
-39.66997399775419
 20
66.041122
 30
0.0
 11
-39.66997399775419
 21
69.041122
 31
0.0
  0
LINE
  5
6B1
330
22
100
AcDbEntity
  8
0
 62
     4
100
AcDbLine
 10
-48.16997299775419
 20
78.14111299999999
 30
0.0
 11
-45.16997299775419
 21
78.14111299999999
 31
0.0
  0
LINE
  5
6B2
330
22
100
AcDbEntity
  8
0
 62
     4
100
AcDbLine
 10
-48.6699729977542
 20
69.041122
 30
0.0
 11
-33.66997399775419
 21
69.041122
 31
0.0
  0
LINE
  5
6B3
330
22
100
AcDbEntity
  8
0
  6
CENTER
 62
     2
100
AcDbLine
 10
-41.17496499775415
 20
110.891113
 30
0.0
 11
-41.17496499775415
 21
38.54112199999999
 31
0.0
  0
CIRCLE
  5
6B4
330
22
100
AcDbEntity
  8
0
 62
     4
100
AcDbCircle
 10
-45.67000399775417
 20
48.04112199999999
 30
0.0
 40
2.25
  0
CIRCLE
  5
6B5
330
22
100
AcDbEntity
  8
0
 62
     4
100
AcDbCircle
 10
-36.67003499775421
 20
66.041122
 30
0.0
 40
2.25
  0
CIRCLE
  5
6B6
330
22
100
AcDbEntity
  8
0
 62
     4
100
AcDbCircle
 10
-45.67000399775417
 20
48.04112199999999
 30
0.0
 40
2.549999999999999
  0
CIRCLE
  5
6B7
330
22
100
AcDbEntity
  8
0
 62
     4
100
AcDbCircle
 10
-36.67003499775421
 20
66.041122
 30
0.0
 40
2.549999999999999
  0
ARC
  5
6B8
330
22
100
AcDbEntity
  8
0
 62
     4
100
AcDbCircle
 10
-45.66998799775421
 20
48.041107
 30
0.0
 40
3.000015
100
AcDbArc
 50
0.0002899999998757
 51
89.99975599999627
  0
ARC
  5
6B9
330
22
100
AcDbEntity
  8
0
 62
     4
100
AcDbCircle
 10
-36.67000499775417
 20
66.04109099999999
 30
0.0
 40
2.999968999999999
100
AcDbArc
 50
179.9994200000002
 51
270.0005260000021
  0
LINE
  5
6F0
330
22
100
AcDbEntity
  8
0
 62
     4
100
AcDbLine
 10
-44.51987196868278
 20
-88.41509739244845
 30
0.0
 11
-44.51986136667177
 21
-93.54510239243751
 31
0.0
  0
LINE
  5
6F1
330
22
100
AcDbEntity
  8
0
 62
     4
100
AcDbLine
 10
-42.81987101803624
 20
-88.87508587911392
 30
0.0
 11
-42.81986136667542
 21
-93.54509887910394
 31
0.0
  0
LINE
  5
6F2
330
22
100
AcDbEntity
  8
0
 62
     4
100
AcDbLine
 10
-39.51987019936821
 20
-89.75508305911365
 30
0.0
 11
-39.51986236668246
 21
-93.54509205910554
 31
0.0
  0
LINE
  5
6F3
330
22
100
AcDbEntity
  8
0
 62
     4
100
AcDbLine
 10
-37.81987024869064
 20
-90.21508654578116
 30
0.0
 11
-37.81986336668605
 21
-93.54508854577407
 31
0.0
  0
LINE
  5
6F4
330
22
100
AcDbEntity
  8
0
  6
PHANTOM
 62
     1
100
AcDbLine
 10
-46.51987326734963
 20
-86.33509952578032
 30
0.0
 11
-35.81986835670337
 21
-89.19507841244145
 31
0.0
  0
LINE
  5
6F5
330
22
100
AcDbEntity
  8
0
  6
PHANTOM
 62
     1
100
AcDbLine
 10
-46.51987306400987
 20
-87.88510252578319
 30
0.0
 11
-35.81987513270936
 21
-90.75507541245881
 31
0.0
  0
LINE
  5
6F6
330
22
100
AcDbEntity
  8
0
 62
     4
100
AcDbLine
 10
-37.16989956668995
 20
-75.54508720247702
 30
0.0
 11
-45.16989856667284
 21
-75.54510373580936
 31
0.0
  0
LINE
  5
6F7
330
22
100
AcDbEntity
  8
0
 62
     4
100
AcDbLine
 10
-37.16988613335572
 20
-82.04508720246312
 30
0.0
 11
-45.16988513333861
 21
-82.0451037357955
 31
0.0
  0
LINE
  5
6F8
330
22
100
AcDbEntity
  8
0
 62
     4
100
AcDbLine
 10
-43.34984070000628
 20
-103.545099974416
 30
0.0
 11
-43.9898417000049
 21
-103.5451012970848
 31
0.0
  0
LINE
  5
6F9
330
22
100
AcDbEntity
  8
0
 62
     4
100
AcDbLine
 10
-42.81986136667542
 20
-93.54509887910394
 30
0.0
 11
-44.51986136667177
 21
-93.54510239243751
 31
0.0
  0
LINE
  5
6FA
330
22
100
AcDbEntity
  8
0
 62
     4
100
AcDbLine
 10
-44.51988203333981
 20
-83.54510239245886
 30
0.0
 11
-44.51987517202254
 21
-86.86509439245176
 31
0.0
  0
LINE
  5
6FB
330
22
100
AcDbEntity
  8
0
 62
     4
100
AcDbLine
 10
-42.81988203334345
 20
-83.54509887912531
 30
0.0
 11
-42.81987422134501
 21
-87.32509787911721
 31
0.0
  0
LINE
  5
6FC
330
22
100
AcDbEntity
  8
0
 62
     4
100
AcDbLine
 10
-37.81988403335409
 20
-83.5450885457954
 30
0.0
 11
-37.81987345203039
 21
-88.66508354578446
 31
0.0
  0
LINE
  5
6FD
330
22
100
AcDbEntity
  8
0
 62
     4
100
AcDbLine
 10
-39.51988303335049
 20
-83.54509205912691
 30
0.0
 11
-39.51987340270797
 21
-88.20508005911696
 31
0.0
  0
LINE
  5
6FE
330
22
100
AcDbEntity
  8
0
 62
     4
100
AcDbLine
 10
-38.34986236668495
 20
-93.54508964110539
 30
0.0
 11
-38.34984170001691
 21
-103.545089641084
 31
0.0
  0
LINE
  5
6FF
330
22
100
AcDbEntity
  8
0
 62
     4
100
AcDbLine
 10
-38.98986336668357
 20
-93.54509096377421
 30
0.0
 11
-38.98984270001553
 21
-103.5450909637528
 31
0.0
  0
LINE
  5
700
330
22
100
AcDbEntity
  8
0
 62
     4
100
AcDbLine
 10
-43.34986136667431
 20
-93.54509997443733
 30
0.0
 11
-43.34984070000628
 21
-103.545099974416
 31
0.0
  0
LINE
  5
701
330
22
100
AcDbEntity
  8
0
 62
     4
100
AcDbLine
 10
-43.98986236667293
 20
-93.54510129710616
 30
0.0
 11
-43.9898417000049
 21
-103.5451012970848
 31
0.0
  0
LINE
  5
702
330
22
100
AcDbEntity
  8
0
 62
     4
100
AcDbLine
 10
-38.34984170001691
 20
-103.545089641084
 30
0.0
 11
-38.98984270001553
 21
-103.5450909637528
 31
0.0
  0
LINE
  5
703
330
22
100
AcDbEntity
  8
0
 62
     4
100
AcDbLine
 10
-37.81986336668605
 20
-93.54508854577407
 30
0.0
 11
-39.51986236668246
 21
-93.54509205910554
 31
0.0
  0
LINE
  5
704
330
22
100
AcDbEntity
  8
0
 62
     4
100
AcDbLine
 10
-46.66990373333665
 20
-73.04510683581492
 30
0.0
 11
-46.66988203333524
 21
-83.54510683579249
 31
0.0
  0
LINE
  5
705
330
22
100
AcDbEntity
  8
0
 62
     4
100
AcDbLine
 10
-35.66990473336013
 20
-73.04508410248215
 30
0.0
 11
-35.66988303335872
 21
-83.54508410245973
 31
0.0
  0
LINE
  5
706
330
22
100
AcDbEntity
  8
0
 62
     4
100
AcDbLine
 10
-37.16990473335695
 20
-73.04508720248233
 30
0.0
 11
-37.16988303335553
 21
-83.54508720245991
 31
0.0
  0
LINE
  5
707
330
22
100
AcDbEntity
  8
0
 62
     4
100
AcDbLine
 10
-45.16990373333984
 20
-73.04510373581471
 30
0.0
 11
-45.16988203333842
 21
-83.54510373579229
 31
0.0
  0
LINE
  5
708
330
22
100
AcDbEntity
  8
0
 62
     4
100
AcDbLine
 10
-35.66988303335872
 20
-83.54508410245973
 30
0.0
 11
-46.66988203333524
 21
-83.54510683579249
 31
0.0
  0
LINE
  5
709
330
22
100
AcDbEntity
  8
0
 62
     4
100
AcDbLine
 10
-48.16992440000156
 20
-63.04510993583648
 30
0.0
 11
-48.16990373333347
 21
-73.04510993581513
 31
0.0
  0
LINE
  5
70A
330
22
100
AcDbEntity
  8
0
 62
     4
100
AcDbLine
 10
-34.16990373336337
 20
-73.04508100247986
 30
0.0
 11
-48.16990373333347
 21
-73.04510993581513
 31
0.0
  0
LINE
  5
70B
330
22
100
AcDbEntity
  8
0
 62
     4
100
AcDbLine
 10
-34.16992440003141
 20
-63.04508100250123
 30
0.0
 11
-34.16990373336337
 21
-73.04508100247986
 31
0.0
  0
LINE
  5
70C
330
22
100
AcDbEntity
  8
0
  6
CENTER
 62
     2
100
AcDbLine
 10
-41.1749784333539
 20
-32.54509547954873
 30
0.0
 11
-41.17482492134577
 21
-106.8250944793901
 31
0.0
  0
LINE
  5
70D
330
22
100
AcDbEntity
  8
0
  6
CENTER
 62
     2
100
AcDbLine
 10
-38.98505080002407
 20
-42.04509095371826
 30
0.0
 11
-34.46505080003364
 21
-42.04508161238432
 31
0.0
  0
LINE
  5
70E
330
22
100
AcDbEntity
  8
0
  6
CENTER
 62
     2
100
AcDbLine
 10
-45.66498658064945
 20
-57.63511675895309
 30
0.0
 11
-45.66497715665504
 21
-62.19511375894335
 31
0.0
  0
LINE
  5
70F
330
22
100
AcDbEntity
  8
0
  6
CENTER
 62
     2
100
AcDbLine
 10
-47.80497559997168
 20
-60.04512418160251
 30
0.0
 11
-43.41497659998107
 21
-60.0451151089373
 31
0.0
  0
LINE
  5
710
330
22
100
AcDbEntity
  8
0
100
AcDbLine
 10
-33.66506300004819
 20
-39.04507395906968
 30
0.0
 11
-48.66506199995201
 21
-39.04513595906966
 31
0.0
  0
LINE
  5
711
330
22
100
AcDbEntity
  8
0
100
AcDbLine
 10
-33.66496440004075
 20
-63.04507595891716
 30
0.0
 11
-33.66506300004819
 21
-39.04507395906968
 31
0.0
  0
LINE
  5
712
330
22
100
AcDbEntity
  8
0
100
AcDbLine
 10
-48.66496339994462
 20
-63.04513795891716
 30
0.0
 11
-48.66506199995201
 21
-39.04513595906966
 31
0.0
  0
LINE
  5
713
330
22
100
AcDbEntity
  8
0
  6
CENTER
 62
     2
100
AcDbLine
 10
-36.66506092535435
 20
-39.56509015906692
 30
0.0
 11
-36.66505102603277
 21
-44.35508415905669
 31
0.0
  0
LINE
  5
714
330
22
100
AcDbEntity
  8
0
100
AcDbLine
 10
-33.66496440004075
 20
-63.04507595891716
 30
0.0
 11
-48.66496339994462
 21
-63.04513795891716
 31
0.0
  0
LINE
  5
715
330
22
100
AcDbEntity
  8
0
  6
CENTER
 62
     2
100
AcDbLine
 10
-35.67013516670262
 20
-36.54508210288044
 30
0.0
 11
-35.6701148333686
 21
-41.54508210284908
 31
0.0
  0
LINE
  5
716
330
22
100
AcDbEntity
  8
0
100
AcDbLine
 10
-44.74004769097878
 20
-41.13011884737735
 30
0.0
 11
-46.58004488829137
 21
-42.97013065004241
 31
0.0
  0
LINE
  5
717
330
22
100
AcDbEntity
  8
0
100
AcDbLine
 10
-46.58004469097484
 20
-41.13012265003806
 30
0.0
 11
-44.7400418883263
 21
-42.97011184736929
 31
0.0
  0
LINE
  5
718
330
22
100
AcDbEntity
  8
0
100
AcDbLine
 10
-35.74997849103887
 20
-59.13007926793819
 30
0.0
 11
-37.58997468835152
 21
-60.97009107060119
 31
0.0
  0
LINE
  5
719
330
22
100
AcDbEntity
  8
0
100
AcDbLine
 10
-37.58998349104947
 20
-59.13007607061545
 30
0.0
 11
-35.74997068838646
 21
-60.97007226792599
 31
0.0
  0
LINE
  5
71A
330
22
100
AcDbEntity
  8
0
  6
CENTER
 62
     2
100
AcDbLine
 10
-47.16507216662638
 20
-36.54513085908514
 30
0.0
 11
-47.16505183329236
 21
-41.54513085905379
 31
0.0
  0
CIRCLE
  5
71B
330
22
100
AcDbEntity
  8
0
100
AcDbCircle
 10
-36.66497760002649
 20
-60.04508615893843
 30
0.0
 40
2.599998999999999
  0
CIRCLE
  5
71C
330
22
100
AcDbEntity
  8
0
100
AcDbCircle
 10
-45.66504979997872
 20
-42.04511975905044
 30
0.0
 40
2.599998999999999
  0
CIRCLE
  5
71D
330
22
100
AcDbEntity
  8
0
 62
     2
100
AcDbCircle
 10
-36.66505080002897
 20
-42.04508615905127
 30
0.0
 40
1.5
  0
CIRCLE
  5
71E
330
22
100
AcDbEntity
  8
0
 62
     2
100
AcDbCircle
 10
-45.66497659997629
 20
-60.04511975893761
 30
0.0
 40
1.5
  0
CIRCLE
  5
71F
330
22
100
AcDbEntity
  8
0
100
AcDbCircle
 10
-45.66497659997629
 20
-60.04511975893761
 30
0.0
 40
1.25
  0
CIRCLE
  5
720
330
22
100
AcDbEntity
  8
0
100
AcDbCircle
 10
-36.66505080002897
 20
-42.04508615905127
 30
0.0
 40
1.25
  0
ENDSEC
  0
SECTION
  2
OBJECTS
  0
DICTIONARY
  5
C
330
0
100
AcDbDictionary
281
     1
  3
ACAD_COLOR
350
1B
  3
ACAD_GROUP
350
D
  3
ACAD_LAYOUT
350
19
  3
ACAD_MATERIAL
350
1A
  3
ACAD_MLINESTYLE
350
16
  3
ACAD_PLOTSETTINGS
350
18
  3
ACAD_PLOTSTYLENAME
350
E
  3
ACAD_TABLESTYLE
350
1C
  3
ACDBHEADERROUNDTRIPXREC
350
725
  3
AcDbVariableDictionary
350
634
  0
DICTIONARY
  5
1B
102
{ACAD_REACTORS
330
C
102
}
330
C
100
AcDbDictionary
281
     1
  0
DICTIONARY
  5
D
102
{ACAD_REACTORS
330
C
102
}
330
C
100
AcDbDictionary
281
     1
  0
DICTIONARY
  5
19
102
{ACAD_REACTORS
330
C
102
}
330
C
100
AcDbDictionary
281
     1
  3
Model
350
25
  3
レイアウト1
350
21
  0
DICTIONARY
  5
1A
102
{ACAD_REACTORS
330
C
102
}
330
C
100
AcDbDictionary
281
     1
  0
DICTIONARY
  5
16
102
{ACAD_REACTORS
330
C
102
}
330
C
100
AcDbDictionary
281
     1
  3
Standard
350
17
  0
DICTIONARY
  5
18
102
{ACAD_REACTORS
330
C
102
}
330
C
100
AcDbDictionary
281
     1
  0
ACDBDICTIONARYWDFLT
  5
E
102
{ACAD_REACTORS
330
C
102
}
330
C
100
AcDbDictionary
281
     1
  3
Normal
350
F
100
AcDbDictionaryWithDefault
340
F
  0
DICTIONARY
  5
1C
102
{ACAD_REACTORS
330
C
102
}
330
C
100
AcDbDictionary
281
     1
  3
Standard
350
1D
  0
DICTIONARY
  5
725
102
{ACAD_REACTORS
330
C
102
}
330
C
100
AcDbDictionary
281
     1
  0
DICTIONARY
  5
634
102
{ACAD_REACTORS
330
C
102
}
330
C
100
AcDbDictionary
281
     1
  3
CTABLESTYLE
350
635
  3
DIMASSOC
350
722
  3
PROJECTNAME
350
723
  0
LAYOUT
  5
25
102
{ACAD_XDICTIONARY
360
728
102
}
102
{ACAD_REACTORS
330
19
102
}
330
19
100
AcDbPlotSettings
  1

  2
Microsoft Office Document Image Writer
  4

  6

 40
0.0
 41
0.0
 42
0.0
 43
0.0
 44
0.0
 45
0.0
 46
0.0
 47
0.0
 48
0.0
 49
0.0
140
0.0
141
0.0
142
1.0
143
1.0
 70
  1712
 72
     0
 73
     0
 74
     0
  7

 75
     0
147
1.0
148
0.0
149
0.0
100
AcDbLayout
  1
Model
 70
     1
 71
     0
 10
0.0
 20
0.0
 11
12.0
 21
9.0
 12
0.0
 22
0.0
 32
0.0
 14
0.0
 24
0.0
 34
0.0
 15
0.0
 25
0.0
 35
0.0
146
0.0
 13
0.0
 23
0.0
 33
0.0
 16
1.0
 26
0.0
 36
0.0
 17
0.0
 27
1.0
 37
0.0
 76
     0
330
22
  0
LAYOUT
  5
21
102
{ACAD_XDICTIONARY
360
726
102
}
102
{ACAD_REACTORS
330
19
102
}
330
19
100
AcDbPlotSettings
  1

  2
Microsoft Office Document Image Writer
  4

  6

 40
0.0
 41
0.0
 42
0.0
 43
0.0
 44
0.0
 45
0.0
 46
0.0
 47
0.0
 48
0.0
 49
0.0
140
0.0
141
0.0
142
1.0
143
1.0
 70
   688
 72
     0
 73
     0
 74
     5
  7

 75
    16
147
1.0
148
0.0
149
0.0
100
AcDbLayout
  1
レイアウト1
 70
     1
 71
     1
 10
0.0
 20
0.0
 11
12.0
 21
9.0
 12
0.0
 22
0.0
 32
0.0
 14
1.000000000000000E+20
 24
1.000000000000000E+20
 34
1.000000000000000E+20
 15
-1.000000000000000E+20
 25
-1.000000000000000E+20
 35
-1.000000000000000E+20
146
0.0
 13
0.0
 23
0.0
 33
0.0
 16
1.0
 26
0.0
 36
0.0
 17
0.0
 27
1.0
 37
0.0
 76
     0
330
1E
  0
MLINESTYLE
  5
17
102
{ACAD_REACTORS
330
16
102
}
330
16
100
AcDbMlineStyle
  2
STANDARD
 70
     0
  3

 62
   256
 51
90.0
 52
90.0
 71
     2
 49
0.5
 62
   256
  6
BYLAYER
 49
-0.5
 62
   256
  6
BYLAYER
  0
ACDBPLACEHOLDER
  5
F
102
{ACAD_REACTORS
330
E
102
}
330
E
  0
TABLESTYLE
  5
1D
102
{ACAD_REACTORS
330
1C
102
}
330
1C
100
AcDbTableStyle
  3
Standard
 70
     0
 71
     0
 40
0.06
 41
0.06
280
     0
281
     0
  7
STANDARD
140
0.18
170
     2
 62
     0
 63
     7
283
     0
274
    -2
284
     1
 64
     0
275
    -2
285
     1
 65
     0
276
    -2
286
     1
 66
     0
277
    -2
287
     1
 67
     0
278
    -2
288
     1
 68
     0
279
    -2
289
     1
 69
     0
  7
STANDARD
140
0.25
170
     5
 62
     0
 63
     7
283
     0
274
    -2
284
     1
 64
     0
275
    -2
285
     1
 65
     0
276
    -2
286
     1
 66
     0
277
    -2
287
     1
 67
     0
278
    -2
288
     1
 68
     0
279
    -2
289
     1
 69
     0
  7
STANDARD
140
0.18
170
     5
 62
     0
 63
     7
283
     0
274
    -2
284
     1
 64
     0
275
    -2
285
     1
 65
     0
276
    -2
286
     1
 66
     0
277
    -2
287
     1
 67
     0
278
    -2
288
     1
 68
     0
279
    -2
289
     1
 69
     0
  0
DICTIONARYVAR
  5
635
102
{ACAD_REACTORS
330
634
102
}
330
634
100
DictionaryVariables
280
     0
  1
STANDARD
  0
DICTIONARYVAR
  5
722
102
{ACAD_REACTORS
330
634
102
}
330
634
100
DictionaryVariables
280
     0
  1
1
  0
DICTIONARYVAR
  5
723
102
{ACAD_REACTORS
330
634
102
}
330
634
100
DictionaryVariables
280
     0
  1

  0
DICTIONARY
  5
728
330
25
100
AcDbDictionary
280
     1
281
     1
  3
ACAD_XREC_ROUNDTRIP
360
729
  0
DICTIONARY
  5
726
330
21
100
AcDbDictionary
280
     1
281
     1
  3
ACAD_XREC_ROUNDTRIP
360
727
  0
XRECORD
  5
729
102
{ACAD_REACTORS
330
728
102
}
330
728
100
AcDbXrecord
280
     1
102
SHADEPLOT
 70
     0
102
SHADEPLOTRESLEVEL
 70
     2
102
SHADEPLOTCUSTOMDPI
 70
   300
  0
XRECORD
  5
727
102
{ACAD_REACTORS
330
726
102
}
330
726
100
AcDbXrecord
280
     1
102
SHADEPLOT
 70
     0
102
SHADEPLOTRESLEVEL
 70
     2
102
SHADEPLOTCUSTOMDPI
 70
   300
  0
ENDSEC
  0
EOF
