  0
SECTION
  2
HEADER
  0
ENDSEC
  0
SECTION
  2
TABLES
  0
TABLE
  2
LTYPE
 70
     4
  0
LTYPE
  2
CONTINUOUS
 70
    64
  3
Solid line
 72
    65
 73
     0
 40
0.000000
  0
LTYPE
  2
DASHED
 70
    64
  3
__ __ __ __ __ __ __ __ __ __ __ __ __ __ __
 72
    65
 73
     2
 40
3.500000
 49
2.000000
 49
-1.500000
  0
LTYPE
  2
CENTER
 70
    64
  3
____ _ ____ _ ____ _ ____ _ ____ _ ____ _ ____
 72
    65
 73
     4
 40
17.500000
 49
13.000000
 49
-1.500000
 49
1.500000
 49
-1.500000
  0
LTYPE
  2
PHANTOM
 70
    64
  3
_____ _ _ _____ _ _ _____ _ _ _____ _ _ ____  
 72
    65
 73
     6
 40
15.500000
 49
8.000000
 49
-1.500000
 49
1.500000
 49
-1.500000
 49
1.500000
 49
-1.500000
  0
LTYPE
  2
DASHED1
 70
    64
  3
__ __ __ __ __ __ __ __ __ __ __ __ __ __ __
 72
    65
 73
     2
 40
1.500000
 49
1.000000
 49
-0.500000
  0
LTYPE
  2
DASHED2
 70
    64
  3
__ __ __ __ __ __ __ __ __ __ __ __ __ __ __
 72
    65
 73
     2
 40
3.500000
 49
2.500000
 49
-1.000000
  0
LTYPE
  2
DASHED3
 70
    64
  3
__ __ __ __ __ __ __ __ __ __ __ __ __ __ __
 72
    65
 73
     2
 40
6.000000
 49
4.000000
 49
-2.000000
  0
LTYPE
  2
DASHED4
 70
    64
  3
__ __ __ __ __ __ __ __ __ __ __ __ __ __ __
 72
    65
 73
     2
 40
12.000000
 49
10.000000
 49
-2.000000
  0
LTYPE
  2
DASHED5
 70
    64
  3
__ __ __ __ __ __ __ __ __ __ __ __ __ __ __
 72
    65
 73
     2
 40
17.000000
 49
15.000000
 49
-2.000000
  0
LTYPE
  2
DASHED6
 70
    64
  3
__ __ __ __ __ __ __ __ __ __ __ __ __ __ __
 72
    65
 73
     2
 40
29.000000
 49
27.000000
 49
-2.000000
  0
LTYPE
  2
PHANTOM1
 70
    64
  3
_____ _ _ _____ _ _ _____ _ _ _____ _ _ ____  
 72
    65
 73
     6
 40
31.000000
 49
25.000000
 49
-1.500000
 49
1.000000
 49
-1.000000
 49
1.000000
 49
-1.500000
  0
LTYPE
  2
PHANTOM2
 70
    64
  3
_____ _ _ _____ _ _ _____ _ _ _____ _ _ ____  
 72
    65
 73
     6
 40
36.000000
 49
27.000000
 49
-1.500000
 49
2.500000
 49
-1.000000
 49
2.500000
 49
-1.500000
  0
LTYPE
  2
PHANTOM3
 70
    64
  3
_____ _ _ _____ _ _ _____ _ _ _____ _ _ ____  
 72
    65
 73
     6
 40
78.000000
 49
64.000000
 49
-2.000000
 49
4.000000
 49
-2.000000
 49
4.000000
 49
-2.000000
  0
LTYPE
  2
CENTER1
 70
    64
  3
____ _ ____ _ ____ _ ____ _ ____ _ ____ _ ____
 72
    65
 73
     4
 40
19.000000
 49
14.000000
 49
-1.000000
 49
3.000000
 49
-1.000000
  0
LTYPE
  2
CENTER2
 70
    64
  3
____ _ ____ _ ____ _ ____ _ ____ _ ____ _ ____
 72
    65
 73
     4
 40
28.500000
 49
25.000000
 49
-1.000000
 49
1.500000
 49
-1.000000
  0
LTYPE
  2
CENTER3
 70
    64
  3
____ _ ____ _ ____ _ ____ _ ____ _ ____ _ ____
 72
    65
 73
     4
 40
31.500000
 49
27.000000
 49
-1.000000
 49
2.500000
 49
-1.000000
  0
LTYPE
  2
CENTER4
 70
    64
  3
____ _ ____ _ ____ _ ____ _ ____ _ ____ _ ____
 72
    65
 73
     4
 40
50.000000
 49
45.000000
 49
-1.000000
 49
3.000000
 49
-1.000000
  0
LTYPE
  2
CENTER5
 70
    64
  3
____ _ ____ _ ____ _ ____ _ ____ _ ____ _ ____
 72
    65
 73
     4
 40
100.000000
 49
92.000000
 49
-2.000000
 49
4.000000
 49
-2.000000
  0
LTYPE
  2
SBK1
 70
    64
  3
______ _ _ _ ______ _ _ _ ______ _ _ _ _____  
 72
    65
 73
     8
 40
60.500000
 49
45.000000
 49
-2.000000
 49
2.500000
 49
-2.000000
 49
2.500000
 49
-2.000000
 49
2.500000
 49
-2.000000
  0
LTYPE
  2
SBK2
 70
    64
  3
______ _ _ _ ______ _ _ _ ______ _ _ _ _____  
 72
    65
 73
     8
 40
84.000000
 49
64.000000
 49
-2.000000
 49
4.000000
 49
-2.000000
 49
4.000000
 49
-2.000000
 49
4.000000
 49
-2.000000
  0
LTYPE
  2
STCH
 70
    64
  3
__ __ __ __ __ __ __ __ __ __ __ __ __ __ __
 72
    65
 73
     2
 40
3.000000
 49
1.000000
 49
-2.000000
  0
LTYPE
  2
MTCH
 70
    64
  3
_____ _ _ _____ _ _ _____ _ _ _____ _ _ ____  
 72
    65
 73
     6
 40
80.000000
 49
66.000000
 49
-2.000000
 49
4.000000
 49
-2.000000
 49
4.000000
 49
-2.000000
  0
ENDTAB
  0
TABLE
  2
LAYER
 70
     1
  0
LAYER
  2
0
 70
     0
 62
     7
  6
CONTINUOUS
  0
ENDTAB
  0
TABLE
  2
STYLE
 70
     1
  0
STYLE
  2
STANDARD
 70
     0
 40
0.000000
 41
1.000000
 50
0.000000
 71
     0
 42
0.200000
  3
txt
  4
BIGFONT
  0
ENDTAB
  0
TABLE
  2
VIEW
 70
     0
  0
ENDTAB
  0
ENDSEC
  0
SECTION
  2
BLOCKS
  0
ENDSEC
  0
SECTION
  2
ENTITIES
  0
POINT
  8
0
 10
39.836838
 20
127.279243
  0
POINT
  8
0
 10
64.836838
 20
127.279243
  0
POINT
  8
0
 10
145.436768
 20
127.279236
  0
POINT
  8
0
 10
237.436768
 20
127.279236
  0
POINT
  8
0
 10
315.636719
 20
127.279236
  0
POINT
  8
0
 10
340.636719
 20
127.279236
  0
LINE
  8
0
 62
     3
 10
0.000000
 20
0.000000
 11
0.000000
 21
254.558472
  0
LINE
  8
0
 62
     3
 10
370.873566
 20
254.558472
 11
370.873566
 21
0.000000
  0
LINE
  8
0
 62
     3
 10
0.000000
 20
0.000000
 11
370.873566
 21
0.000000
  0
LINE
  8
0
 62
     3
 10
0.000000
 20
254.558472
 11
370.873566
 21
254.558472
  0
LINE
  8
0
 62
     3
 10
0.000000
 20
240.257431
 11
76.272194
 21
240.257431
  0
LINE
  8
0
 62
     3
 10
76.272194
 20
240.257431
 11
76.272194
 21
254.558472
  0
LINE
  8
0
 62
     3
 10
294.601379
 20
14.301025
 11
370.873566
 21
14.301025
  0
LINE
  8
0
 62
     3
 10
294.601379
 20
240.257431
 11
370.873566
 21
240.257431
  0
LINE
  8
0
 62
     3
 10
294.601379
 20
254.558472
 11
294.601379
 21
240.257431
  0
LINE
  8
0
 62
     3
 10
294.601379
 20
14.301025
 11
294.601379
 21
0.000000
  0
LINE
  8
0
 10
135.436752
 20
134.279221
 11
136.436768
 21
135.279236
  0
LINE
  8
0
 10
135.436768
 20
120.279236
 11
136.436768
 21
119.279236
  0
LINE
  8
0
 10
105.436768
 20
133.279236
 11
105.436768
 21
121.279236
  0
LINE
  8
0
 10
237.436768
 20
149.579224
 11
237.436768
 21
104.979233
  0
LINE
  8
0
 10
145.436768
 20
152.279236
 11
157.436768
 21
152.279236
  0
LINE
  8
0
 10
145.436768
 20
102.279236
 11
157.436768
 21
102.279236
  0
LINE
  8
0
 10
145.436768
 20
152.279236
 11
145.436768
 21
102.279236
  0
LINE
  8
0
 10
157.436768
 20
152.279236
 11
157.436768
 21
102.279236
  0
LINE
  8
0
 10
144.436768
 20
137.279236
 11
144.436768
 21
117.279236
  0
LINE
  8
0
 10
227.436768
 20
149.579224
 11
227.436768
 21
104.979233
  0
LINE
  8
0
 10
157.436768
 20
104.979233
 11
237.436768
 21
104.979233
  0
LINE
  8
0
 10
157.436768
 20
149.579224
 11
237.436768
 21
149.579224
  0
LINE
  8
0
 10
128.436768
 20
134.279236
 11
128.436768
 21
120.279236
  0
LINE
  8
0
 10
106.436768
 20
134.279236
 11
112.936768
 21
134.279236
  0
LINE
  8
0
 10
106.436768
 20
120.279236
 11
112.936768
 21
120.279236
  0
LINE
  8
0
 10
130.436768
 20
134.279236
 11
130.436768
 21
120.279236
  0
LINE
  8
0
 10
136.436768
 20
135.279236
 11
144.436768
 21
135.279236
  0
LINE
  8
0
 10
136.436768
 20
119.279236
 11
144.436768
 21
119.279236
  0
LINE
  8
0
 10
144.436768
 20
137.279236
 11
145.436768
 21
137.279236
  0
LINE
  8
0
 10
144.436768
 20
117.279236
 11
145.436768
 21
117.279236
  0
LINE
  8
0
 10
131.436768
 20
134.279236
 11
131.436768
 21
120.279236
  0
LINE
  8
0
 10
105.680771
 20
121.035233
 11
112.936768
 21
121.035233
  0
LINE
  8
0
 10
105.680771
 20
133.523224
 11
112.936768
 21
133.523224
  0
LINE
  8
0
 10
105.436783
 20
121.279236
 11
106.436783
 21
120.279236
  0
LINE
  8
0
 10
105.436768
 20
133.279221
 11
106.436768
 21
134.279221
  0
LINE
  8
0
 10
106.436768
 20
134.279236
 11
106.436768
 21
120.279236
  0
LINE
  8
0
 10
128.436737
 20
133.523315
 11
129.746185
 21
134.279312
  0
LINE
  8
0
 10
128.436783
 20
121.035233
 11
129.746216
 21
120.279236
  0
LINE
  8
0
 10
112.936722
 20
136.779282
 11
113.785225
 21
138.248932
  0
LINE
  8
0
 10
120.936768
 20
134.279236
 11
135.436768
 21
134.279236
  0
LINE
  8
0
 10
120.936768
 20
133.523224
 11
128.436768
 21
133.523224
  0
LINE
  8
0
 10
120.936768
 20
121.035233
 11
128.436768
 21
121.035233
  0
LINE
  8
0
 10
120.936768
 20
120.279236
 11
135.436768
 21
120.279236
  0
LINE
  8
0
 10
120.088264
 20
132.764053
 11
113.785286
 21
132.764053
  0
LINE
  8
0
 10
120.936768
 20
136.779236
 11
120.088264
 21
138.248871
  0
LINE
  8
0
 10
120.088264
 20
138.248886
 11
113.785255
 21
138.248886
  0
LINE
  8
0
 10
112.936768
 20
117.779236
 11
112.936768
 21
136.779266
  0
LINE
  8
0
 10
112.936760
 20
117.779221
 11
113.785263
 21
116.309578
  0
LINE
  8
0
 10
120.088264
 20
121.794411
 11
113.785278
 21
121.794411
  0
LINE
  8
0
 10
120.936768
 20
117.779236
 11
120.936768
 21
136.779251
  0
LINE
  8
0
 10
120.936798
 20
117.779213
 11
120.088287
 21
116.309547
  0
LINE
  8
0
 10
120.088264
 20
116.309586
 11
113.785263
 21
116.309586
  0
LINE
  8
0
  6
CENTER
 10
102.436768
 20
127.279236
 11
240.436768
 21
127.279236
  0
LINE
  8
0
 10
109.686790
 20
120.279251
 11
96.407722
 21
97.279243
  0
LINE
  8
0
 10
108.910332
 20
117.381462
 11
109.686790
 21
120.279236
  0
LINE
  8
0
 10
107.565468
 20
118.157921
 11
109.686783
 21
120.279243
  0
LINE
  8
0
 10
96.407730
 20
97.279243
 11
126.407730
 21
97.279243
  0
LINE
  8
0
 10
30.336838
 20
132.764069
 11
30.336838
 21
121.794418
  0
LINE
  8
0
 10
39.836807
 20
138.248993
 11
30.336796
 21
132.764160
  0
LINE
  8
0
 10
30.336828
 20
121.794395
 11
39.836807
 21
116.309570
  0
LINE
  8
0
 10
39.836838
 20
116.309624
 11
49.336849
 21
121.794456
  0
LINE
  8
0
 10
49.336838
 20
121.794418
 11
49.336838
 21
132.764069
  0
LINE
  8
0
 10
49.336796
 20
132.764053
 11
39.836803
 21
138.248871
  0
LINE
  8
0
  6
CENTER
 10
26.836838
 20
145.279236
 11
26.836838
 21
135.279236
  0
LINE
  8
0
  6
CENTER
 10
21.836823
 20
140.279236
 11
31.836823
 21
140.279236
  0
LINE
  8
0
  6
CENTER
 10
11.836823
 20
127.279243
 11
67.836823
 21
127.279243
  0
LINE
  8
0
  6
CENTER
 10
39.836838
 20
155.279251
 11
39.836838
 21
99.279236
  0
LINE
  8
0
  6
CENTER
 10
21.836823
 20
114.279243
 11
31.836823
 21
114.279243
  0
LINE
  8
0
  6
CENTER
 10
26.836838
 20
119.279243
 11
26.836838
 21
109.279243
  0
LINE
  8
0
  6
CENTER
 10
47.836823
 20
114.279243
 11
57.836823
 21
114.279243
  0
LINE
  8
0
  6
CENTER
 10
52.836838
 20
119.279243
 11
52.836838
 21
109.279243
  0
LINE
  8
0
  6
CENTER
 10
47.836823
 20
140.279236
 11
57.836823
 21
140.279236
  0
LINE
  8
0
  6
CENTER
 10
52.836838
 20
145.279236
 11
52.836838
 21
135.279236
  0
LINE
  8
0
 10
54.336777
 20
142.877319
 11
68.425240
 21
167.279251
  0
LINE
  8
0
 10
54.336792
 20
142.877304
 11
55.113251
 21
145.775085
  0
LINE
  8
0
 10
54.336792
 20
142.877319
 11
56.458115
 21
144.998642
  0
LINE
  8
0
 10
68.425255
 20
167.279236
 11
91.557999
 21
167.279236
  0
LINE
  8
0
  6
CENTER
 10
315.636719
 20
155.279236
 11
315.636719
 21
99.279236
  0
LINE
  8
0
  6
CENTER
 10
287.636719
 20
127.279236
 11
343.636719
 21
127.279236
  0
LINE
  8
0
  6
CENTER
 10
302.636719
 20
131.279236
 11
302.636719
 21
123.279236
  0
LINE
  8
0
  6
CENTER
 10
308.636719
 20
140.279236
 11
322.636719
 21
140.279236
  0
LINE
  8
0
  6
CENTER
 10
328.636719
 20
131.279236
 11
328.636719
 21
123.279236
  0
LINE
  8
0
  6
CENTER
 10
308.636719
 20
114.279236
 11
322.636719
 21
114.279236
  0
LINE
  8
0
 10
329.886749
 20
129.444275
 11
351.730743
 21
167.279221
  0
LINE
  8
0
 10
313.136780
 20
109.949112
 11
300.048309
 21
87.279221
  0
LINE
  8
0
 10
312.360321
 20
107.051315
 11
313.136780
 21
109.949097
  0
LINE
  8
0
 10
329.886749
 20
129.444275
 11
330.663208
 21
132.342041
  0
LINE
  8
0
 10
329.886810
 20
129.444305
 11
332.008118
 21
131.565628
  0
LINE
  8
0
 10
311.015472
 20
107.827774
 11
313.136810
 21
109.949097
  0
LINE
  8
0
 10
273.146088
 20
87.279236
 11
300.048309
 21
87.279236
  0
LINE
  8
0
 10
318.730774
 20
167.279221
 11
351.730743
 21
167.279221
  0
ARC
  8
0
 10
116.080704
 20
119.052002
 40
4.856061
 50
325.615692
 51
34.384178
  0
ARC
  8
0
 10
117.792831
 20
119.052002
 40
4.856061
 50
145.615692
 51
214.384232
  0
ARC
  8
0
 10
116.080704
 20
135.506470
 40
4.856061
 50
325.615692
 51
34.384300
  0
ARC
  8
0
 10
102.785294
 20
127.279228
 40
18.151466
 50
342.412048
 51
17.587925
  0
ARC
  8
0
 10
131.088242
 20
127.279228
 40
18.151470
 50
162.412033
 51
197.587906
  0
ARC
  8
0
 10
117.792831
 20
135.506470
 40
4.856061
 50
145.615692
 51
214.384308
  0
CIRCLE
  8
0
 10
39.836838
 20
127.279243
 40
9.500000
  0
CIRCLE
  8
0
 10
39.836838
 20
127.279243
 40
6.250000
  0
CIRCLE
  8
0
 10
39.836838
 20
127.279243
 40
7.000000
  0
CIRCLE
  8
0
 10
52.836838
 20
114.279243
 40
2.500000
  0
CIRCLE
  8
0
 10
52.836838
 20
114.279243
 40
3.000000
  0
CIRCLE
  8
0
 10
26.836838
 20
114.279243
 40
2.500000
  0
CIRCLE
  8
0
 10
26.836838
 20
114.279243
 40
3.000000
  0
CIRCLE
  8
0
 10
26.836838
 20
140.279236
 40
2.500000
  0
CIRCLE
  8
0
 10
26.836838
 20
140.279236
 40
3.000000
  0
CIRCLE
  8
0
 10
52.836838
 20
140.279236
 40
2.500000
  0
CIRCLE
  8
0
 10
52.836838
 20
140.279236
 40
3.000000
  0
CIRCLE
  8
0
 10
39.836838
 20
127.279243
 40
25.000000
  0
CIRCLE
  8
0
 10
315.636719
 20
127.279236
 40
25.000000
  0
CIRCLE
  8
0
 10
315.636719
 20
127.279236
 40
22.299999
  0
CIRCLE
  8
0
 10
302.636719
 20
127.279236
 40
2.100000
  0
CIRCLE
  8
0
 10
302.636719
 20
127.279236
 40
2.500000
  0
CIRCLE
  8
0
 10
328.636719
 20
127.279236
 40
2.100000
  0
CIRCLE
  8
0
 10
328.636719
 20
127.279236
 40
2.500000
  0
CIRCLE
  8
0
 10
315.636719
 20
140.279236
 40
4.250000
  0
CIRCLE
  8
0
 10
315.636719
 20
140.279236
 40
5.000000
  0
CIRCLE
  8
0
 10
315.636719
 20
114.279236
 40
4.250000
  0
CIRCLE
  8
0
 10
315.636719
 20
114.279236
 40
5.000000
  0
TEXT
  8
0
 10
298.797760
 20
244.589584
 40
4.242641
  1
DATE : JAN ,1992
 50
0.000000
 41
1.052631
 51
0.000000
  7
STANDARD
  0
TEXT
  8
0
 10
2.257077
 20
243.907959
 40
5.000000
  1
TWIN PORT CYLINDER
 50
0.000000
 41
0.831919
 51
0.000000
  7
STANDARD
  0
TEXT
  8
0
 10
12.035715
 20
221.757431
 40
5.000000
  1
MODEL : TWDA 40xSt-HA(15)
 50
0.000000
 41
1.052632
 51
0.000000
  7
STANDARD
  0
TEXT
  8
0
 10
100.407730
 20
97.629242
 40
3.500000
  1
M14x1.5
 50
0.000000
 41
1.052632
 51
0.000000
  7
STANDARD
  0
TEXT
  8
0
 10
69.425255
 20
167.629242
 40
3.500000
  1
4-M6x1
 50
0.000000
 41
1.052632
 51
0.000000
  7
STANDARD
  0
TEXT
  8
0
 10
319.730774
 20
167.629227
 40
3.500000
  1
2-M5x0.8
 50
0.000000
 41
1.052632
 51
0.000000
  7
STANDARD
  0
TEXT
  8
0
 10
274.048309
 20
87.629234
 40
3.500000
  1
2-Rc1/8
 50
0.000000
 41
1.052632
 51
0.000000
  7
STANDARD
  0
TEXT
  8
0
 10
302.273193
 20
3.650512
 40
5.000000
  1
KOGANEI,CORP
 50
0.000000
 41
1.052632
 51
0.000000
  7
STANDARD
  0
ENDSEC
  0
EOF
