  0
SECTION
  2
HEADER
  0
ENDSEC
  0
SECTION
  2
TABLES
  0
TABLE
  2
LTYPE
 70
     4
  0
LTYPE
  2
CONTINUOUS
 70
    64
  3
Solid line
 72
    65
 73
     0
 40
0.000000
  0
LTYPE
  2
DASHED
 70
    64
  3
__ __ __ __ __ __ __ __ __ __ __ __ __ __ __
 72
    65
 73
     2
 40
3.500000
 49
2.000000
 49
-1.500000
  0
LTYPE
  2
CENTER
 70
    64
  3
____ _ ____ _ ____ _ ____ _ ____ _ ____ _ ____
 72
    65
 73
     4
 40
17.500000
 49
13.000000
 49
-1.500000
 49
1.500000
 49
-1.500000
  0
LTYPE
  2
PHANTOM
 70
    64
  3
_____ _ _ _____ _ _ _____ _ _ _____ _ _ ____  
 72
    65
 73
     6
 40
15.500000
 49
8.000000
 49
-1.500000
 49
1.500000
 49
-1.500000
 49
1.500000
 49
-1.500000
  0
LTYPE
  2
DASHED1
 70
    64
  3
__ __ __ __ __ __ __ __ __ __ __ __ __ __ __
 72
    65
 73
     2
 40
1.500000
 49
1.000000
 49
-0.500000
  0
LTYPE
  2
DASHED2
 70
    64
  3
__ __ __ __ __ __ __ __ __ __ __ __ __ __ __
 72
    65
 73
     2
 40
3.500000
 49
2.500000
 49
-1.000000
  0
LTYPE
  2
DASHED3
 70
    64
  3
__ __ __ __ __ __ __ __ __ __ __ __ __ __ __
 72
    65
 73
     2
 40
6.000000
 49
4.000000
 49
-2.000000
  0
LTYPE
  2
DASHED4
 70
    64
  3
__ __ __ __ __ __ __ __ __ __ __ __ __ __ __
 72
    65
 73
     2
 40
12.000000
 49
10.000000
 49
-2.000000
  0
LTYPE
  2
DASHED5
 70
    64
  3
__ __ __ __ __ __ __ __ __ __ __ __ __ __ __
 72
    65
 73
     2
 40
17.000000
 49
15.000000
 49
-2.000000
  0
LTYPE
  2
DASHED6
 70
    64
  3
__ __ __ __ __ __ __ __ __ __ __ __ __ __ __
 72
    65
 73
     2
 40
29.000000
 49
27.000000
 49
-2.000000
  0
LTYPE
  2
PHANTOM1
 70
    64
  3
_____ _ _ _____ _ _ _____ _ _ _____ _ _ ____  
 72
    65
 73
     6
 40
31.000000
 49
25.000000
 49
-1.500000
 49
1.000000
 49
-1.000000
 49
1.000000
 49
-1.500000
  0
LTYPE
  2
PHANTOM2
 70
    64
  3
_____ _ _ _____ _ _ _____ _ _ _____ _ _ ____  
 72
    65
 73
     6
 40
36.000000
 49
27.000000
 49
-1.500000
 49
2.500000
 49
-1.000000
 49
2.500000
 49
-1.500000
  0
LTYPE
  2
PHANTOM3
 70
    64
  3
_____ _ _ _____ _ _ _____ _ _ _____ _ _ ____  
 72
    65
 73
     6
 40
78.000000
 49
64.000000
 49
-2.000000
 49
4.000000
 49
-2.000000
 49
4.000000
 49
-2.000000
  0
LTYPE
  2
CENTER1
 70
    64
  3
____ _ ____ _ ____ _ ____ _ ____ _ ____ _ ____
 72
    65
 73
     4
 40
19.000000
 49
14.000000
 49
-1.000000
 49
3.000000
 49
-1.000000
  0
LTYPE
  2
CENTER2
 70
    64
  3
____ _ ____ _ ____ _ ____ _ ____ _ ____ _ ____
 72
    65
 73
     4
 40
28.500000
 49
25.000000
 49
-1.000000
 49
1.500000
 49
-1.000000
  0
LTYPE
  2
CENTER3
 70
    64
  3
____ _ ____ _ ____ _ ____ _ ____ _ ____ _ ____
 72
    65
 73
     4
 40
31.500000
 49
27.000000
 49
-1.000000
 49
2.500000
 49
-1.000000
  0
LTYPE
  2
CENTER4
 70
    64
  3
____ _ ____ _ ____ _ ____ _ ____ _ ____ _ ____
 72
    65
 73
     4
 40
50.000000
 49
45.000000
 49
-1.000000
 49
3.000000
 49
-1.000000
  0
LTYPE
  2
CENTER5
 70
    64
  3
____ _ ____ _ ____ _ ____ _ ____ _ ____ _ ____
 72
    65
 73
     4
 40
100.000000
 49
92.000000
 49
-2.000000
 49
4.000000
 49
-2.000000
  0
LTYPE
  2
SBK1
 70
    64
  3
______ _ _ _ ______ _ _ _ ______ _ _ _ _____  
 72
    65
 73
     8
 40
60.500000
 49
45.000000
 49
-2.000000
 49
2.500000
 49
-2.000000
 49
2.500000
 49
-2.000000
 49
2.500000
 49
-2.000000
  0
LTYPE
  2
SBK2
 70
    64
  3
______ _ _ _ ______ _ _ _ ______ _ _ _ _____  
 72
    65
 73
     8
 40
84.000000
 49
64.000000
 49
-2.000000
 49
4.000000
 49
-2.000000
 49
4.000000
 49
-2.000000
 49
4.000000
 49
-2.000000
  0
LTYPE
  2
STCH
 70
    64
  3
__ __ __ __ __ __ __ __ __ __ __ __ __ __ __
 72
    65
 73
     2
 40
3.000000
 49
1.000000
 49
-2.000000
  0
LTYPE
  2
MTCH
 70
    64
  3
_____ _ _ _____ _ _ _____ _ _ _____ _ _ ____  
 72
    65
 73
     6
 40
80.000000
 49
66.000000
 49
-2.000000
 49
4.000000
 49
-2.000000
 49
4.000000
 49
-2.000000
  0
ENDTAB
  0
TABLE
  2
LAYER
 70
     1
  0
LAYER
  2
0
 70
     0
 62
     7
  6
CONTINUOUS
  0
ENDTAB
  0
TABLE
  2
STYLE
 70
     1
  0
STYLE
  2
STANDARD
 70
     0
 40
0.000000
 41
1.000000
 50
0.000000
 71
     0
 42
0.200000
  3
txt
  4
BIGFONT
  0
ENDTAB
  0
TABLE
  2
VIEW
 70
     0
  0
ENDTAB
  0
ENDSEC
  0
SECTION
  2
BLOCKS
  0
ENDSEC
  0
SECTION
  2
ENTITIES
  0
POINT
  8
0
 10
160.436783
 20
127.279236
  0
POINT
  8
0
 10
252.436783
 20
127.279236
  0
POINT
  8
0
 10
310.436768
 20
127.279236
  0
POINT
  8
0
 10
326.936768
 20
127.279236
  0
POINT
  8
0
 10
61.936783
 20
127.279236
  0
POINT
  8
0
 10
45.436783
 20
127.279236
  0
LINE
  8
0
 62
     3
 10
0.000000
 20
0.000000
 11
0.000000
 21
254.558472
  0
LINE
  8
0
 62
     3
 10
370.873566
 20
254.558472
 11
370.873566
 21
0.000000
  0
LINE
  8
0
 62
     3
 10
0.000000
 20
0.000000
 11
370.873566
 21
0.000000
  0
LINE
  8
0
 62
     3
 10
0.000000
 20
254.558472
 11
370.873566
 21
254.558472
  0
LINE
  8
0
 62
     3
 10
0.000000
 20
240.257431
 11
76.272194
 21
240.257431
  0
LINE
  8
0
 62
     3
 10
76.272194
 20
240.257431
 11
76.272194
 21
254.558472
  0
LINE
  8
0
 62
     3
 10
294.601379
 20
14.301025
 11
370.873566
 21
14.301025
  0
LINE
  8
0
 62
     3
 10
294.601379
 20
240.257431
 11
370.873566
 21
240.257431
  0
LINE
  8
0
 62
     3
 10
294.601379
 20
254.558472
 11
294.601379
 21
240.257431
  0
LINE
  8
0
 62
     3
 10
294.601379
 20
14.301025
 11
294.601379
 21
0.000000
  0
LINE
  8
0
 10
146.436768
 20
123.279228
 11
145.436768
 21
122.279228
  0
LINE
  8
0
 10
160.436783
 20
143.279236
 11
160.436783
 21
111.279236
  0
LINE
  8
0
 10
126.436783
 20
131.279236
 11
126.436783
 21
123.279236
  0
LINE
  8
0
 10
252.436783
 20
141.679230
 11
252.436783
 21
112.879234
  0
LINE
  8
0
 10
171.436783
 20
143.779236
 11
185.436783
 21
143.779236
  0
LINE
  8
0
 10
171.436783
 20
110.779236
 11
185.436783
 21
110.779236
  0
LINE
  8
0
 10
171.436783
 20
143.779236
 11
171.436783
 21
110.779236
  0
LINE
  8
0
 10
185.436783
 20
143.779236
 11
185.436783
 21
110.779236
  0
LINE
  8
0
 10
160.436783
 20
143.279236
 11
171.436783
 21
143.279236
  0
LINE
  8
0
 10
160.436783
 20
111.279236
 11
171.436783
 21
111.279236
  0
LINE
  8
0
 10
243.436783
 20
141.679230
 11
243.436783
 21
112.879234
  0
LINE
  8
0
 10
185.436783
 20
112.879234
 11
252.436783
 21
112.879234
  0
LINE
  8
0
 10
185.436783
 20
141.679230
 11
252.436783
 21
141.679230
  0
LINE
  8
0
 10
159.436783
 20
133.279236
 11
159.436783
 21
121.279236
  0
LINE
  8
0
 10
159.436783
 20
133.279236
 11
160.436783
 21
133.279236
  0
LINE
  8
0
 10
159.436783
 20
121.279236
 11
160.436783
 21
121.279236
  0
LINE
  8
0
 10
127.436783
 20
132.279236
 11
132.647034
 21
132.279236
  0
LINE
  8
0
 10
127.436783
 20
122.279236
 11
132.647034
 21
122.279236
  0
LINE
  8
0
 10
126.811783
 20
122.904236
 11
132.647034
 21
122.904236
  0
LINE
  8
0
 10
126.811790
 20
131.654236
 11
132.647034
 21
131.654236
  0
LINE
  8
0
 10
144.436783
 20
132.279236
 11
144.436783
 21
122.279236
  0
LINE
  8
0
 10
144.436798
 20
122.904251
 11
145.467010
 21
122.309456
  0
LINE
  8
0
 10
144.436768
 20
131.654282
 11
145.466965
 21
132.249069
  0
LINE
  8
0
 10
126.436790
 20
131.279205
 11
127.436806
 21
132.279221
  0
LINE
  8
0
 10
127.436775
 20
122.279221
 11
126.436775
 21
123.279228
  0
LINE
  8
0
 10
127.436760
 20
132.279236
 11
127.436760
 21
122.279243
  0
LINE
  8
0
 10
138.647034
 20
122.279236
 11
145.436783
 21
122.279236
  0
LINE
  8
0
 10
138.647034
 20
122.904236
 11
144.436783
 21
122.904236
  0
LINE
  8
0
 10
138.647034
 20
131.654236
 11
144.436783
 21
131.654236
  0
LINE
  8
0
 10
138.647034
 20
132.279236
 11
145.436783
 21
132.279236
  0
LINE
  8
0
 10
132.646912
 20
134.279327
 11
133.272110
 21
135.362213
  0
LINE
  8
0
 10
138.021835
 20
131.320679
 11
133.272247
 21
131.320679
  0
LINE
  8
0
 10
138.647018
 20
134.279236
 11
138.021805
 21
135.362137
  0
LINE
  8
0
 10
138.021820
 20
135.362137
 11
133.272247
 21
135.362137
  0
LINE
  8
0
 10
132.647049
 20
120.279236
 11
132.647049
 21
134.279388
  0
LINE
  8
0
 10
132.646973
 20
120.279205
 11
133.272186
 21
119.196304
  0
LINE
  8
0
 10
138.021835
 20
123.237785
 11
133.272247
 21
123.237785
  0
LINE
  8
0
 10
138.647049
 20
120.279236
 11
138.647049
 21
134.279236
  0
LINE
  8
0
 10
138.647049
 20
120.279205
 11
138.021835
 21
119.196304
  0
LINE
  8
0
 10
138.021820
 20
119.196335
 11
133.272247
 21
119.196335
  0
LINE
  8
0
 10
146.436783
 20
123.279236
 11
151.436783
 21
123.279236
  0
LINE
  8
0
 10
146.436783
 20
131.279236
 11
151.436783
 21
131.279236
  0
LINE
  8
0
 10
152.436783
 20
132.279236
 11
159.436783
 21
132.279236
  0
LINE
  8
0
 10
152.436783
 20
122.279236
 11
159.436783
 21
122.279236
  0
LINE
  8
0
 10
145.436783
 20
132.279236
 11
146.436783
 21
131.279236
  0
LINE
  8
0
 10
151.436768
 20
131.279221
 11
152.436768
 21
132.279221
  0
LINE
  8
0
 10
151.436783
 20
123.279228
 11
152.436783
 21
122.279228
  0
LINE
  8
0
  6
CENTER
 10
123.436783
 20
127.279236
 11
255.436783
 21
127.279236
  0
LINE
  8
0
  6
CENTER
 10
178.436783
 20
140.779236
 11
178.436783
 21
128.779236
  0
LINE
  8
0
  6
CENTER
 10
172.436783
 20
134.779236
 11
184.436783
 21
134.779236
  0
LINE
  8
0
  6
CENTER
 10
178.436783
 20
125.779236
 11
178.436783
 21
113.779236
  0
LINE
  8
0
  6
CENTER
 10
172.436783
 20
119.779236
 11
184.436783
 21
119.779236
  0
LINE
  8
0
 10
180.936783
 20
139.109375
 11
192.293182
 21
158.779251
  0
LINE
  8
0
 10
130.041901
 20
122.279236
 11
120.515617
 21
105.779228
  0
LINE
  8
0
 10
129.265457
 20
119.381462
 11
130.041916
 21
122.279236
  0
LINE
  8
0
 10
180.936783
 20
139.109360
 11
181.713242
 21
142.007141
  0
LINE
  8
0
 10
180.936783
 20
139.109375
 11
183.058105
 21
141.230698
  0
LINE
  8
0
 10
127.920593
 20
120.157928
 11
130.041916
 21
122.279251
  0
LINE
  8
0
 10
90.515617
 20
105.779236
 11
120.515617
 21
105.779236
  0
LINE
  8
0
 10
192.293198
 20
158.779236
 11
219.409225
 21
158.779236
  0
LINE
  8
0
 10
45.436783
 20
110.779236
 11
61.936783
 21
110.779236
  0
LINE
  8
0
 10
38.436752
 20
123.237801
 11
45.436768
 21
119.196350
  0
LINE
  8
0
 10
45.436756
 20
119.196381
 11
52.436756
 21
123.237831
  0
LINE
  8
0
 10
52.436783
 20
123.237785
 11
52.436783
 21
131.320694
  0
LINE
  8
0
 10
52.436756
 20
131.320663
 11
45.436752
 21
135.362137
  0
LINE
  8
0
 10
45.436825
 20
135.362091
 11
38.436810
 21
131.320633
  0
LINE
  8
0
 10
38.436783
 20
131.320709
 11
38.436783
 21
123.237785
  0
LINE
  8
0
 10
61.936783
 20
143.779236
 11
61.936783
 21
110.779236
  0
LINE
  8
0
 10
45.436783
 20
143.779236
 11
61.936783
 21
143.779236
  0
LINE
  8
0
  6
CENTER
 10
33.936783
 20
119.279236
 11
40.936783
 21
119.279236
  0
LINE
  8
0
  6
CENTER
 10
37.436783
 20
122.779236
 11
37.436783
 21
115.779236
  0
LINE
  8
0
  6
CENTER
 10
23.700500
 20
127.279236
 11
64.436783
 21
127.279236
  0
LINE
  8
0
  6
CENTER
 10
45.436783
 20
146.279236
 11
45.436783
 21
108.279236
  0
LINE
  8
0
  6
CENTER
 10
37.436783
 20
138.779236
 11
37.436783
 21
131.779236
  0
LINE
  8
0
  6
CENTER
 10
33.936783
 20
135.279236
 11
40.936783
 21
135.279236
  0
LINE
  8
0
  6
CENTER
 10
49.936783
 20
135.279236
 11
56.936783
 21
135.279236
  0
LINE
  8
0
  6
CENTER
 10
53.436783
 20
138.779236
 11
53.436783
 21
131.779236
  0
LINE
  8
0
  6
CENTER
 10
53.436783
 20
122.779236
 11
53.436783
 21
115.779236
  0
LINE
  8
0
  6
CENTER
 10
49.936783
 20
119.279236
 11
56.936783
 21
119.279236
  0
LINE
  8
0
 10
54.686798
 20
137.444275
 11
67.004524
 21
158.779221
  0
LINE
  8
0
 10
54.686806
 20
137.444290
 11
55.463261
 21
140.342072
  0
LINE
  8
0
 10
54.686810
 20
137.444305
 11
56.808128
 21
139.565628
  0
LINE
  8
0
 10
67.004524
 20
158.779221
 11
97.004524
 21
158.779221
  0
LINE
  8
0
 10
293.936768
 20
143.779236
 11
293.936768
 21
110.779236
  0
LINE
  8
0
 10
293.936768
 20
143.779236
 11
310.436768
 21
143.779236
  0
LINE
  8
0
 10
293.936768
 20
110.779236
 11
310.436768
 21
110.779236
  0
LINE
  8
0
  6
CENTER
 10
291.436768
 20
127.279236
 11
329.436768
 21
127.279236
  0
LINE
  8
0
  6
CENTER
 10
310.436768
 20
146.279236
 11
310.436768
 21
108.279236
  0
LINE
  8
0
 10
311.686737
 20
129.444290
 11
328.623260
 21
158.779236
  0
LINE
  8
0
 10
311.686768
 20
129.444290
 11
312.463226
 21
132.342072
  0
LINE
  8
0
 10
311.686829
 20
129.444275
 11
313.808136
 21
131.565598
  0
LINE
  8
0
 10
328.623352
 20
158.779236
 11
351.605164
 21
158.779236
  0
ARC
  8
0
 10
136.225220
 20
133.341415
 40
3.578166
 50
145.615997
 51
214.383865
  0
CIRCLE
  8
0
 10
178.436783
 20
134.779236
 40
4.250000
  0
CIRCLE
  8
0
 10
178.436783
 20
119.779236
 40
4.250000
  0
CIRCLE
  8
0
 10
178.436783
 20
119.779236
 40
5.000000
  0
CIRCLE
  8
0
 10
178.436783
 20
134.779236
 40
5.000000
  0
ARC
  8
0
 10
135.068878
 20
121.217056
 40
3.578166
 50
325.615997
 51
34.383869
  0
ARC
  8
0
 10
125.272171
 20
127.279236
 40
13.374874
 50
342.412170
 51
17.587858
  0
ARC
  8
0
 10
136.225220
 20
121.217056
 40
3.578170
 50
145.615891
 51
214.383865
  0
ARC
  8
0
 10
146.021912
 20
127.279236
 40
13.374872
 50
162.412201
 51
197.587769
  0
ARC
  8
0
 10
135.068878
 20
133.341415
 40
3.578166
 50
325.615997
 51
34.383869
  0
CIRCLE
  8
0
 10
45.436783
 20
127.279236
 40
16.000000
  0
CIRCLE
  8
0
 10
45.436783
 20
127.279236
 40
4.375000
  0
CIRCLE
  8
0
 10
45.436783
 20
127.279236
 40
5.000000
  0
CIRCLE
  8
0
 10
45.436783
 20
127.279236
 40
7.000000
  0
CIRCLE
  8
0
 10
37.436783
 20
135.279236
 40
2.100000
  0
CIRCLE
  8
0
 10
37.436783
 20
119.279236
 40
2.100000
  0
CIRCLE
  8
0
 10
53.436783
 20
119.279236
 40
2.100000
  0
CIRCLE
  8
0
 10
53.436783
 20
135.279236
 40
2.100000
  0
CIRCLE
  8
0
 10
53.436783
 20
135.279236
 40
2.500000
  0
CIRCLE
  8
0
 10
53.436783
 20
119.279236
 40
2.500000
  0
CIRCLE
  8
0
 10
37.436783
 20
119.279236
 40
2.500000
  0
CIRCLE
  8
0
 10
37.436783
 20
135.279236
 40
2.500000
  0
ARC
  8
0
 10
45.436783
 20
127.279236
 40
16.500000
 50
89.999985
 51
270.000000
  0
ARC
  8
0
 10
310.436768
 20
127.279236
 40
16.500000
 50
0.000000
 51
90.000000
  0
CIRCLE
  8
0
 10
310.436768
 20
127.279236
 40
14.430000
  0
ARC
  8
0
 10
310.436768
 20
127.279236
 40
16.500000
 50
270.000000
 51
0.000000
  0
CIRCLE
  8
0
 10
310.436768
 20
127.279236
 40
2.100000
  0
CIRCLE
  8
0
 10
310.436768
 20
127.279236
 40
2.500000
  0
TEXT
  8
0
 10
298.797760
 20
244.589584
 40
4.242641
  1
DATE : JAN ,1992
 50
0.000000
 41
1.052631
 51
0.000000
  7
STANDARD
  0
TEXT
  8
0
 10
2.257077
 20
243.907959
 40
5.000000
  1
TWIN PORT CYLINDER
 50
0.000000
 41
0.831919
 51
0.000000
  7
STANDARD
  0
TEXT
  8
0
 10
12.035715
 20
221.757431
 40
5.000000
  1
MODEL : TWDA 25xSt-RA(15)
 50
0.000000
 41
1.052632
 51
0.000000
  7
STANDARD
  0
TEXT
  8
0
 10
193.293198
 20
159.129242
 40
3.500000
  1
2-Rc1/8
 50
0.000000
 41
1.052632
 51
0.000000
  7
STANDARD
  0
TEXT
  8
0
 10
91.515617
 20
106.129234
 40
3.500000
  1
M10x1.25
 50
0.000000
 41
1.052632
 51
0.000000
  7
STANDARD
  0
TEXT
  8
0
 10
68.004532
 20
159.129227
 40
3.500000
  1
4-M5x0.8
 50
0.000000
 41
1.052632
 51
0.000000
  7
STANDARD
  0
TEXT
  8
0
 10
329.623352
 20
159.129242
 40
3.500000
  1
M5x0.8
 50
0.000000
 41
1.052632
 51
0.000000
  7
STANDARD
  0
TEXT
  8
0
 10
302.273193
 20
3.650512
 40
5.000000
  1
KOGANEI,CORP
 50
0.000000
 41
1.052632
 51
0.000000
  7
STANDARD
  0
ENDSEC
  0
EOF
