  0
SECTION
  2
HEADER
  0
ENDSEC
  0
SECTION
  2
TABLES
  0
TABLE
  2
LTYPE
 70
     4
  0
LTYPE
  2
CONTINUOUS
 70
    64
  3
Solid line
 72
    65
 73
     0
 40
0.000000
  0
LTYPE
  2
DASHED
 70
    64
  3
__ __ __ __ __ __ __ __ __ __ __ __ __ __ __
 72
    65
 73
     2
 40
3.500000
 49
2.000000
 49
-1.500000
  0
LTYPE
  2
CENTER
 70
    64
  3
____ _ ____ _ ____ _ ____ _ ____ _ ____ _ ____
 72
    65
 73
     4
 40
17.500000
 49
13.000000
 49
-1.500000
 49
1.500000
 49
-1.500000
  0
LTYPE
  2
PHANTOM
 70
    64
  3
_____ _ _ _____ _ _ _____ _ _ _____ _ _ ____  
 72
    65
 73
     6
 40
15.500000
 49
8.000000
 49
-1.500000
 49
1.500000
 49
-1.500000
 49
1.500000
 49
-1.500000
  0
LTYPE
  2
DASHED1
 70
    64
  3
__ __ __ __ __ __ __ __ __ __ __ __ __ __ __
 72
    65
 73
     2
 40
1.500000
 49
1.000000
 49
-0.500000
  0
LTYPE
  2
DASHED2
 70
    64
  3
__ __ __ __ __ __ __ __ __ __ __ __ __ __ __
 72
    65
 73
     2
 40
3.500000
 49
2.500000
 49
-1.000000
  0
LTYPE
  2
DASHED3
 70
    64
  3
__ __ __ __ __ __ __ __ __ __ __ __ __ __ __
 72
    65
 73
     2
 40
6.000000
 49
4.000000
 49
-2.000000
  0
LTYPE
  2
DASHED4
 70
    64
  3
__ __ __ __ __ __ __ __ __ __ __ __ __ __ __
 72
    65
 73
     2
 40
12.000000
 49
10.000000
 49
-2.000000
  0
LTYPE
  2
DASHED5
 70
    64
  3
__ __ __ __ __ __ __ __ __ __ __ __ __ __ __
 72
    65
 73
     2
 40
17.000000
 49
15.000000
 49
-2.000000
  0
LTYPE
  2
DASHED6
 70
    64
  3
__ __ __ __ __ __ __ __ __ __ __ __ __ __ __
 72
    65
 73
     2
 40
29.000000
 49
27.000000
 49
-2.000000
  0
LTYPE
  2
PHANTOM1
 70
    64
  3
_____ _ _ _____ _ _ _____ _ _ _____ _ _ ____  
 72
    65
 73
     6
 40
31.000000
 49
25.000000
 49
-1.500000
 49
1.000000
 49
-1.000000
 49
1.000000
 49
-1.500000
  0
LTYPE
  2
PHANTOM2
 70
    64
  3
_____ _ _ _____ _ _ _____ _ _ _____ _ _ ____  
 72
    65
 73
     6
 40
36.000000
 49
27.000000
 49
-1.500000
 49
2.500000
 49
-1.000000
 49
2.500000
 49
-1.500000
  0
LTYPE
  2
PHANTOM3
 70
    64
  3
_____ _ _ _____ _ _ _____ _ _ _____ _ _ ____  
 72
    65
 73
     6
 40
78.000000
 49
64.000000
 49
-2.000000
 49
4.000000
 49
-2.000000
 49
4.000000
 49
-2.000000
  0
LTYPE
  2
CENTER1
 70
    64
  3
____ _ ____ _ ____ _ ____ _ ____ _ ____ _ ____
 72
    65
 73
     4
 40
19.000000
 49
14.000000
 49
-1.000000
 49
3.000000
 49
-1.000000
  0
LTYPE
  2
CENTER2
 70
    64
  3
____ _ ____ _ ____ _ ____ _ ____ _ ____ _ ____
 72
    65
 73
     4
 40
28.500000
 49
25.000000
 49
-1.000000
 49
1.500000
 49
-1.000000
  0
LTYPE
  2
CENTER3
 70
    64
  3
____ _ ____ _ ____ _ ____ _ ____ _ ____ _ ____
 72
    65
 73
     4
 40
31.500000
 49
27.000000
 49
-1.000000
 49
2.500000
 49
-1.000000
  0
LTYPE
  2
CENTER4
 70
    64
  3
____ _ ____ _ ____ _ ____ _ ____ _ ____ _ ____
 72
    65
 73
     4
 40
50.000000
 49
45.000000
 49
-1.000000
 49
3.000000
 49
-1.000000
  0
LTYPE
  2
CENTER5
 70
    64
  3
____ _ ____ _ ____ _ ____ _ ____ _ ____ _ ____
 72
    65
 73
     4
 40
100.000000
 49
92.000000
 49
-2.000000
 49
4.000000
 49
-2.000000
  0
LTYPE
  2
SBK1
 70
    64
  3
______ _ _ _ ______ _ _ _ ______ _ _ _ _____  
 72
    65
 73
     8
 40
60.500000
 49
45.000000
 49
-2.000000
 49
2.500000
 49
-2.000000
 49
2.500000
 49
-2.000000
 49
2.500000
 49
-2.000000
  0
LTYPE
  2
SBK2
 70
    64
  3
______ _ _ _ ______ _ _ _ ______ _ _ _ _____  
 72
    65
 73
     8
 40
84.000000
 49
64.000000
 49
-2.000000
 49
4.000000
 49
-2.000000
 49
4.000000
 49
-2.000000
 49
4.000000
 49
-2.000000
  0
LTYPE
  2
STCH
 70
    64
  3
__ __ __ __ __ __ __ __ __ __ __ __ __ __ __
 72
    65
 73
     2
 40
3.000000
 49
1.000000
 49
-2.000000
  0
LTYPE
  2
MTCH
 70
    64
  3
_____ _ _ _____ _ _ _____ _ _ _____ _ _ ____  
 72
    65
 73
     6
 40
80.000000
 49
66.000000
 49
-2.000000
 49
4.000000
 49
-2.000000
 49
4.000000
 49
-2.000000
  0
ENDTAB
  0
TABLE
  2
LAYER
 70
     1
  0
LAYER
  2
0
 70
     0
 62
     7
  6
CONTINUOUS
  0
ENDTAB
  0
TABLE
  2
STYLE
 70
     1
  0
STYLE
  2
STANDARD
 70
     0
 40
0.000000
 41
1.000000
 50
0.000000
 71
     0
 42
0.200000
  3
txt
  4
BIGFONT
  0
ENDTAB
  0
TABLE
  2
VIEW
 70
     0
  0
ENDTAB
  0
ENDSEC
  0
SECTION
  2
BLOCKS
  0
ENDSEC
  0
SECTION
  2
ENTITIES
  0
POINT
  8
0
 10
45.436768
 20
122.279228
  0
POINT
  8
0
 10
61.436768
 20
122.279228
  0
POINT
  8
0
 10
160.436783
 20
122.279236
  0
POINT
  8
0
 10
237.436768
 20
122.279236
  0
POINT
  8
0
 10
300.436798
 20
122.279243
  0
POINT
  8
0
 10
316.436798
 20
122.279243
  0
LINE
  8
0
 62
     3
 10
0.000000
 20
0.000000
 11
0.000000
 21
254.558472
  0
LINE
  8
0
 62
     3
 10
370.873566
 20
254.558472
 11
370.873566
 21
0.000000
  0
LINE
  8
0
 62
     3
 10
0.000000
 20
0.000000
 11
370.873566
 21
0.000000
  0
LINE
  8
0
 62
     3
 10
0.000000
 20
254.558472
 11
370.873566
 21
254.558472
  0
LINE
  8
0
 62
     3
 10
0.000000
 20
240.257431
 11
76.272194
 21
240.257431
  0
LINE
  8
0
 62
     3
 10
76.272194
 20
240.257431
 11
76.272194
 21
254.558472
  0
LINE
  8
0
 62
     3
 10
294.601379
 20
14.301025
 11
370.873566
 21
14.301025
  0
LINE
  8
0
 62
     3
 10
294.601379
 20
240.257431
 11
370.873566
 21
240.257431
  0
LINE
  8
0
 62
     3
 10
294.601379
 20
254.558472
 11
294.601379
 21
240.257431
  0
LINE
  8
0
 62
     3
 10
294.601379
 20
14.301025
 11
294.601379
 21
0.000000
  0
LINE
  8
0
 10
160.436783
 20
138.279236
 11
160.436783
 21
106.279236
  0
LINE
  8
0
 10
126.436768
 20
126.279236
 11
126.436768
 21
118.279236
  0
LINE
  8
0
 10
237.436768
 20
136.679230
 11
237.436768
 21
107.879234
  0
LINE
  8
0
 10
160.436783
 20
106.279236
 11
170.436783
 21
106.279236
  0
LINE
  8
0
 10
160.436783
 20
138.279236
 11
170.436783
 21
138.279236
  0
LINE
  8
0
 10
170.436783
 20
138.279236
 11
170.436783
 21
106.279236
  0
LINE
  8
0
 10
159.436783
 20
128.279236
 11
159.436783
 21
116.279236
  0
LINE
  8
0
 10
159.436783
 20
128.279236
 11
160.436783
 21
128.279236
  0
LINE
  8
0
 10
159.436783
 20
116.279236
 11
160.436783
 21
116.279236
  0
LINE
  8
0
 10
228.436768
 20
136.679230
 11
228.436768
 21
107.879234
  0
LINE
  8
0
 10
170.436783
 20
107.879234
 11
237.436768
 21
107.879234
  0
LINE
  8
0
 10
170.436783
 20
136.679230
 11
237.436768
 21
136.679230
  0
LINE
  8
0
 10
127.436768
 20
127.279236
 11
133.268402
 21
127.279236
  0
LINE
  8
0
 10
127.436768
 20
117.279236
 11
133.268402
 21
117.279236
  0
LINE
  8
0
 10
126.811768
 20
117.904236
 11
133.268402
 21
117.904236
  0
LINE
  8
0
 10
126.811768
 20
126.654236
 11
133.268402
 21
126.654236
  0
LINE
  8
0
 10
144.436768
 20
127.279236
 11
144.436768
 21
117.279236
  0
LINE
  8
0
 10
127.436768
 20
127.279221
 11
126.436768
 21
126.279221
  0
LINE
  8
0
 10
127.436768
 20
117.279228
 11
126.436768
 21
118.279228
  0
LINE
  8
0
 10
127.436768
 20
127.279236
 11
127.436768
 21
117.279236
  0
LINE
  8
0
 10
144.436783
 20
117.904236
 11
145.466980
 21
117.309448
  0
LINE
  8
0
 10
144.436783
 20
126.654167
 11
145.466995
 21
127.248962
  0
LINE
  8
0
 10
139.268402
 20
117.904236
 11
144.436768
 21
117.904236
  0
LINE
  8
0
 10
139.268402
 20
117.279236
 11
145.436768
 21
117.279236
  0
LINE
  8
0
 10
139.268402
 20
126.654236
 11
144.436768
 21
126.654236
  0
LINE
  8
0
 10
139.268402
 20
127.279236
 11
145.436768
 21
127.279236
  0
LINE
  8
0
 10
133.268509
 20
129.279144
 11
133.893738
 21
130.362045
  0
LINE
  8
0
 10
138.643188
 20
126.320686
 11
133.893616
 21
126.320686
  0
LINE
  8
0
 10
139.268402
 20
129.279221
 11
138.643188
 21
130.362122
  0
LINE
  8
0
 10
138.643188
 20
130.362137
 11
133.893677
 21
130.362137
  0
LINE
  8
0
 10
133.268402
 20
115.279236
 11
133.268402
 21
129.279114
  0
LINE
  8
0
 10
133.268433
 20
115.279259
 11
133.893661
 21
114.196350
  0
LINE
  8
0
 10
138.643188
 20
118.237778
 11
133.893616
 21
118.237778
  0
LINE
  8
0
 10
139.268402
 20
115.279236
 11
139.268402
 21
129.279236
  0
LINE
  8
0
 10
139.268402
 20
115.279243
 11
138.643173
 21
114.196342
  0
LINE
  8
0
 10
138.643188
 20
114.196327
 11
133.893646
 21
114.196327
  0
LINE
  8
0
 10
146.436768
 20
118.279236
 11
151.436783
 21
118.279236
  0
LINE
  8
0
 10
146.436768
 20
126.279236
 11
151.436783
 21
126.279236
  0
LINE
  8
0
 10
152.436783
 20
127.279236
 11
159.436783
 21
127.279236
  0
LINE
  8
0
 10
152.436783
 20
117.279236
 11
159.436783
 21
117.279236
  0
LINE
  8
0
 10
145.436768
 20
127.279221
 11
146.436768
 21
126.279221
  0
LINE
  8
0
 10
151.436768
 20
126.279221
 11
152.436768
 21
127.279221
  0
LINE
  8
0
 10
145.436768
 20
117.279221
 11
146.436768
 21
118.279228
  0
LINE
  8
0
 10
151.436768
 20
118.279228
 11
152.436768
 21
117.279228
  0
LINE
  8
0
  6
CENTER
 10
123.436768
 20
122.279236
 11
240.436768
 21
122.279236
  0
LINE
  8
0
 10
38.436768
 20
126.320679
 11
38.436768
 21
118.237778
  0
LINE
  8
0
 10
45.436760
 20
130.362122
 11
38.436749
 21
126.320656
  0
LINE
  8
0
 10
38.436771
 20
118.237755
 11
45.436779
 21
114.196297
  0
LINE
  8
0
 10
45.436760
 20
114.196335
 11
52.436760
 21
118.237785
  0
LINE
  8
0
 10
52.436768
 20
118.237778
 11
52.436768
 21
126.320679
  0
LINE
  8
0
 10
52.436745
 20
126.320633
 11
45.436733
 21
130.362091
  0
LINE
  8
0
  6
CENTER
 10
26.436768
 20
122.279228
 11
64.436768
 21
122.279228
  0
LINE
  8
0
  6
CENTER
 10
45.436768
 20
141.279236
 11
45.436768
 21
103.279228
  0
LINE
  8
0
  6
CENTER
 10
37.436768
 20
118.279228
 11
37.436768
 21
110.279228
  0
LINE
  8
0
  6
CENTER
 10
33.436768
 20
114.279228
 11
41.436768
 21
114.279228
  0
LINE
  8
0
  6
CENTER
 10
49.436768
 20
114.279228
 11
57.436768
 21
114.279228
  0
LINE
  8
0
  6
CENTER
 10
53.436768
 20
118.279228
 11
53.436768
 21
110.279228
  0
LINE
  8
0
  6
CENTER
 10
53.436768
 20
134.279236
 11
53.436768
 21
126.279228
  0
LINE
  8
0
  6
CENTER
 10
49.436768
 20
130.279236
 11
57.436768
 21
130.279236
  0
LINE
  8
0
  6
CENTER
 10
33.436768
 20
130.279236
 11
41.436768
 21
130.279236
  0
LINE
  8
0
  6
CENTER
 10
37.436768
 20
134.279236
 11
37.436768
 21
126.279228
  0
LINE
  8
0
  6
CENTER
 10
281.436798
 20
122.279243
 11
319.436829
 21
122.279243
  0
LINE
  8
0
  6
CENTER
 10
300.436798
 20
141.279236
 11
300.436798
 21
103.279243
  0
LINE
  8
0
  6
CENTER
 10
294.436798
 20
114.779243
 11
306.436829
 21
114.779243
  0
LINE
  8
0
  6
CENTER
 10
292.936798
 20
125.779243
 11
292.936798
 21
118.779243
  0
LINE
  8
0
  6
CENTER
 10
307.936829
 20
125.779243
 11
307.936829
 21
118.779243
  0
LINE
  8
0
  6
CENTER
 10
294.436798
 20
129.779236
 11
306.436829
 21
129.779236
  0
LINE
  8
0
 10
129.852585
 20
117.279243
 11
120.614983
 21
101.279251
  0
LINE
  8
0
 10
129.076126
 20
114.381447
 11
129.852585
 21
117.279221
  0
LINE
  8
0
 10
127.731270
 20
115.157928
 11
129.852600
 21
117.279243
  0
LINE
  8
0
 10
90.614983
 20
101.279236
 11
120.614983
 21
101.279236
  0
LINE
  8
0
 10
54.686775
 20
132.444336
 11
66.715836
 21
153.279266
  0
LINE
  8
0
 10
54.686768
 20
132.444321
 11
56.808086
 21
134.565643
  0
LINE
  8
0
 10
54.686783
 20
132.444305
 11
55.463242
 21
135.342087
  0
LINE
  8
0
 10
66.715851
 20
153.279236
 11
96.715851
 21
153.279236
  0
LINE
  8
0
 10
302.936829
 20
134.109360
 11
316.891296
 21
158.279236
  0
LINE
  8
0
 10
308.936737
 20
124.011269
 11
320.061096
 21
143.279251
  0
LINE
  8
0
 10
308.936829
 20
124.011284
 11
309.713287
 21
126.909065
  0
LINE
  8
0
 10
302.936798
 20
134.109375
 11
303.713257
 21
137.007141
  0
LINE
  8
0
 10
302.936890
 20
134.109360
 11
305.058228
 21
136.230667
  0
LINE
  8
0
 10
308.936859
 20
124.011284
 11
311.058167
 21
126.132599
  0
LINE
  8
0
 10
320.061157
 20
143.279251
 11
350.061157
 21
143.279251
  0
LINE
  8
0
 10
316.891296
 20
158.279236
 11
343.099915
 21
158.279236
  0
ARC
  8
0
 10
146.643127
 20
122.279236
 40
13.374726
 50
162.412003
 51
197.587967
  0
ARC
  8
0
 10
136.846527
 20
116.217056
 40
3.578145
 50
145.615616
 51
214.384277
  0
ARC
  8
0
 10
135.690247
 20
116.217056
 40
3.578145
 50
325.615631
 51
34.384281
  0
ARC
  8
0
 10
125.893677
 20
122.279236
 40
13.374729
 50
342.411987
 51
17.588043
  0
ARC
  8
0
 10
135.690247
 20
128.341415
 40
3.578145
 50
325.615631
 51
34.384281
  0
ARC
  8
0
 10
136.846527
 20
128.341415
 40
3.578141
 50
145.615723
 51
214.384277
  0
CIRCLE
  8
0
 10
53.436768
 20
114.279228
 40
2.100000
  0
CIRCLE
  8
0
 10
53.436768
 20
130.279236
 40
2.100000
  0
CIRCLE
  8
0
 10
37.436768
 20
130.279236
 40
2.100000
  0
CIRCLE
  8
0
 10
37.436768
 20
114.279228
 40
2.100000
  0
CIRCLE
  8
0
 10
53.436768
 20
114.279228
 40
2.500000
  0
CIRCLE
  8
0
 10
53.436768
 20
130.279236
 40
2.500000
  0
CIRCLE
  8
0
 10
37.436768
 20
130.279236
 40
2.500000
  0
CIRCLE
  8
0
 10
37.436768
 20
114.279228
 40
2.500000
  0
CIRCLE
  8
0
 10
45.436768
 20
122.279228
 40
4.375000
  0
CIRCLE
  8
0
 10
45.436768
 20
122.279228
 40
5.000000
  0
CIRCLE
  8
0
 10
45.436768
 20
122.279228
 40
7.000000
  0
CIRCLE
  8
0
 10
45.436768
 20
122.279228
 40
16.000000
  0
CIRCLE
  8
0
 10
300.436798
 20
122.279243
 40
14.400000
  0
CIRCLE
  8
0
 10
300.436798
 20
122.279243
 40
16.000000
  0
CIRCLE
  8
0
 10
300.436798
 20
129.779236
 40
4.250000
  0
CIRCLE
  8
0
 10
300.436798
 20
114.779243
 40
4.250000
  0
CIRCLE
  8
0
 10
300.436798
 20
114.779243
 40
5.000000
  0
CIRCLE
  8
0
 10
300.436798
 20
114.779243
 40
5.000000
  0
CIRCLE
  8
0
 10
300.436798
 20
129.779236
 40
5.000000
  0
CIRCLE
  8
0
 10
292.936798
 20
122.279243
 40
1.650000
  0
CIRCLE
  8
0
 10
307.936829
 20
122.279243
 40
1.650000
  0
CIRCLE
  8
0
 10
307.936829
 20
122.279243
 40
2.000000
  0
CIRCLE
  8
0
 10
292.936798
 20
122.279243
 40
2.000000
  0
TEXT
  8
0
 10
298.797760
 20
244.589584
 40
4.242641
  1
DATE : JAN ,1992
 50
0.000000
 41
1.052631
 51
0.000000
  7
STANDARD
  0
TEXT
  8
0
 10
2.257077
 20
243.907959
 40
5.000000
  1
TWIN PORT CYLINDER
 50
0.000000
 41
0.831919
 51
0.000000
  7
STANDARD
  0
TEXT
  8
0
 10
12.035715
 20
221.757431
 40
5.000000
  1
MODEL : TWDA 25xSt-HA(15)
 50
0.000000
 41
1.052632
 51
0.000000
  7
STANDARD
  0
TEXT
  8
0
 10
91.614990
 20
101.629234
 40
3.500000
  1
M10x1.25
 50
0.000000
 41
1.052632
 51
0.000000
  7
STANDARD
  0
TEXT
  8
0
 10
67.715858
 20
153.629242
 40
3.500000
  1
4-M5x0.8
 50
0.000000
 41
1.052632
 51
0.000000
  7
STANDARD
  0
TEXT
  8
0
 10
317.391296
 20
158.629242
 40
3.500000
  1
2-Rc1/8
 50
0.000000
 41
1.052632
 51
0.000000
  7
STANDARD
  0
TEXT
  8
0
 10
320.561188
 20
143.629242
 40
3.500000
  1
2-M4x0.7
 50
0.000000
 41
1.052632
 51
0.000000
  7
STANDARD
  0
TEXT
  8
0
 10
302.273193
 20
3.650512
 40
5.000000
  1
KOGANEI,CORP
 50
0.000000
 41
1.052632
 51
0.000000
  7
STANDARD
  0
ENDSEC
  0
EOF
