  0
SECTION
  2
HEADER
  0
ENDSEC
  0
SECTION
  2
TABLES
  0
TABLE
  2
LTYPE
 70
     4
  0
LTYPE
  2
CONTINUOUS
 70
    64
  3
Solid line
 72
    65
 73
     0
 40
0.000000
  0
LTYPE
  2
DASHED
 70
    64
  3
__ __ __ __ __ __ __ __ __ __ __ __ __ __ __
 72
    65
 73
     2
 40
3.500000
 49
2.000000
 49
-1.500000
  0
LTYPE
  2
CENTER
 70
    64
  3
____ _ ____ _ ____ _ ____ _ ____ _ ____ _ ____
 72
    65
 73
     4
 40
17.500000
 49
13.000000
 49
-1.500000
 49
1.500000
 49
-1.500000
  0
LTYPE
  2
PHANTOM
 70
    64
  3
_____ _ _ _____ _ _ _____ _ _ _____ _ _ ____  
 72
    65
 73
     6
 40
15.500000
 49
8.000000
 49
-1.500000
 49
1.500000
 49
-1.500000
 49
1.500000
 49
-1.500000
  0
LTYPE
  2
DASHED1
 70
    64
  3
__ __ __ __ __ __ __ __ __ __ __ __ __ __ __
 72
    65
 73
     2
 40
1.500000
 49
1.000000
 49
-0.500000
  0
LTYPE
  2
DASHED2
 70
    64
  3
__ __ __ __ __ __ __ __ __ __ __ __ __ __ __
 72
    65
 73
     2
 40
3.500000
 49
2.500000
 49
-1.000000
  0
LTYPE
  2
DASHED3
 70
    64
  3
__ __ __ __ __ __ __ __ __ __ __ __ __ __ __
 72
    65
 73
     2
 40
6.000000
 49
4.000000
 49
-2.000000
  0
LTYPE
  2
DASHED4
 70
    64
  3
__ __ __ __ __ __ __ __ __ __ __ __ __ __ __
 72
    65
 73
     2
 40
12.000000
 49
10.000000
 49
-2.000000
  0
LTYPE
  2
DASHED5
 70
    64
  3
__ __ __ __ __ __ __ __ __ __ __ __ __ __ __
 72
    65
 73
     2
 40
17.000000
 49
15.000000
 49
-2.000000
  0
LTYPE
  2
DASHED6
 70
    64
  3
__ __ __ __ __ __ __ __ __ __ __ __ __ __ __
 72
    65
 73
     2
 40
29.000000
 49
27.000000
 49
-2.000000
  0
LTYPE
  2
PHANTOM1
 70
    64
  3
_____ _ _ _____ _ _ _____ _ _ _____ _ _ ____  
 72
    65
 73
     6
 40
31.000000
 49
25.000000
 49
-1.500000
 49
1.000000
 49
-1.000000
 49
1.000000
 49
-1.500000
  0
LTYPE
  2
PHANTOM2
 70
    64
  3
_____ _ _ _____ _ _ _____ _ _ _____ _ _ ____  
 72
    65
 73
     6
 40
36.000000
 49
27.000000
 49
-1.500000
 49
2.500000
 49
-1.000000
 49
2.500000
 49
-1.500000
  0
LTYPE
  2
PHANTOM3
 70
    64
  3
_____ _ _ _____ _ _ _____ _ _ _____ _ _ ____  
 72
    65
 73
     6
 40
78.000000
 49
64.000000
 49
-2.000000
 49
4.000000
 49
-2.000000
 49
4.000000
 49
-2.000000
  0
LTYPE
  2
CENTER1
 70
    64
  3
____ _ ____ _ ____ _ ____ _ ____ _ ____ _ ____
 72
    65
 73
     4
 40
19.000000
 49
14.000000
 49
-1.000000
 49
3.000000
 49
-1.000000
  0
LTYPE
  2
CENTER2
 70
    64
  3
____ _ ____ _ ____ _ ____ _ ____ _ ____ _ ____
 72
    65
 73
     4
 40
28.500000
 49
25.000000
 49
-1.000000
 49
1.500000
 49
-1.000000
  0
LTYPE
  2
CENTER3
 70
    64
  3
____ _ ____ _ ____ _ ____ _ ____ _ ____ _ ____
 72
    65
 73
     4
 40
31.500000
 49
27.000000
 49
-1.000000
 49
2.500000
 49
-1.000000
  0
LTYPE
  2
CENTER4
 70
    64
  3
____ _ ____ _ ____ _ ____ _ ____ _ ____ _ ____
 72
    65
 73
     4
 40
50.000000
 49
45.000000
 49
-1.000000
 49
3.000000
 49
-1.000000
  0
LTYPE
  2
CENTER5
 70
    64
  3
____ _ ____ _ ____ _ ____ _ ____ _ ____ _ ____
 72
    65
 73
     4
 40
100.000000
 49
92.000000
 49
-2.000000
 49
4.000000
 49
-2.000000
  0
LTYPE
  2
SBK1
 70
    64
  3
______ _ _ _ ______ _ _ _ ______ _ _ _ _____  
 72
    65
 73
     8
 40
60.500000
 49
45.000000
 49
-2.000000
 49
2.500000
 49
-2.000000
 49
2.500000
 49
-2.000000
 49
2.500000
 49
-2.000000
  0
LTYPE
  2
SBK2
 70
    64
  3
______ _ _ _ ______ _ _ _ ______ _ _ _ _____  
 72
    65
 73
     8
 40
84.000000
 49
64.000000
 49
-2.000000
 49
4.000000
 49
-2.000000
 49
4.000000
 49
-2.000000
 49
4.000000
 49
-2.000000
  0
LTYPE
  2
STCH
 70
    64
  3
__ __ __ __ __ __ __ __ __ __ __ __ __ __ __
 72
    65
 73
     2
 40
3.000000
 49
1.000000
 49
-2.000000
  0
LTYPE
  2
MTCH
 70
    64
  3
_____ _ _ _____ _ _ _____ _ _ _____ _ _ ____  
 72
    65
 73
     6
 40
80.000000
 49
66.000000
 49
-2.000000
 49
4.000000
 49
-2.000000
 49
4.000000
 49
-2.000000
  0
ENDTAB
  0
TABLE
  2
LAYER
 70
     1
  0
LAYER
  2
0
 70
     0
 62
     7
  6
CONTINUOUS
  0
ENDTAB
  0
TABLE
  2
STYLE
 70
     1
  0
STYLE
  2
STANDARD
 70
     0
 40
0.000000
 41
1.000000
 50
0.000000
 71
     0
 42
0.200000
  3
txt
  4
BIGFONT
  0
ENDTAB
  0
TABLE
  2
VIEW
 70
     0
  0
ENDTAB
  0
ENDSEC
  0
SECTION
  2
BLOCKS
  0
ENDSEC
  0
SECTION
  2
ENTITIES
  0
POINT
  8
0
 10
50.436783
 20
127.279236
  0
POINT
  8
0
 10
62.436783
 20
127.279236
  0
POINT
  8
0
 10
155.436783
 20
127.279236
  0
POINT
  8
0
 10
234.436768
 20
127.279236
  0
POINT
  8
0
 10
305.436768
 20
127.279236
  0
POINT
  8
0
 10
317.436768
 20
127.279236
  0
LINE
  8
0
 62
     3
 10
0.000000
 20
0.000000
 11
0.000000
 21
254.558472
  0
LINE
  8
0
 62
     3
 10
370.873566
 20
254.558472
 11
370.873566
 21
0.000000
  0
LINE
  8
0
 62
     3
 10
0.000000
 20
0.000000
 11
370.873566
 21
0.000000
  0
LINE
  8
0
 62
     3
 10
0.000000
 20
254.558472
 11
370.873566
 21
254.558472
  0
LINE
  8
0
 62
     3
 10
0.000000
 20
240.257431
 11
76.272194
 21
240.257431
  0
LINE
  8
0
 62
     3
 10
76.272194
 20
240.257431
 11
76.272194
 21
254.558472
  0
LINE
  8
0
 62
     3
 10
294.601379
 20
14.301025
 11
370.873566
 21
14.301025
  0
LINE
  8
0
 62
     3
 10
294.601379
 20
240.257431
 11
370.873566
 21
240.257431
  0
LINE
  8
0
 62
     3
 10
294.601379
 20
254.558472
 11
294.601379
 21
240.257431
  0
LINE
  8
0
 62
     3
 10
294.601379
 20
14.301025
 11
294.601379
 21
0.000000
  0
LINE
  8
0
 10
155.436783
 20
142.279236
 11
155.436783
 21
112.279236
  0
LINE
  8
0
 10
132.436768
 20
129.279236
 11
132.436768
 21
125.279236
  0
LINE
  8
0
 10
234.436768
 20
136.779236
 11
234.436768
 21
117.779236
  0
LINE
  8
0
 10
155.436783
 20
142.279236
 11
176.436783
 21
142.279236
  0
LINE
  8
0
 10
155.436783
 20
112.279236
 11
176.436783
 21
112.279236
  0
LINE
  8
0
 10
176.436783
 20
142.279236
 11
176.436783
 21
112.279236
  0
LINE
  8
0
 10
154.436783
 20
131.279236
 11
154.436783
 21
123.279236
  0
LINE
  8
0
 10
154.436783
 20
131.279236
 11
155.436783
 21
131.279236
  0
LINE
  8
0
 10
154.436783
 20
123.279236
 11
155.436783
 21
123.279236
  0
LINE
  8
0
 10
133.436768
 20
130.279236
 11
138.322937
 21
130.279236
  0
LINE
  8
0
 10
133.436768
 20
124.279236
 11
138.322937
 21
124.279236
  0
LINE
  8
0
 10
147.436768
 20
130.279236
 11
147.436768
 21
124.279236
  0
LINE
  8
0
 10
132.936768
 20
124.779236
 11
138.322937
 21
124.779236
  0
LINE
  8
0
 10
132.936768
 20
129.779236
 11
138.322937
 21
129.779236
  0
LINE
  8
0
 10
133.436768
 20
130.279221
 11
132.436768
 21
129.279221
  0
LINE
  8
0
 10
133.436783
 20
124.279228
 11
132.436783
 21
125.279236
  0
LINE
  8
0
 10
133.436768
 20
130.279236
 11
133.436768
 21
124.279236
  0
LINE
  8
0
 10
147.436783
 20
129.779221
 11
148.302811
 21
130.279221
  0
LINE
  8
0
 10
147.436768
 20
124.779236
 11
148.302795
 21
124.279236
  0
LINE
  8
0
 10
138.322937
 20
132.279236
 11
138.322937
 21
122.279243
  0
LINE
  8
0
 10
143.322937
 20
124.279236
 11
154.436783
 21
124.279236
  0
LINE
  8
0
 10
143.322937
 20
124.779236
 11
147.436768
 21
124.779236
  0
LINE
  8
0
 10
143.322937
 20
129.779236
 11
147.436768
 21
129.779236
  0
LINE
  8
0
 10
143.322937
 20
130.279236
 11
154.436783
 21
130.279236
  0
LINE
  8
0
 10
138.769501
 20
133.052719
 11
142.876373
 21
133.052719
  0
LINE
  8
0
 10
138.322937
 20
132.279205
 11
138.769516
 21
133.052704
  0
LINE
  8
0
 10
138.769501
 20
130.166000
 11
142.876358
 21
130.166000
  0
LINE
  8
0
 10
143.322937
 20
132.279236
 11
143.322937
 21
122.279205
  0
LINE
  8
0
 10
143.322937
 20
132.279236
 11
142.876358
 21
133.052719
  0
LINE
  8
0
 10
138.769501
 20
124.392471
 11
142.876358
 21
124.392471
  0
LINE
  8
0
 10
138.322952
 20
122.279243
 11
138.769516
 21
121.505753
  0
LINE
  8
0
 10
138.769501
 20
121.505745
 11
142.876373
 21
121.505745
  0
LINE
  8
0
 10
143.322968
 20
122.279213
 11
142.876389
 21
121.505714
  0
LINE
  8
0
 10
155.436783
 20
113.862823
 11
176.436783
 21
113.862823
  0
LINE
  8
0
 10
155.436783
 20
140.695648
 11
176.436783
 21
140.695648
  0
LINE
  8
0
 10
228.436768
 20
136.779236
 11
228.436768
 21
117.779236
  0
LINE
  8
0
 10
176.436783
 20
117.779236
 11
234.436768
 21
117.779236
  0
LINE
  8
0
 10
176.436783
 20
136.779236
 11
234.436768
 21
136.779236
  0
LINE
  8
0
  6
CENTER
 10
129.436768
 20
127.279236
 11
237.436768
 21
127.279236
  0
LINE
  8
0
  6
CENTER
 10
160.436783
 20
140.279236
 11
160.436783
 21
130.279236
  0
LINE
  8
0
  6
CENTER
 10
155.436783
 20
135.279236
 11
165.436783
 21
135.279236
  0
LINE
  8
0
  6
CENTER
 10
165.436783
 20
132.779236
 11
175.436783
 21
132.779236
  0
LINE
  8
0
  6
CENTER
 10
170.436783
 20
137.779236
 11
170.436783
 21
127.779236
  0
LINE
  8
0
  6
CENTER
 10
170.436783
 20
126.779236
 11
170.436783
 21
116.779236
  0
LINE
  8
0
  6
CENTER
 10
165.436783
 20
121.779236
 11
175.436783
 21
121.779236
  0
LINE
  8
0
  6
CENTER
 10
160.436783
 20
124.279236
 11
160.436783
 21
114.279236
  0
LINE
  8
0
  6
CENTER
 10
155.436783
 20
119.279236
 11
165.436783
 21
119.279236
  0
LINE
  8
0
 10
135.879868
 20
124.279251
 11
126.064911
 21
107.279251
  0
LINE
  8
0
 10
171.686798
 20
134.944305
 11
184.581879
 21
157.279251
  0
LINE
  8
0
 10
171.686783
 20
134.944305
 11
172.463242
 21
137.842072
  0
LINE
  8
0
 10
135.103394
 20
121.381454
 11
135.879852
 21
124.279228
  0
LINE
  8
0
 10
171.686783
 20
134.944305
 11
173.808105
 21
137.065628
  0
LINE
  8
0
 10
133.758545
 20
122.157928
 11
135.879868
 21
124.279243
  0
LINE
  8
0
 10
110.088768
 20
107.279236
 11
126.064896
 21
107.279236
  0
LINE
  8
0
 10
184.581863
 20
157.279236
 11
214.581863
 21
157.279236
  0
LINE
  8
0
 10
55.436771
 20
130.166000
 11
50.436779
 21
133.052734
  0
LINE
  8
0
 10
55.436844
 20
124.392487
 11
55.436844
 21
130.165970
  0
LINE
  8
0
 10
45.436859
 20
130.165955
 11
45.436859
 21
124.392471
  0
LINE
  8
0
 10
50.436741
 20
133.052734
 11
45.436768
 21
130.165985
  0
LINE
  8
0
 10
50.436810
 20
121.505745
 11
55.436787
 21
124.392502
  0
LINE
  8
0
 10
40.486908
 20
112.279236
 11
60.386658
 21
112.279236
  0
LINE
  8
0
 10
40.486908
 20
142.279236
 11
60.386658
 21
142.279236
  0
LINE
  8
0
 10
62.436783
 20
140.695648
 11
62.436783
 21
113.862823
  0
LINE
  8
0
 10
38.436783
 20
140.695648
 11
38.436783
 21
113.862823
  0
LINE
  8
0
 10
45.436817
 20
124.392471
 11
50.436810
 21
121.505745
  0
LINE
  8
0
  6
CENTER
 10
35.436783
 20
127.279236
 11
65.436783
 21
127.279236
  0
LINE
  8
0
  6
CENTER
 10
36.436783
 20
135.279236
 11
64.436783
 21
135.279236
  0
LINE
  8
0
  6
CENTER
 10
36.436783
 20
119.279236
 11
64.436783
 21
119.279236
  0
LINE
  8
0
  6
DASHED
 10
57.936783
 20
123.279236
 11
62.436783
 21
123.279236
  0
LINE
  8
0
  6
DASHED
 10
57.936783
 20
115.279236
 11
62.436783
 21
115.279236
  0
LINE
  8
0
  6
DASHED
 10
57.936783
 20
139.279236
 11
62.436783
 21
139.279236
  0
LINE
  8
0
  6
DASHED
 10
57.936783
 20
131.279236
 11
62.436783
 21
131.279236
  0
LINE
  8
0
  6
DASHED
 10
57.936783
 20
139.279236
 11
57.936783
 21
131.279236
  0
LINE
  8
0
  6
DASHED
 10
42.936783
 20
137.529236
 11
57.936783
 21
137.529236
  0
LINE
  8
0
  6
DASHED
 10
42.936783
 20
133.029236
 11
57.936783
 21
133.029236
  0
LINE
  8
0
  6
CENTER
 10
50.436783
 20
145.279236
 11
50.436783
 21
109.279236
  0
LINE
  8
0
  6
DASHED
 10
57.936783
 20
123.279236
 11
57.936783
 21
115.279236
  0
LINE
  8
0
  6
DASHED
 10
42.936783
 20
121.529236
 11
57.936783
 21
121.529236
  0
LINE
  8
0
  6
DASHED
 10
42.936783
 20
117.029236
 11
57.936783
 21
117.029236
  0
LINE
  8
0
  6
DASHED
 10
42.936783
 20
123.279236
 11
42.936783
 21
115.279236
  0
LINE
  8
0
  6
DASHED
 10
42.936783
 20
139.279236
 11
42.936783
 21
131.279236
  0
LINE
  8
0
  6
DASHED
 10
38.436783
 20
139.279236
 11
42.936783
 21
139.279236
  0
LINE
  8
0
  6
DASHED
 10
38.436783
 20
131.279236
 11
42.936783
 21
131.279236
  0
LINE
  8
0
  6
DASHED
 10
38.436783
 20
123.279236
 11
42.936783
 21
123.279236
  0
LINE
  8
0
  6
DASHED
 10
38.436783
 20
115.279236
 11
42.936783
 21
115.279236
  0
LINE
  8
0
  6
CENTER
 10
290.436768
 20
127.279236
 11
320.436768
 21
127.279236
  0
LINE
  8
0
  6
CENTER
 10
305.436768
 20
145.279236
 11
305.436768
 21
109.279236
  0
LINE
  8
0
 10
293.436768
 20
140.695648
 11
293.436768
 21
113.862831
  0
LINE
  8
0
 10
317.436768
 20
140.695648
 11
317.436768
 21
113.862831
  0
LINE
  8
0
 10
295.486908
 20
142.279236
 11
315.386658
 21
142.279236
  0
LINE
  8
0
  6
CENTER
 10
292.152466
 20
132.779236
 11
301.142670
 21
132.779236
  0
LINE
  8
0
  6
DASHED
 10
293.436768
 20
128.579239
 11
295.236786
 21
128.579239
  0
LINE
  8
0
  6
DASHED
 10
293.436768
 20
136.979233
 11
295.236786
 21
136.979233
  0
LINE
  8
0
  6
DASHED
 10
295.236786
 20
136.979233
 11
295.236786
 21
128.579239
  0
LINE
  8
0
  6
DASHED
 10
299.236786
 20
135.279236
 11
299.236786
 21
130.279236
  0
LINE
  8
0
  6
DASHED
 10
295.236786
 20
135.279236
 11
299.236786
 21
135.279236
  0
LINE
  8
0
  6
DASHED
 10
295.236786
 20
130.279236
 11
299.236786
 21
130.279236
  0
LINE
  8
0
  6
DASHED
 10
295.236786
 20
130.679230
 11
300.181671
 21
130.679230
  0
LINE
  8
0
  6
DASHED
 10
295.236786
 20
134.879242
 11
300.165222
 21
134.879242
  0
LINE
  8
0
  6
DASHED
 10
315.136780
 20
112.279236
 11
315.136780
 21
114.079239
  0
LINE
  8
0
  6
DASHED
 10
313.436768
 20
114.079239
 11
313.436768
 21
118.079239
  0
LINE
  8
0
  6
DASHED
 10
313.036774
 20
114.079239
 11
313.036774
 21
119.024139
  0
LINE
  8
0
  6
DASHED
 10
308.436768
 20
118.079239
 11
313.436768
 21
118.079239
  0
LINE
  8
0
  6
DASHED
 10
306.736786
 20
114.079239
 11
315.136780
 21
114.079239
  0
LINE
  8
0
  6
CENTER
 10
310.936768
 20
110.994934
 11
310.936768
 21
119.985123
  0
LINE
  8
0
  6
DASHED
 10
308.836761
 20
114.079239
 11
308.836761
 21
119.007690
  0
LINE
  8
0
  6
DASHED
 10
308.436768
 20
114.079239
 11
308.436768
 21
118.079239
  0
LINE
  8
0
  6
DASHED
 10
306.736786
 20
112.279236
 11
306.736786
 21
114.079239
  0
LINE
  8
0
 10
295.486908
 20
112.279236
 11
315.386658
 21
112.279236
  0
LINE
  8
0
  6
DASHED
 10
293.436768
 20
117.579239
 11
295.236786
 21
117.579239
  0
LINE
  8
0
  6
DASHED
 10
295.236786
 20
119.279236
 11
299.236786
 21
119.279236
  0
LINE
  8
0
  6
DASHED
 10
295.236786
 20
119.679237
 11
300.181671
 21
119.679237
  0
LINE
  8
0
  6
DASHED
 10
295.236786
 20
125.979240
 11
295.236786
 21
117.579239
  0
LINE
  8
0
  6
DASHED
 10
299.236786
 20
124.279236
 11
299.236786
 21
119.279236
  0
LINE
  8
0
  6
CENTER
 10
292.152466
 20
121.779236
 11
301.142670
 21
121.779236
  0
LINE
  8
0
  6
DASHED
 10
295.236786
 20
123.879234
 11
300.165222
 21
123.879234
  0
LINE
  8
0
  6
DASHED
 10
295.236786
 20
124.279236
 11
299.236786
 21
124.279236
  0
LINE
  8
0
  6
DASHED
 10
293.436768
 20
125.979240
 11
295.236786
 21
125.979240
  0
LINE
  8
0
  6
DASHED
 10
295.736786
 20
112.279236
 11
295.736786
 21
114.079239
  0
LINE
  8
0
  6
DASHED
 10
297.436768
 20
114.079239
 11
297.436768
 21
118.079239
  0
LINE
  8
0
  6
DASHED
 10
297.836761
 20
114.079239
 11
297.836761
 21
119.007690
  0
LINE
  8
0
  6
DASHED
 10
295.736786
 20
114.079239
 11
304.136780
 21
114.079239
  0
LINE
  8
0
  6
CENTER
 10
299.936768
 20
110.994934
 11
299.936768
 21
119.985123
  0
LINE
  8
0
  6
DASHED
 10
302.036774
 20
114.079239
 11
302.036774
 21
119.024139
  0
LINE
  8
0
  6
DASHED
 10
302.436768
 20
114.079239
 11
302.436768
 21
118.079239
  0
LINE
  8
0
  6
DASHED
 10
304.136780
 20
112.279236
 11
304.136780
 21
114.079239
  0
LINE
  8
0
  6
DASHED
 10
297.436768
 20
118.079239
 11
302.436768
 21
118.079239
  0
ARC
  8
0
 10
133.769440
 20
127.279243
 40
9.553503
 50
342.412079
 51
17.587749
  0
ARC
  8
0
 10
140.767120
 20
131.609360
 40
2.555811
 50
325.616028
 51
34.383984
  0
CIRCLE
  8
0
 10
170.436783
 20
121.779236
 40
2.100000
  0
CIRCLE
  8
0
 10
170.436783
 20
132.779236
 40
2.100000
  0
CIRCLE
  8
0
 10
170.436783
 20
132.779236
 40
2.500000
  0
CIRCLE
  8
0
 10
170.436783
 20
121.779236
 40
2.500000
  0
CIRCLE
  8
0
 10
170.436783
 20
121.779236
 40
4.200000
  0
CIRCLE
  8
0
 10
170.436783
 20
132.779236
 40
4.200000
  0
CIRCLE
  8
0
 10
160.436783
 20
135.279236
 40
2.250000
  0
CIRCLE
  8
0
 10
160.436783
 20
119.279236
 40
2.250000
  0
CIRCLE
  8
0
 10
160.436783
 20
119.279236
 40
4.000000
  0
CIRCLE
  8
0
 10
160.436783
 20
135.279236
 40
4.000000
  0
ARC
  8
0
 10
140.767120
 20
122.949112
 40
2.555815
 50
325.615875
 51
34.383984
  0
ARC
  8
0
 10
140.878754
 20
122.949112
 40
2.555815
 50
145.615875
 51
214.383987
  0
ARC
  8
0
 10
140.878754
 20
131.609360
 40
2.555811
 50
145.616013
 51
214.383987
  0
ARC
  8
0
 10
147.876434
 20
127.279243
 40
9.553493
 50
162.412247
 51
197.587875
  0
ARC
  8
0
 10
50.436783
 20
127.279236
 40
18.000000
 50
303.557312
 51
311.810333
  0
ARC
  8
0
 10
50.436783
 20
127.279236
 40
18.000000
 50
228.189667
 51
236.442673
  0
ARC
  8
0
 10
50.436783
 20
127.279236
 40
18.000002
 50
123.557320
 51
131.810318
  0
ARC
  8
0
 10
50.436783
 20
127.279236
 40
18.000004
 50
48.189693
 51
56.442688
  0
CIRCLE
  8
0
 10
50.436783
 20
127.279236
 40
2.500000
  0
CIRCLE
  8
0
 10
50.436783
 20
127.279236
 40
3.000000
  0
CIRCLE
  8
0
 10
50.436783
 20
127.279236
 40
5.000000
  0
CIRCLE
  8
0
 10
305.436768
 20
127.279236
 40
9.500000
  0
ARC
  8
0
 10
305.436768
 20
127.279236
 40
17.999998
 50
228.189682
 51
236.442642
  0
ARC
  8
0
 10
305.436768
 20
127.279236
 40
18.000010
 50
123.557350
 51
131.810303
  0
ARC
  8
0
 10
305.436768
 20
127.279236
 40
18.000004
 50
48.189693
 51
56.442730
  0
ARC
  8
0
 10
305.436768
 20
127.279236
 40
17.999992
 50
303.557281
 51
311.810333
  0
TEXT
  8
0
 10
298.797760
 20
244.589584
 40
4.242641
  1
DATE : JAN ,1992
 50
0.000000
 41
1.052631
 51
0.000000
  7
STANDARD
  0
TEXT
  8
0
 10
2.257077
 20
243.907959
 40
5.000000
  1
TWIN PORT CYLINDER
 50
0.000000
 41
0.831919
 51
0.000000
  7
STANDARD
  0
TEXT
  8
0
 10
12.035715
 20
221.757431
 40
5.000000
  1
MODEL : TWDA 16xSt-RB(15)
 50
0.000000
 41
1.052632
 51
0.000000
  7
STANDARD
  0
TEXT
  8
0
 10
185.581863
 20
157.629242
 40
3.500000
  1
4-M5x0.8
 50
0.000000
 41
1.052632
 51
0.000000
  7
STANDARD
  0
TEXT
  8
0
 10
111.064903
 20
107.629234
 40
3.500000
  1
M6x1
 50
0.000000
 41
1.052632
 51
0.000000
  7
STANDARD
  0
TEXT
  8
0
 10
302.273193
 20
3.650512
 40
5.000000
  1
KOGANEI,CORP
 50
0.000000
 41
1.052632
 51
0.000000
  7
STANDARD
  0
ENDSEC
  0
EOF
