  0
SECTION
  2
HEADER
  0
ENDSEC
  0
SECTION
  2
TABLES
  0
TABLE
  2
LTYPE
 70
     4
  0
LTYPE
  2
CONTINUOUS
 70
    64
  3
Solid line
 72
    65
 73
     0
 40
0.000000
  0
LTYPE
  2
DASHED
 70
    64
  3
__ __ __ __ __ __ __ __ __ __ __ __ __ __ __
 72
    65
 73
     2
 40
3.500000
 49
2.000000
 49
-1.500000
  0
LTYPE
  2
CENTER
 70
    64
  3
____ _ ____ _ ____ _ ____ _ ____ _ ____ _ ____
 72
    65
 73
     4
 40
17.500000
 49
13.000000
 49
-1.500000
 49
1.500000
 49
-1.500000
  0
LTYPE
  2
PHANTOM
 70
    64
  3
_____ _ _ _____ _ _ _____ _ _ _____ _ _ ____  
 72
    65
 73
     6
 40
15.500000
 49
8.000000
 49
-1.500000
 49
1.500000
 49
-1.500000
 49
1.500000
 49
-1.500000
  0
LTYPE
  2
DASHED1
 70
    64
  3
__ __ __ __ __ __ __ __ __ __ __ __ __ __ __
 72
    65
 73
     2
 40
1.500000
 49
1.000000
 49
-0.500000
  0
LTYPE
  2
DASHED2
 70
    64
  3
__ __ __ __ __ __ __ __ __ __ __ __ __ __ __
 72
    65
 73
     2
 40
3.500000
 49
2.500000
 49
-1.000000
  0
LTYPE
  2
DASHED3
 70
    64
  3
__ __ __ __ __ __ __ __ __ __ __ __ __ __ __
 72
    65
 73
     2
 40
6.000000
 49
4.000000
 49
-2.000000
  0
LTYPE
  2
DASHED4
 70
    64
  3
__ __ __ __ __ __ __ __ __ __ __ __ __ __ __
 72
    65
 73
     2
 40
12.000000
 49
10.000000
 49
-2.000000
  0
LTYPE
  2
DASHED5
 70
    64
  3
__ __ __ __ __ __ __ __ __ __ __ __ __ __ __
 72
    65
 73
     2
 40
17.000000
 49
15.000000
 49
-2.000000
  0
LTYPE
  2
DASHED6
 70
    64
  3
__ __ __ __ __ __ __ __ __ __ __ __ __ __ __
 72
    65
 73
     2
 40
29.000000
 49
27.000000
 49
-2.000000
  0
LTYPE
  2
PHANTOM1
 70
    64
  3
_____ _ _ _____ _ _ _____ _ _ _____ _ _ ____  
 72
    65
 73
     6
 40
31.000000
 49
25.000000
 49
-1.500000
 49
1.000000
 49
-1.000000
 49
1.000000
 49
-1.500000
  0
LTYPE
  2
PHANTOM2
 70
    64
  3
_____ _ _ _____ _ _ _____ _ _ _____ _ _ ____  
 72
    65
 73
     6
 40
36.000000
 49
27.000000
 49
-1.500000
 49
2.500000
 49
-1.000000
 49
2.500000
 49
-1.500000
  0
LTYPE
  2
PHANTOM3
 70
    64
  3
_____ _ _ _____ _ _ _____ _ _ _____ _ _ ____  
 72
    65
 73
     6
 40
78.000000
 49
64.000000
 49
-2.000000
 49
4.000000
 49
-2.000000
 49
4.000000
 49
-2.000000
  0
LTYPE
  2
CENTER1
 70
    64
  3
____ _ ____ _ ____ _ ____ _ ____ _ ____ _ ____
 72
    65
 73
     4
 40
19.000000
 49
14.000000
 49
-1.000000
 49
3.000000
 49
-1.000000
  0
LTYPE
  2
CENTER2
 70
    64
  3
____ _ ____ _ ____ _ ____ _ ____ _ ____ _ ____
 72
    65
 73
     4
 40
28.500000
 49
25.000000
 49
-1.000000
 49
1.500000
 49
-1.000000
  0
LTYPE
  2
CENTER3
 70
    64
  3
____ _ ____ _ ____ _ ____ _ ____ _ ____ _ ____
 72
    65
 73
     4
 40
31.500000
 49
27.000000
 49
-1.000000
 49
2.500000
 49
-1.000000
  0
LTYPE
  2
CENTER4
 70
    64
  3
____ _ ____ _ ____ _ ____ _ ____ _ ____ _ ____
 72
    65
 73
     4
 40
50.000000
 49
45.000000
 49
-1.000000
 49
3.000000
 49
-1.000000
  0
LTYPE
  2
CENTER5
 70
    64
  3
____ _ ____ _ ____ _ ____ _ ____ _ ____ _ ____
 72
    65
 73
     4
 40
100.000000
 49
92.000000
 49
-2.000000
 49
4.000000
 49
-2.000000
  0
LTYPE
  2
SBK1
 70
    64
  3
______ _ _ _ ______ _ _ _ ______ _ _ _ _____  
 72
    65
 73
     8
 40
60.500000
 49
45.000000
 49
-2.000000
 49
2.500000
 49
-2.000000
 49
2.500000
 49
-2.000000
 49
2.500000
 49
-2.000000
  0
LTYPE
  2
SBK2
 70
    64
  3
______ _ _ _ ______ _ _ _ ______ _ _ _ _____  
 72
    65
 73
     8
 40
84.000000
 49
64.000000
 49
-2.000000
 49
4.000000
 49
-2.000000
 49
4.000000
 49
-2.000000
 49
4.000000
 49
-2.000000
  0
LTYPE
  2
STCH
 70
    64
  3
__ __ __ __ __ __ __ __ __ __ __ __ __ __ __
 72
    65
 73
     2
 40
3.000000
 49
1.000000
 49
-2.000000
  0
LTYPE
  2
MTCH
 70
    64
  3
_____ _ _ _____ _ _ _____ _ _ _____ _ _ ____  
 72
    65
 73
     6
 40
80.000000
 49
66.000000
 49
-2.000000
 49
4.000000
 49
-2.000000
 49
4.000000
 49
-2.000000
  0
ENDTAB
  0
TABLE
  2
LAYER
 70
     1
  0
LAYER
  2
0
 70
     0
 62
     7
  6
CONTINUOUS
  0
ENDTAB
  0
TABLE
  2
STYLE
 70
     1
  0
STYLE
  2
STANDARD
 70
     0
 40
0.000000
 41
1.000000
 50
0.000000
 71
     0
 42
0.200000
  3
txt
  4
BIGFONT
  0
ENDTAB
  0
TABLE
  2
VIEW
 70
     0
  0
ENDTAB
  0
ENDSEC
  0
SECTION
  2
BLOCKS
  0
ENDSEC
  0
SECTION
  2
ENTITIES
  0
POINT
  8
0
 10
125.000008
 20
195.000000
  0
POINT
  8
0
 10
147.000000
 20
110.000000
  0
POINT
  8
0
 10
40.000046
 20
122.946625
  0
POINT
  8
0
 10
40.000015
 20
120.596268
  0
POINT
  8
0
 10
40.000000
 20
117.959122
  0
POINT
  8
0
 10
40.000015
 20
114.124207
  0
POINT
  8
0
 10
40.000046
 20
110.000000
  0
POINT
  8
0
 10
62.450050
 20
110.000000
  0
POINT
  8
0
 10
160.000046
 20
40.000000
  0
POINT
  8
0
 10
35.000046
 20
40.000000
  0
POINT
  8
0
 10
85.000046
 20
40.000000
  0
POINT
  8
0
 10
125.000046
 20
40.000000
  0
POINT
  8
0
 10
53.350052
 20
40.000000
  0
POINT
  8
0
 10
99.550049
 20
40.000000
  0
POINT
  8
0
 10
136.950043
 20
40.000000
  0
POINT
  8
0
 10
169.650040
 20
40.000000
  0
POINT
  8
0
 10
300.336761
 20
200.000000
  0
POINT
  8
0
 10
331.336792
 20
110.000008
  0
POINT
  8
0
 10
225.436783
 20
123.032562
  0
POINT
  8
0
 10
225.436783
 20
120.652130
  0
POINT
  8
0
 10
225.436783
 20
117.993240
  0
POINT
  8
0
 10
225.436783
 20
114.138115
  0
POINT
  8
0
 10
225.436768
 20
110.000015
  0
POINT
  8
0
 10
247.886780
 20
110.000015
  0
POINT
  8
0
 10
345.436768
 20
45.000000
  0
POINT
  8
0
 10
225.436768
 20
45.000000
  0
POINT
  8
0
 10
265.436768
 20
45.000000
  0
POINT
  8
0
 10
305.436768
 20
45.000000
  0
POINT
  8
0
 10
243.786774
 20
45.000000
  0
POINT
  8
0
 10
279.986755
 20
45.000000
  0
POINT
  8
0
 10
317.386780
 20
45.000000
  0
POINT
  8
0
 10
355.086792
 20
45.000000
  0
POINT
  8
0
 10
300.336761
 20
110.000008
  0
POINT
  8
0
 10
300.336761
 20
200.000000
  0
POINT
  8
0
 10
331.336792
 20
200.000000
  0
POINT
  8
0
 10
125.000008
 20
110.000000
  0
POINT
  8
0
 10
147.000000
 20
195.000000
  0
LINE
  8
0
 62
     3
 10
0.000000
 20
0.000000
 11
0.000000
 21
254.558472
  0
LINE
  8
0
 62
     3
 10
370.873566
 20
254.558472
 11
370.873566
 21
0.000000
  0
LINE
  8
0
 62
     3
 10
0.000000
 20
0.000000
 11
370.873566
 21
0.000000
  0
LINE
  8
0
 62
     3
 10
0.000000
 20
254.558472
 11
370.873566
 21
254.558472
  0
LINE
  8
0
 62
     3
 10
0.000000
 20
240.257431
 11
76.272194
 21
240.257431
  0
LINE
  8
0
 62
     3
 10
76.272194
 20
240.257431
 11
76.272194
 21
254.558472
  0
LINE
  8
0
 62
     3
 10
294.601379
 20
14.301025
 11
370.873566
 21
14.301025
  0
LINE
  8
0
 62
     3
 10
294.601379
 20
240.257431
 11
370.873566
 21
240.257431
  0
LINE
  8
0
 62
     3
 10
294.601379
 20
254.558472
 11
294.601379
 21
240.257431
  0
LINE
  8
0
 62
     3
 10
294.601379
 20
14.301025
 11
294.601379
 21
0.000000
  0
LINE
  8
0
 10
185.436783
 20
254.558472
 11
185.436783
 21
0.000000
  0
LINE
  8
0
 10
133.399994
 20
144.446625
 11
138.600006
 21
144.446625
  0
LINE
  8
0
 10
134.200012
 20
146.446625
 11
135.700012
 21
146.446625
  0
LINE
  8
0
 10
138.600006
 20
145.646622
 11
138.600006
 21
144.446625
  0
LINE
  8
0
 10
133.399994
 20
145.646622
 11
133.399994
 21
144.446625
  0
LINE
  8
0
  6
CENTER
 10
136.000000
 20
149.446625
 11
136.000000
 21
84.550003
  0
LINE
  8
0
 10
135.700012
 20
145.446625
 11
135.700012
 21
146.446625
  0
LINE
  8
0
 10
136.300003
 20
145.446625
 11
136.300003
 21
146.446625
  0
LINE
  8
0
 10
135.700012
 20
145.446625
 11
136.300003
 21
145.446625
  0
LINE
  8
0
 10
136.300003
 20
146.446625
 11
137.800003
 21
146.446625
  0
LINE
  8
0
 10
125.000008
 20
139.146622
 11
131.000000
 21
139.146622
  0
LINE
  8
0
 10
125.500008
 20
132.146622
 11
132.000000
 21
132.146622
  0
LINE
  8
0
 10
147.000000
 20
139.146622
 11
147.000000
 21
132.146622
  0
LINE
  8
0
 10
125.000008
 20
139.146622
 11
125.000008
 21
132.646622
  0
LINE
  8
0
 10
125.000015
 20
132.646622
 11
125.500023
 21
132.146606
  0
LINE
  8
0
 10
125.000008
 20
132.646622
 11
132.000000
 21
132.646622
  0
LINE
  8
0
 10
126.500008
 20
139.146622
 11
126.500008
 21
139.646622
  0
LINE
  8
0
 10
130.500000
 20
139.146622
 11
130.500000
 21
139.646622
  0
LINE
  8
0
 10
126.500008
 20
139.646622
 11
130.500000
 21
139.646622
  0
LINE
  8
0
 10
147.000000
 20
138.146622
 11
149.000000
 21
138.146622
  0
LINE
  8
0
 10
147.000000
 20
133.146622
 11
149.000000
 21
133.146622
  0
LINE
  8
0
 10
149.000000
 20
138.146622
 11
149.000000
 21
133.146622
  0
LINE
  8
0
 10
149.000000
 20
137.346619
 11
164.455521
 21
137.346619
  0
LINE
  8
0
 10
149.000000
 20
133.946625
 11
163.544495
 21
133.946625
  0
LINE
  8
0
  6
CENTER
 10
122.000008
 20
135.646622
 11
167.000000
 21
135.646622
  0
LINE
  8
0
 10
137.500000
 20
144.446625
 11
137.500000
 21
142.461121
  0
LINE
  8
0
 10
134.500000
 20
144.446625
 11
134.500000
 21
142.461121
  0
LINE
  8
0
 10
134.750000
 20
144.446625
 11
134.750000
 21
142.461121
  0
LINE
  8
0
 10
137.250000
 20
144.446625
 11
137.250000
 21
142.461121
  0
LINE
  8
0
 10
131.500000
 20
136.461121
 11
140.500000
 21
136.461121
  0
LINE
  8
0
 10
134.000000
 20
139.961121
 11
138.000000
 21
139.961121
  0
LINE
  8
0
 10
133.750000
 20
142.461121
 11
138.250000
 21
142.461121
  0
LINE
  8
0
 10
131.000000
 20
143.461121
 11
133.750000
 21
143.461121
  0
LINE
  8
0
 10
131.000000
 20
136.961121
 11
131.000000
 21
143.461121
  0
LINE
  8
0
 10
141.000000
 20
136.961121
 11
141.000000
 21
143.461121
  0
LINE
  8
0
 10
134.000000
 20
142.461121
 11
134.000000
 21
139.961121
  0
LINE
  8
0
 10
138.000000
 20
142.461121
 11
138.000000
 21
139.961121
  0
LINE
  8
0
 10
133.750000
 20
143.461121
 11
133.750000
 21
141.846619
  0
LINE
  8
0
 10
138.250000
 20
143.461121
 11
138.250000
 21
141.846619
  0
LINE
  8
0
 10
138.250000
 20
143.461121
 11
141.000000
 21
143.461121
  0
LINE
  8
0
 10
133.573273
 20
141.461121
 11
134.000000
 21
141.461121
  0
LINE
  8
0
 10
138.000000
 20
141.461121
 11
138.426727
 21
141.461121
  0
LINE
  8
0
 10
141.000000
 20
139.146622
 11
147.000000
 21
139.146622
  0
LINE
  8
0
 10
132.000000
 20
136.461121
 11
132.000000
 21
87.550003
  0
LINE
  8
0
 10
140.000000
 20
136.461121
 11
140.000000
 21
87.550003
  0
LINE
  8
0
 10
140.000000
 20
132.646622
 11
147.000000
 21
132.646622
  0
LINE
  8
0
 10
140.000000
 20
132.146622
 11
147.000000
 21
132.146622
  0
LINE
  8
0
  6
PHANTOM
 10
162.794495
 20
131.147598
 11
165.205521
 21
140.145676
  0
LINE
  8
0
  6
CENTER
 10
129.000000
 20
122.946625
 11
143.000000
 21
122.946625
  0
LINE
  8
0
  6
CENTER
 10
129.000000
 20
120.596260
 11
143.000000
 21
120.596260
  0
LINE
  8
0
  6
CENTER
 10
129.000000
 20
117.959129
 11
143.000000
 21
117.959129
  0
LINE
  8
0
  6
CENTER
 10
129.000000
 20
114.124207
 11
143.000000
 21
114.124207
  0
LINE
  8
0
  6
CENTER
 10
129.000000
 20
110.000000
 11
143.000000
 21
110.000000
  0
LINE
  8
0
  6
PHANTOM
 10
132.000000
 20
113.296623
 11
140.000000
 21
113.296623
  0
LINE
  8
0
  6
PHANTOM
 10
132.000000
 20
108.646255
 11
140.000000
 21
108.646255
  0
LINE
  8
0
  6
PHANTOM
 10
132.000000
 20
103.409126
 11
140.000000
 21
103.409126
  0
LINE
  8
0
  6
PHANTOM
 10
132.000000
 20
95.774200
 11
140.000000
 21
95.774200
  0
LINE
  8
0
 10
132.000000
 20
87.550003
 11
140.000000
 21
87.550003
  0
LINE
  8
0
 10
37.400055
 20
144.493240
 11
42.600037
 21
144.493240
  0
LINE
  8
0
 10
36.500046
 20
139.493240
 11
38.000046
 21
139.493240
  0
LINE
  8
0
 10
38.200043
 20
146.493240
 11
41.800049
 21
146.493240
  0
LINE
  8
0
 10
42.600037
 20
145.693237
 11
42.600037
 21
144.493240
  0
LINE
  8
0
 10
37.400055
 20
145.693237
 11
37.400055
 21
144.493240
  0
LINE
  8
0
 10
41.250046
 20
144.493240
 11
41.250046
 21
142.993240
  0
LINE
  8
0
 10
38.750046
 20
144.493240
 11
38.750046
 21
142.993240
  0
LINE
  8
0
 10
36.500046
 20
139.193237
 11
43.500046
 21
139.193237
  0
LINE
  8
0
 10
37.000046
 20
132.193237
 11
37.820587
 21
132.193237
  0
LINE
  8
0
 10
36.500046
 20
139.493240
 11
36.500046
 21
132.693237
  0
LINE
  8
0
 10
36.500076
 20
132.693268
 11
37.000065
 21
132.193283
  0
LINE
  8
0
 10
36.500046
 20
132.693237
 11
43.500046
 21
132.693237
  0
LINE
  8
0
 10
38.000046
 20
139.193237
 11
38.000046
 21
139.693237
  0
LINE
  8
0
 10
42.000046
 20
139.193237
 11
42.000046
 21
139.693237
  0
LINE
  8
0
 10
38.000046
 20
139.693237
 11
42.000046
 21
139.693237
  0
LINE
  8
0
 10
41.957806
 20
139.766373
 11
42.000027
 21
139.693253
  0
LINE
  8
0
 10
38.042366
 20
139.766296
 11
38.000153
 21
139.693176
  0
LINE
  8
0
 10
43.500046
 20
139.493240
 11
43.500046
 21
132.693237
  0
LINE
  8
0
 10
43.500103
 20
132.693222
 11
43.000103
 21
132.193222
  0
LINE
  8
0
 10
42.179504
 20
132.193237
 11
43.000046
 21
132.193237
  0
LINE
  8
0
 10
35.000046
 20
136.507751
 11
35.000046
 21
141.307739
  0
LINE
  8
0
 10
46.000046
 20
140.007751
 11
46.000046
 21
141.307739
  0
LINE
  8
0
 10
45.000046
 20
141.007751
 11
45.000046
 21
140.007751
  0
LINE
  8
0
 10
36.000046
 20
141.007751
 11
36.000046
 21
136.507751
  0
LINE
  8
0
 10
36.200043
 20
142.507751
 11
43.500046
 21
142.507751
  0
LINE
  8
0
 10
42.600037
 20
141.507751
 11
44.000046
 21
141.507751
  0
LINE
  8
0
 10
35.000046
 20
136.507751
 11
36.000046
 21
136.507751
  0
LINE
  8
0
 10
45.000046
 20
140.007751
 11
46.000046
 21
140.007751
  0
LINE
  8
0
 10
38.200043
 20
140.507751
 11
41.800049
 21
140.507751
  0
LINE
  8
0
 10
38.200043
 20
140.507751
 11
38.200043
 21
140.707748
  0
LINE
  8
0
 10
41.800049
 20
140.507751
 11
41.800049
 21
140.707748
  0
LINE
  8
0
 10
36.500046
 20
141.507751
 11
37.400055
 21
141.507751
  0
LINE
  8
0
 10
42.500046
 20
143.507751
 11
43.800049
 21
143.507751
  0
LINE
  8
0
 10
45.000046
 20
136.507751
 11
44.000046
 21
136.507751
  0
LINE
  8
0
 10
42.500046
 20
143.507751
 11
42.500046
 21
142.507751
  0
LINE
  8
0
 10
45.000046
 20
142.307739
 11
45.000046
 21
136.507751
  0
LINE
  8
0
 10
44.000046
 20
136.507751
 11
44.000046
 21
142.007751
  0
LINE
  8
0
 10
38.500046
 20
140.507751
 11
38.500046
 21
140.091324
  0
LINE
  8
0
 10
38.750046
 20
140.507751
 11
38.750046
 21
140.220428
  0
LINE
  8
0
 10
41.250046
 20
140.507751
 11
41.250046
 21
140.220428
  0
LINE
  8
0
 10
41.500046
 20
140.507751
 11
41.500046
 21
140.091324
  0
LINE
  8
0
 10
42.000046
 20
139.493240
 11
43.500046
 21
139.493240
  0
LINE
  8
0
 10
36.000046
 20
140.757751
 11
36.150055
 21
140.757751
  0
LINE
  8
0
 10
43.850037
 20
140.757751
 11
44.000046
 21
140.757751
  0
LINE
  8
0
 10
36.150055
 20
140.757751
 11
36.150055
 21
136.507751
  0
LINE
  8
0
 10
43.850037
 20
140.757751
 11
43.850037
 21
136.507751
  0
LINE
  8
0
 10
38.500046
 20
142.993240
 11
38.500046
 21
142.507751
  0
LINE
  8
0
 10
38.500046
 20
142.993240
 11
41.500046
 21
142.993240
  0
LINE
  8
0
 10
38.750046
 20
142.993240
 11
38.750046
 21
142.507751
  0
LINE
  8
0
 10
41.250046
 20
142.993240
 11
41.250046
 21
142.507751
  0
LINE
  8
0
 10
41.500046
 20
142.993240
 11
41.500046
 21
142.507751
  0
LINE
  8
0
  6
CENTER
 10
40.000046
 20
149.493240
 11
40.000046
 21
84.550003
  0
LINE
  8
0
  6
CENTER
 10
16.200027
 20
110.000000
 11
63.800034
 21
110.000000
  0
LINE
  8
0
 10
44.000031
 20
136.507736
 11
54.937447
 21
126.759354
  0
LINE
  8
0
 10
43.900196
 20
136.395767
 11
54.837624
 21
126.647377
  0
LINE
  8
0
 10
36.099861
 20
136.395798
 11
25.162422
 21
126.647392
  0
LINE
  8
0
 10
36.000008
 20
136.507828
 11
25.062595
 21
126.759445
  0
LINE
  8
0
  6
CENTER
 10
15.300049
 20
40.000000
 11
54.700043
 21
40.000000
  0
LINE
  8
0
 10
39.000084
 20
62.383541
 11
48.272438
 21
52.671497
  0
LINE
  8
0
 10
38.891521
 20
62.280041
 11
48.163948
 21
52.567921
  0
LINE
  8
0
 10
31.108603
 20
62.280018
 11
21.836174
 21
52.567894
  0
LINE
  8
0
 10
31.000025
 20
62.383541
 11
21.727671
 21
52.671494
  0
LINE
  8
0
  6
CENTER
 10
69.100037
 20
40.000000
 11
100.900055
 21
40.000000
  0
LINE
  8
0
 10
89.000092
 20
58.548630
 11
96.481613
 21
48.937401
  0
LINE
  8
0
 10
88.881554
 20
58.456676
 11
96.363213
 21
48.845261
  0
LINE
  8
0
 10
81.118538
 20
58.456673
 11
73.636879
 21
48.845261
  0
LINE
  8
0
 10
81.000023
 20
58.548626
 11
73.518494
 21
48.937382
  0
LINE
  8
0
  6
CENTER
 10
111.700043
 20
40.000000
 11
138.300049
 21
40.000000
  0
LINE
  8
0
 10
129.000076
 20
55.911495
 11
135.063049
 21
46.445061
  0
LINE
  8
0
 10
128.873703
 20
55.830631
 11
134.936707
 21
46.364151
  0
LINE
  8
0
 10
121.126373
 20
55.830624
 11
115.063370
 21
46.364151
  0
LINE
  8
0
 10
121.000046
 20
55.911488
 11
114.937065
 21
46.445053
  0
LINE
  8
0
  6
CENTER
 10
149.000046
 20
40.000000
 11
171.000046
 21
40.000000
  0
LINE
  8
0
 10
164.000061
 20
53.561138
 11
168.628113
 21
44.321930
  0
LINE
  8
0
 10
156.000061
 20
53.561138
 11
151.371994
 21
44.321957
  0
LINE
  8
0
 10
163.865936
 20
53.493988
 11
168.494003
 21
44.254742
  0
LINE
  8
0
 10
156.134186
 20
53.493946
 11
151.506119
 21
44.254765
  0
LINE
  8
0
 10
310.894226
 20
143.032562
 11
312.436768
 21
143.032562
  0
LINE
  8
0
 10
300.309326
 20
132.132568
 11
312.436768
 21
132.132568
  0
LINE
  8
0
 10
300.336761
 20
143.532562
 11
300.336761
 21
132.132568
  0
LINE
  8
0
 10
331.336792
 20
144.032562
 11
331.336792
 21
132.132568
  0
LINE
  8
0
 10
324.036774
 20
145.032562
 11
330.336761
 21
145.032562
  0
LINE
  8
0
 10
300.336761
 20
138.582565
 11
305.336761
 21
138.582565
  0
LINE
  8
0
 10
310.894226
 20
143.532562
 11
310.894226
 21
143.032562
  0
LINE
  8
0
 10
301.336761
 20
144.532562
 11
309.894226
 21
144.532562
  0
LINE
  8
0
 10
301.786774
 20
144.932556
 11
309.386780
 21
144.932556
  0
LINE
  8
0
 10
309.386780
 20
144.932556
 11
309.386780
 21
144.532562
  0
LINE
  8
0
 10
301.786774
 20
144.932556
 11
301.786774
 21
144.532562
  0
LINE
  8
0
 10
339.836761
 20
140.082565
 11
339.836761
 21
135.082565
  0
LINE
  8
0
 10
331.336792
 20
140.582581
 11
339.836823
 21
140.082581
  0
LINE
  8
0
 10
331.336761
 20
134.582565
 11
339.836761
 21
135.082565
  0
LINE
  8
0
 10
339.836761
 20
135.582565
 11
353.764954
 21
135.582565
  0
LINE
  8
0
 10
339.836761
 20
139.582565
 11
354.836761
 21
139.582565
  0
LINE
  8
0
 10
305.336761
 20
141.332565
 11
305.336761
 21
135.832565
  0
LINE
  8
0
 10
326.336792
 20
141.332565
 11
326.336792
 21
135.832565
  0
LINE
  8
0
 10
305.336761
 20
141.332565
 11
312.436768
 21
141.332565
  0
LINE
  8
0
 10
305.336761
 20
135.832565
 11
312.436768
 21
135.832565
  0
LINE
  8
0
 10
326.336792
 20
138.582565
 11
331.336792
 21
138.582565
  0
LINE
  8
0
 10
311.836761
 20
144.032562
 11
312.436768
 21
144.032562
  0
LINE
  8
0
 10
311.836761
 20
145.032562
 11
312.436768
 21
145.032562
  0
LINE
  8
0
 10
311.836761
 20
145.032562
 11
311.836761
 21
143.032562
  0
LINE
  8
0
 10
321.036774
 20
145.032562
 11
321.036774
 21
143.032562
  0
LINE
  8
0
  6
PHANTOM
 10
353.229034
 20
195.999359
 11
355.372620
 21
203.999374
  0
LINE
  8
0
 10
312.436768
 20
148.836426
 11
320.436768
 21
148.836426
  0
LINE
  8
0
 10
312.436768
 20
138.636414
 11
320.436768
 21
138.636414
  0
LINE
  8
0
 10
313.286743
 20
151.032562
 11
319.586761
 21
151.032562
  0
LINE
  8
0
 10
314.936768
 20
150.032562
 11
317.936768
 21
150.032562
  0
LINE
  8
0
 10
317.936768
 20
150.032562
 11
317.936768
 21
148.836426
  0
LINE
  8
0
 10
314.936768
 20
150.032562
 11
314.936768
 21
148.836426
  0
LINE
  8
0
 10
317.666260
 20
151.032562
 11
317.666260
 21
150.032562
  0
LINE
  8
0
 10
315.207275
 20
151.032562
 11
315.207275
 21
150.032562
  0
LINE
  8
0
 10
315.207275
 20
150.032562
 11
315.207275
 21
148.836426
  0
LINE
  8
0
 10
317.666260
 20
150.032562
 11
317.666260
 21
148.836426
  0
LINE
  8
0
 10
319.586761
 20
152.139175
 11
319.586761
 21
151.032562
  0
LINE
  8
0
 10
313.286743
 20
152.139175
 11
313.286743
 21
151.032562
  0
LINE
  8
0
  6
CENTER
 10
316.436768
 20
156.032562
 11
316.436768
 21
84.550011
  0
LINE
  8
0
 10
316.136780
 20
152.032562
 11
316.736755
 21
152.032562
  0
LINE
  8
0
 10
316.736755
 20
153.025055
 11
316.736755
 21
152.032562
  0
LINE
  8
0
 10
316.136780
 20
153.025055
 11
316.136780
 21
152.032562
  0
LINE
  8
0
 10
312.436768
 20
148.836426
 11
312.436768
 21
87.550011
  0
LINE
  8
0
 10
320.436768
 20
148.836426
 11
320.436768
 21
87.550011
  0
LINE
  8
0
 10
320.436768
 20
145.032562
 11
321.036774
 21
145.032562
  0
LINE
  8
0
 10
320.436768
 20
144.032562
 11
321.036774
 21
144.032562
  0
LINE
  8
0
 10
320.436768
 20
143.032562
 11
322.036774
 21
143.032562
  0
LINE
  8
0
 10
320.436768
 20
141.332565
 11
326.336792
 21
141.332565
  0
LINE
  8
0
 10
320.436768
 20
135.832565
 11
326.336792
 21
135.832565
  0
LINE
  8
0
 10
320.436768
 20
132.132568
 11
331.336761
 21
132.132568
  0
LINE
  8
0
  6
CENTER
 10
309.436768
 20
123.032562
 11
323.436768
 21
123.032562
  0
LINE
  8
0
  6
CENTER
 10
309.436768
 20
120.652145
 11
323.436768
 21
120.652145
  0
LINE
  8
0
  6
CENTER
 10
309.436768
 20
117.993256
 11
323.436768
 21
117.993256
  0
LINE
  8
0
  6
CENTER
 10
309.436768
 20
114.138115
 11
323.436768
 21
114.138115
  0
LINE
  8
0
  6
CENTER
 10
309.436768
 20
110.000008
 11
323.436768
 21
110.000008
  0
LINE
  8
0
  6
PHANTOM
 10
312.436768
 20
113.382561
 11
320.436768
 21
113.382561
  0
LINE
  8
0
  6
PHANTOM
 10
312.436768
 20
108.702141
 11
320.436768
 21
108.702141
  0
LINE
  8
0
  6
PHANTOM
 10
312.436768
 20
103.443253
 11
320.436768
 21
103.443253
  0
LINE
  8
0
  6
PHANTOM
 10
312.436768
 20
95.788116
 11
320.436768
 21
95.788116
  0
LINE
  8
0
 10
312.436768
 20
87.550011
 11
320.436768
 21
87.550011
  0
LINE
  8
0
 10
220.336777
 20
144.032562
 11
220.336777
 21
132.132568
  0
LINE
  8
0
 10
230.536774
 20
144.032562
 11
230.536774
 21
132.132568
  0
LINE
  8
0
 10
221.336777
 20
145.032562
 11
221.846924
 21
145.032562
  0
LINE
  8
0
 10
228.164398
 20
132.132568
 11
230.536774
 21
132.132568
  0
LINE
  8
0
 10
220.336777
 20
138.582565
 11
230.536774
 21
138.582565
  0
LINE
  8
0
 10
221.336777
 20
144.532562
 11
229.536774
 21
144.532562
  0
LINE
  8
0
  6
CENTER
 10
225.436768
 20
156.032562
 11
225.436768
 21
84.700012
  0
LINE
  8
0
 10
221.636780
 20
144.932556
 11
229.236771
 21
144.932556
  0
LINE
  8
0
 10
221.636780
 20
144.932556
 11
221.636780
 21
144.532562
  0
LINE
  8
0
 10
229.236771
 20
144.932556
 11
229.236771
 21
144.532562
  0
LINE
  8
0
 10
229.026627
 20
145.032562
 11
229.536774
 21
145.032562
  0
LINE
  8
0
 10
222.709137
 20
132.132568
 11
220.336777
 21
132.132568
  0
LINE
  8
0
 10
218.936768
 20
138.636429
 11
220.136780
 21
138.636429
  0
LINE
  8
0
 10
220.136780
 20
147.636429
 11
230.736771
 21
147.636429
  0
LINE
  8
0
 10
220.136780
 20
147.636429
 11
220.136780
 21
138.636429
  0
LINE
  8
0
 10
230.736771
 20
147.636429
 11
230.736771
 21
138.636429
  0
LINE
  8
0
 10
218.936768
 20
148.836426
 11
218.936768
 21
138.636429
  0
LINE
  8
0
 10
231.936768
 20
148.836426
 11
231.936768
 21
138.636429
  0
LINE
  8
0
 10
220.286774
 20
147.636429
 11
220.286774
 21
138.636429
  0
LINE
  8
0
 10
230.586777
 20
147.636429
 11
230.586777
 21
138.636429
  0
LINE
  8
0
 10
222.286774
 20
152.139175
 11
222.286774
 21
151.032562
  0
LINE
  8
0
 10
222.286774
 20
151.032562
 11
228.586777
 21
151.032562
  0
LINE
  8
0
 10
228.586777
 20
152.139175
 11
228.586777
 21
151.032562
  0
LINE
  8
0
 10
226.666275
 20
151.032562
 11
226.666275
 21
150.032562
  0
LINE
  8
0
 10
223.936768
 20
150.032562
 11
226.936768
 21
150.032562
  0
LINE
  8
0
 10
224.207275
 20
151.032562
 11
224.207275
 21
150.032562
  0
LINE
  8
0
 10
224.207275
 20
150.032562
 11
224.207275
 21
148.836426
  0
LINE
  8
0
 10
223.936768
 20
150.032562
 11
223.936768
 21
148.836426
  0
LINE
  8
0
 10
226.666275
 20
150.032562
 11
226.666275
 21
148.836426
  0
LINE
  8
0
 10
226.936768
 20
150.032562
 11
226.936768
 21
148.836426
  0
LINE
  8
0
 10
218.936768
 20
148.836426
 11
231.936768
 21
148.836426
  0
LINE
  8
0
 10
226.936768
 20
147.636429
 11
226.936768
 21
145.685837
  0
LINE
  8
0
 10
226.666275
 20
147.636429
 11
226.666275
 21
145.729309
  0
LINE
  8
0
 10
224.207275
 20
147.636429
 11
224.207275
 21
145.729309
  0
LINE
  8
0
 10
223.936768
 20
147.636429
 11
223.936768
 21
145.685837
  0
LINE
  8
0
 10
230.736771
 20
138.636429
 11
231.936768
 21
138.636429
  0
LINE
  8
0
  6
CENTER
 10
201.636765
 20
110.000015
 11
249.236771
 21
110.000015
  0
LINE
  8
0
 10
230.736710
 20
138.636368
 11
242.647766
 21
124.414604
  0
LINE
  8
0
 10
230.621735
 20
138.540085
 11
242.532776
 21
124.318336
  0
LINE
  8
0
 10
220.251801
 20
138.540115
 11
208.340744
 21
124.318359
  0
LINE
  8
0
 10
220.136780
 20
138.636429
 11
208.225723
 21
124.414673
  0
LINE
  8
0
  6
CENTER
 10
205.736771
 20
45.000000
 11
245.136780
 21
45.000000
  0
LINE
  8
0
 10
230.736832
 20
69.498322
 11
240.494858
 21
55.487064
  0
LINE
  8
0
 10
230.614548
 20
69.411453
 11
240.371765
 21
55.401352
  0
LINE
  8
0
 10
220.259064
 20
69.411423
 11
210.501831
 21
55.401329
  0
LINE
  8
0
 10
220.136734
 20
69.498291
 11
210.378708
 21
55.487045
  0
LINE
  8
0
  6
CENTER
 10
249.536774
 20
45.000000
 11
281.336761
 21
45.000000
  0
LINE
  8
0
 10
270.736755
 20
65.643143
 11
278.204712
 21
51.977215
  0
LINE
  8
0
 10
270.605133
 20
65.571220
 11
278.073090
 21
51.905308
  0
LINE
  8
0
 10
260.268433
 20
65.571220
 11
252.800491
 21
51.905304
  0
LINE
  8
0
 10
260.136810
 20
65.643158
 11
252.668869
 21
51.977230
  0
LINE
  8
0
  6
CENTER
 10
292.136780
 20
45.000000
 11
318.736755
 21
45.000000
  0
LINE
  8
0
 10
310.736755
 20
62.984268
 11
316.422424
 21
49.702896
  0
LINE
  8
0
 10
310.599396
 20
62.924046
 11
316.284546
 21
49.643860
  0
LINE
  8
0
 10
300.274139
 20
62.924057
 11
294.588989
 21
49.643879
  0
LINE
  8
0
 10
300.136810
 20
62.984264
 11
294.451141
 21
49.702892
  0
LINE
  8
0
  6
CENTER
 10
334.436768
 20
45.000000
 11
356.436768
 21
45.000000
  0
LINE
  8
0
 10
350.736755
 20
60.603859
 11
354.660980
 21
47.834816
  0
LINE
  8
0
 10
350.593353
 20
60.559788
 11
354.517578
 21
47.790730
  0
LINE
  8
0
 10
340.280212
 20
60.559803
 11
336.355988
 21
47.790741
  0
LINE
  8
0
 10
340.136719
 20
60.603851
 11
336.212494
 21
47.834820
  0
LINE
  8
0
 10
331.336792
 20
204.099991
 11
331.336792
 21
195.900009
  0
LINE
  8
0
 10
301.336761
 20
205.099991
 11
312.436768
 21
205.099991
  0
LINE
  8
0
 10
301.336761
 20
194.900009
 11
312.436768
 21
194.900009
  0
LINE
  8
0
 10
300.336761
 20
204.099991
 11
300.336761
 21
195.900009
  0
LINE
  8
0
 10
339.836761
 20
202.499374
 11
339.836761
 21
197.499374
  0
LINE
  8
0
 10
331.336792
 20
202.999420
 11
339.836761
 21
202.499420
  0
LINE
  8
0
 10
331.336792
 20
196.999405
 11
339.836761
 21
197.499405
  0
LINE
  8
0
 10
339.836761
 20
197.999374
 11
353.764923
 21
197.999374
  0
LINE
  8
0
 10
339.836761
 20
201.999374
 11
354.836731
 21
201.999374
  0
LINE
  8
0
 10
322.036774
 20
205.099991
 11
322.036774
 21
194.900009
  0
LINE
  8
0
 10
311.836761
 20
204.199997
 11
312.436768
 21
204.199997
  0
LINE
  8
0
 10
311.836761
 20
204.199997
 11
311.836761
 21
195.800003
  0
LINE
  8
0
 10
311.836761
 20
195.800003
 11
312.436768
 21
195.800003
  0
LINE
  8
0
 10
321.036774
 20
204.199997
 11
321.036774
 21
195.800003
  0
LINE
  8
0
  6
PHANTOM
 10
353.229034
 20
133.582550
 11
355.372620
 21
141.582565
  0
LINE
  8
0
 10
310.894226
 20
205.099991
 11
310.894226
 21
194.900009
  0
LINE
  8
0
  6
CENTER
 10
297.336761
 20
200.000000
 11
357.585327
 21
200.000000
  0
LINE
  8
0
  6
CENTER
 10
316.436768
 20
225.300003
 11
316.436768
 21
174.699997
  0
LINE
  8
0
  6
PHANTOM
 10
312.436768
 20
190.500000
 11
320.436768
 21
190.500000
  0
LINE
  8
0
  6
PHANTOM
 10
312.436768
 20
188.199997
 11
320.436768
 21
188.199997
  0
LINE
  8
0
  6
PHANTOM
 10
312.436768
 20
185.600006
 11
320.436768
 21
185.600006
  0
LINE
  8
0
  6
PHANTOM
 10
312.436768
 20
181.800003
 11
320.436768
 21
181.800003
  0
LINE
  8
0
 10
312.436768
 20
177.699997
 11
320.436768
 21
177.699997
  0
LINE
  8
0
 10
312.436768
 20
222.300003
 11
312.436768
 21
177.699997
  0
LINE
  8
0
 10
320.436768
 20
222.300003
 11
320.436768
 21
177.699997
  0
LINE
  8
0
  6
PHANTOM
 10
312.436768
 20
209.500000
 11
320.436768
 21
209.500000
  0
LINE
  8
0
  6
PHANTOM
 10
312.436768
 20
211.800003
 11
320.436768
 21
211.800003
  0
LINE
  8
0
  6
PHANTOM
 10
312.436768
 20
214.399994
 11
320.436768
 21
214.399994
  0
LINE
  8
0
  6
PHANTOM
 10
312.436768
 20
218.199997
 11
320.436768
 21
218.199997
  0
LINE
  8
0
 10
312.436768
 20
222.300003
 11
320.436768
 21
222.300003
  0
LINE
  8
0
 10
312.436768
 20
193.500000
 11
320.436768
 21
193.500000
  0
LINE
  8
0
 10
312.436768
 20
206.500000
 11
320.436768
 21
206.500000
  0
LINE
  8
0
 10
320.436768
 20
205.099991
 11
330.336792
 21
205.099991
  0
LINE
  8
0
 10
320.436768
 20
204.199997
 11
321.036774
 21
204.199997
  0
LINE
  8
0
 10
320.436768
 20
195.800003
 11
321.036774
 21
195.800003
  0
LINE
  8
0
 10
320.436768
 20
194.900009
 11
330.336792
 21
194.900009
  0
LINE
  8
0
 10
315.136780
 20
199.699997
 11
315.636780
 21
199.699997
  0
LINE
  8
0
 10
315.136780
 20
200.300003
 11
315.636780
 21
200.300003
  0
LINE
  8
0
 10
316.136780
 20
203.135681
 11
316.136780
 21
200.800003
  0
LINE
  8
0
 10
316.736755
 20
203.135681
 11
316.736755
 21
200.800003
  0
LINE
  8
0
 10
317.236755
 20
200.300003
 11
317.736755
 21
200.300003
  0
LINE
  8
0
 10
316.136780
 20
199.199997
 11
316.136780
 21
196.864319
  0
LINE
  8
0
 10
317.236755
 20
199.699997
 11
317.736755
 21
199.699997
  0
LINE
  8
0
 10
316.736755
 20
199.199997
 11
316.736755
 21
196.864319
  0
LINE
  8
0
 10
316.736755
 20
201.300003
 11
316.136780
 21
201.300003
  0
LINE
  8
0
 10
315.136780
 20
200.300003
 11
315.136780
 21
199.699997
  0
LINE
  8
0
 10
316.136780
 20
198.699997
 11
316.736755
 21
198.699997
  0
LINE
  8
0
 10
317.736755
 20
199.699997
 11
317.736755
 21
200.300003
  0
LINE
  8
0
 10
132.000000
 20
217.449997
 11
140.000000
 21
217.449997
  0
LINE
  8
0
 10
147.000000
 20
197.500000
 11
149.000000
 21
197.500000
  0
LINE
  8
0
 10
147.000000
 20
192.500000
 11
149.000000
 21
192.500000
  0
LINE
  8
0
 10
149.000000
 20
197.500000
 11
149.000000
 21
192.500000
  0
LINE
  8
0
 10
149.000000
 20
196.699997
 11
164.455521
 21
196.699997
  0
LINE
  8
0
 10
149.000000
 20
193.300003
 11
163.544495
 21
193.300003
  0
LINE
  8
0
 10
131.500000
 20
200.000000
 11
140.500000
 21
200.000000
  0
LINE
  8
0
 10
131.000000
 20
190.000000
 11
133.750000
 21
190.000000
  0
LINE
  8
0
 10
125.000008
 20
198.500000
 11
131.000000
 21
198.500000
  0
LINE
  8
0
 10
125.000008
 20
191.500000
 11
131.000000
 21
191.500000
  0
LINE
  8
0
 10
131.000000
 20
199.500000
 11
131.000000
 21
191.500000
  0
LINE
  8
0
 10
125.000008
 20
198.500000
 11
125.000008
 21
191.500000
  0
LINE
  8
0
 10
141.000000
 20
199.500000
 11
141.000000
 21
191.500000
  0
LINE
  8
0
 10
147.000000
 20
198.500000
 11
147.000000
 21
191.500000
  0
LINE
  8
0
 10
134.000000
 20
189.633972
 11
134.000000
 21
188.699997
  0
LINE
  8
0
 10
138.000000
 20
189.633972
 11
138.000000
 21
188.699997
  0
LINE
  8
0
 10
131.500000
 20
191.000000
 11
132.633987
 21
191.000000
  0
LINE
  8
0
 10
134.000000
 20
188.699997
 11
138.000000
 21
188.699997
  0
LINE
  8
0
 10
139.366028
 20
191.000000
 11
140.500000
 21
191.000000
  0
LINE
  8
0
 10
131.000000
 20
191.500000
 11
131.000000
 21
190.000000
  0
LINE
  8
0
 10
141.000000
 20
191.500000
 11
141.000000
 21
190.000000
  0
LINE
  8
0
 10
138.250000
 20
190.000000
 11
141.000000
 21
190.000000
  0
LINE
  8
0
 10
141.000000
 20
198.500000
 11
147.000000
 21
198.500000
  0
LINE
  8
0
 10
141.000000
 20
191.500000
 11
147.000000
 21
191.500000
  0
LINE
  8
0
 10
138.250000
 20
190.000000
 11
138.250000
 21
191.468246
  0
LINE
  8
0
 10
133.750000
 20
190.000000
 11
133.750000
 21
191.468246
  0
LINE
  8
0
 10
134.700012
 20
194.699997
 11
135.200012
 21
194.699997
  0
LINE
  8
0
 10
134.700012
 20
195.300003
 11
135.200012
 21
195.300003
  0
LINE
  8
0
 10
135.700012
 20
197.582642
 11
135.700012
 21
195.800003
  0
LINE
  8
0
 10
136.300003
 20
197.582642
 11
136.300003
 21
195.800003
  0
LINE
  8
0
 10
136.800003
 20
195.300003
 11
137.300018
 21
195.300003
  0
LINE
  8
0
 10
135.700012
 20
194.199997
 11
135.700012
 21
192.417358
  0
LINE
  8
0
 10
136.800003
 20
194.699997
 11
137.300018
 21
194.699997
  0
LINE
  8
0
 10
136.300003
 20
194.199997
 11
136.300003
 21
192.417358
  0
LINE
  8
0
 10
136.300003
 20
196.300003
 11
135.700012
 21
196.300003
  0
LINE
  8
0
 10
134.700012
 20
195.300003
 11
134.700012
 21
194.699997
  0
LINE
  8
0
 10
135.700012
 20
193.699997
 11
136.300003
 21
193.699997
  0
LINE
  8
0
 10
137.300018
 20
194.699997
 11
137.300018
 21
195.300003
  0
LINE
  8
0
 10
132.000000
 20
217.449997
 11
132.000000
 21
200.000000
  0
LINE
  8
0
 10
140.000000
 20
217.449997
 11
140.000000
 21
200.000000
  0
LINE
  8
0
 10
132.000000
 20
190.000000
 11
132.000000
 21
172.550003
  0
LINE
  8
0
 10
140.000000
 20
190.000000
 11
140.000000
 21
172.550003
  0
LINE
  8
0
 10
132.000000
 20
172.550003
 11
140.000000
 21
172.550003
  0
LINE
  8
0
  6
CENTER
 10
136.000000
 20
220.449997
 11
136.000000
 21
169.550003
  0
LINE
  8
0
  6
CENTER
 10
122.000008
 20
195.000000
 11
167.000000
 21
195.000000
  0
LINE
  8
0
  6
PHANTOM
 10
132.000000
 20
176.649994
 11
140.000000
 21
176.649994
  0
LINE
  8
0
  6
PHANTOM
 10
132.000000
 20
180.449997
 11
140.000000
 21
180.449997
  0
LINE
  8
0
  6
PHANTOM
 10
132.000000
 20
183.050003
 11
140.000000
 21
183.050003
  0
LINE
  8
0
  6
PHANTOM
 10
132.000000
 20
185.350006
 11
140.000000
 21
185.350006
  0
LINE
  8
0
  6
PHANTOM
 10
132.000000
 20
204.649994
 11
140.000000
 21
204.649994
  0
LINE
  8
0
  6
PHANTOM
 10
132.000000
 20
206.949997
 11
140.000000
 21
206.949997
  0
LINE
  8
0
  6
PHANTOM
 10
132.000000
 20
209.550003
 11
140.000000
 21
209.550003
  0
LINE
  8
0
  6
PHANTOM
 10
132.000000
 20
213.350006
 11
140.000000
 21
213.350006
  0
LINE
  8
0
  6
PHANTOM
 10
162.794495
 20
190.500961
 11
165.205536
 21
199.499039
  0
LINE
  8
0
 10
264.189728
 20
154.543777
 11
266.189758
 21
158.007935
  0
LINE
  8
0
 10
275.107971
 20
154.000015
 11
262.357147
 21
154.000015
  0
LINE
  8
0
 10
248.763123
 20
182.543747
 11
250.763138
 21
186.007874
  0
LINE
  8
0
 10
259.681335
 20
181.999985
 11
246.930496
 21
181.999985
  0
LINE
  8
0
 10
225.436829
 20
122.946640
 11
246.930511
 21
181.999985
  0
LINE
  8
0
 10
252.638275
 20
175.543777
 11
254.638275
 21
179.007874
  0
LINE
  8
0
 10
263.556458
 20
175.000000
 11
250.805634
 21
175.000000
  0
LINE
  8
0
 10
256.160492
 20
168.543808
 11
258.160492
 21
172.007904
  0
LINE
  8
0
 10
267.078674
 20
168.000031
 11
254.327850
 21
168.000031
  0
LINE
  8
0
 10
260.092133
 20
161.543762
 11
262.092163
 21
165.007889
  0
LINE
  8
0
 10
271.010345
 20
161.000000
 11
258.259521
 21
161.000000
  0
LINE
  8
0
 10
250.805634
 20
175.000000
 11
225.436752
 21
120.596283
  0
LINE
  8
0
 10
254.327835
 20
168.000015
 11
225.436737
 21
117.959152
  0
LINE
  8
0
 10
258.259521
 20
161.000000
 11
225.436768
 21
114.124199
  0
LINE
  8
0
 10
262.357147
 20
154.000031
 11
225.436798
 21
110.000031
  0
LINE
  8
0
 10
78.753029
 20
154.543777
 11
80.753044
 21
158.007904
  0
LINE
  8
0
 10
89.671242
 20
154.000000
 11
76.920418
 21
154.000000
  0
LINE
  8
0
 10
74.244598
 20
181.999969
 11
61.493774
 21
181.999969
  0
LINE
  8
0
 10
67.201538
 20
175.543762
 11
69.201546
 21
179.007874
  0
LINE
  8
0
 10
78.119743
 20
174.999985
 11
65.368919
 21
174.999985
  0
LINE
  8
0
 10
70.723740
 20
168.543793
 11
72.723747
 21
172.007904
  0
LINE
  8
0
 10
81.641953
 20
168.000015
 11
68.891129
 21
168.000015
  0
LINE
  8
0
 10
74.655418
 20
161.543747
 11
76.655434
 21
165.007874
  0
LINE
  8
0
 10
85.573631
 20
160.999985
 11
72.822807
 21
160.999985
  0
LINE
  8
0
 10
65.368919
 20
174.999985
 11
40.000031
 21
120.596268
  0
LINE
  8
0
 10
68.891129
 20
168.000015
 11
40.000023
 21
117.959137
  0
LINE
  8
0
 10
72.822807
 20
160.999985
 11
40.000042
 21
114.124184
  0
LINE
  8
0
 10
76.920425
 20
154.000015
 11
40.000072
 21
110.000023
  0
LINE
  8
0
 10
40.000092
 20
122.946625
 11
61.493774
 21
181.999969
  0
LINE
  8
0
 10
63.326389
 20
182.543732
 11
65.326393
 21
186.007858
  0
LINE
  8
0
 10
341.336823
 20
18.267933
 11
343.336823
 21
21.732048
  0
LINE
  8
0
 10
30.900043
 20
13.267948
 11
32.900051
 21
16.732063
  0
LINE
  8
0
 10
80.900047
 20
13.267949
 11
82.900055
 21
16.732063
  0
LINE
  8
0
 10
120.900055
 20
13.267952
 11
122.900063
 21
16.732067
  0
LINE
  8
0
 10
155.900055
 20
13.267949
 11
157.900055
 21
16.732063
  0
LINE
  8
0
 10
221.336777
 20
18.267950
 11
223.336792
 21
21.732065
  0
LINE
  8
0
 10
261.336792
 20
18.267946
 11
263.336792
 21
21.732061
  0
LINE
  8
0
 10
301.336792
 20
18.267941
 11
303.336792
 21
21.732056
  0
ARC
  8
0
 10
137.450012
 20
141.246628
 40
0.999997
 50
303.367340
 51
36.870071
  0
ARC
  8
0
 10
128.500000
 20
137.546631
 40
2.900004
 50
46.397263
 51
133.602737
  0
ARC
  8
0
 10
134.200012
 20
145.646622
 40
0.800003
 50
90.000000
 51
180.000000
  0
ARC
  8
0
 10
137.800003
 20
145.646622
 40
0.800003
 50
0.000000
 51
90.000000
  0
ARC
  8
0
 10
131.500000
 20
136.961121
 40
0.500000
 50
180.000000
 51
270.000000
  0
ARC
  8
0
 10
140.500000
 20
136.961121
 40
0.500000
 50
270.000000
 51
0.000000
  0
ARC
  8
0
 10
134.550003
 20
141.246628
 40
1.000006
 50
143.129929
 51
236.632675
  0
ARC
  8
0
 10
43.500046
 20
142.007751
 40
0.500000
 50
0.000000
 51
90.000000
  0
ARC
  8
0
 10
43.800049
 20
142.307739
 40
1.200001
 50
0.000000
 51
90.000000
  0
ARC
  8
0
 10
36.500046
 20
141.007751
 40
0.500000
 50
90.000000
 51
180.000000
  0
ARC
  8
0
 10
38.200043
 20
145.693237
 40
0.800003
 50
90.000000
 51
180.000000
  0
ARC
  8
0
 10
41.800049
 20
145.693237
 40
0.799999
 50
0.000000
 51
90.000000
  0
ARC
  8
0
 10
40.000046
 20
137.493240
 40
2.999996
 50
49.262447
 51
130.737305
  0
ARC
  8
0
 10
40.000046
 20
127.693245
 40
4.999994
 50
64.158012
 51
115.841988
  0
ARC
  8
0
 10
36.200043
 20
141.307739
 40
1.199997
 50
90.000000
 51
180.000000
  0
ARC
  8
0
 10
44.800049
 20
141.307739
 40
1.200001
 50
0.000000
 51
80.405869
  0
ARC
  8
0
 10
42.600037
 20
140.707748
 40
0.800003
 50
90.000000
 51
180.000000
  0
ARC
  8
0
 10
37.400055
 20
140.707748
 40
0.799999
 50
0.000000
 51
90.000000
  0
ARC
  8
0
 10
40.000031
 20
110.000000
 40
22.299997
 50
131.710251
 51
48.289749
  0
ARC
  8
0
 10
40.000046
 20
110.000000
 40
22.449997
 50
131.710251
 51
48.289749
  0
ARC
  8
0
 10
44.000000
 20
136.507751
 40
0.149971
 50
180.000000
 51
228.289246
  0
ARC
  8
0
 10
36.000076
 20
136.507736
 40
0.149969
 50
311.710754
 51
0.000000
  0
ARC
  8
0
 10
35.000046
 20
40.000000
 40
18.200001
 50
136.326797
 51
43.673203
  0
ARC
  8
0
 10
35.000046
 20
40.000000
 40
18.350000
 50
136.326797
 51
43.673199
  0
ARC
  8
0
 10
38.999832
 20
62.383453
 40
0.149776
 50
179.967896
 51
223.672913
  0
ARC
  8
0
 10
31.000259
 20
62.383453
 40
0.149777
 50
316.326569
 51
0.032104
  0
ARC
  8
0
 10
85.000046
 20
40.000000
 40
14.400003
 50
142.102341
 51
37.897682
  0
ARC
  8
0
 10
85.000046
 20
40.000000
 40
14.549999
 50
142.102341
 51
37.897667
  0
ARC
  8
0
 10
88.999390
 20
58.548401
 40
0.149338
 50
179.915115
 51
217.897964
  0
ARC
  8
0
 10
81.000702
 20
58.548401
 40
0.149338
 50
322.102051
 51
0.084887
  0
ARC
  8
0
 10
125.000046
 20
40.000000
 40
11.799998
 50
147.361618
 51
32.638374
  0
ARC
  8
0
 10
125.000046
 20
40.000000
 40
11.950002
 50
147.361649
 51
32.638371
  0
ARC
  8
0
 10
128.999908
 20
55.911453
 40
0.149857
 50
179.986877
 51
212.639877
  0
ARC
  8
0
 10
121.000175
 20
55.911453
 40
0.149862
 50
327.361694
 51
0.013126
  0
ARC
  8
0
 10
160.000046
 20
40.000000
 40
9.500002
 50
153.392929
 51
26.606907
  0
ARC
  8
0
 10
160.000046
 20
40.000000
 40
9.649998
 50
153.392914
 51
26.606924
  0
ARC
  8
0
 10
163.999939
 20
53.561119
 40
0.149887
 50
179.997086
 51
206.605484
  0
ARC
  8
0
 10
156.000153
 20
53.561119
 40
0.149891
 50
333.393219
 51
0.002916
  0
ARC
  8
0
 10
316.436768
 20
147.032562
 40
5.999997
 50
58.331806
 51
87.134132
  0
ARC
  8
0
 10
316.436768
 20
147.032562
 40
5.999998
 50
92.866158
 51
121.668198
  0
ARC
  8
0
 10
330.336792
 20
144.032562
 40
1.000000
 50
0.000000
 51
90.000000
  0
ARC
  8
0
 10
324.036774
 20
143.032562
 40
2.000000
 50
90.000000
 51
180.000000
  0
ARC
  8
0
 10
301.336761
 20
143.532562
 40
1.000000
 50
90.000000
 51
180.000000
  0
ARC
  8
0
 10
309.894226
 20
143.532562
 40
1.000000
 50
0.000000
 51
90.000000
  0
ARC
  8
0
 10
305.586761
 20
137.217834
 40
8.599816
 50
63.776840
 51
116.223160
  0
ARC
  8
0
 10
225.436768
 20
147.032562
 40
5.999997
 50
58.331806
 51
121.668198
  0
ARC
  8
0
 10
225.436768
 20
126.232590
 40
6.499978
 50
65.188332
 51
114.811668
  0
ARC
  8
0
 10
225.436768
 20
137.217819
 40
8.599836
 50
63.776794
 51
116.223206
  0
ARC
  8
0
 10
229.536774
 20
143.532562
 40
1.000000
 50
0.000000
 51
90.000000
  0
ARC
  8
0
 10
221.336777
 20
144.032562
 40
1.000000
 50
90.000000
 51
180.000000
  0
ARC
  8
0
 10
229.536774
 20
144.032562
 40
1.000000
 50
0.000000
 51
90.000000
  0
ARC
  8
0
 10
221.336777
 20
143.532562
 40
1.000000
 50
90.000000
 51
180.000000
  0
ARC
  8
0
 10
225.436768
 20
110.000015
 40
22.299995
 50
140.053055
 51
39.946903
  0
ARC
  8
0
 10
225.436768
 20
110.000015
 40
22.449999
 50
140.053085
 51
39.946918
  0
ARC
  8
0
 10
230.736771
 20
138.636414
 40
0.149994
 50
180.000000
 51
219.948853
  0
ARC
  8
0
 10
220.136780
 20
138.636414
 40
0.149997
 50
320.051147
 51
0.000000
  0
ARC
  8
0
 10
225.436768
 20
45.000000
 40
18.200005
 50
145.145050
 51
34.854946
  0
ARC
  8
0
 10
225.436768
 20
45.000000
 40
18.349995
 50
145.145035
 51
34.854969
  0
ARC
  8
0
 10
230.741302
 20
69.499725
 40
0.154517
 50
180.529037
 51
214.855286
  0
ARC
  8
0
 10
220.132248
 20
69.499725
 40
0.154522
 50
325.144714
 51
359.470978
  0
ARC
  8
0
 10
265.436768
 20
45.000000
 40
14.399995
 50
151.344955
 51
28.655046
  0
ARC
  8
0
 10
265.436768
 20
45.000000
 40
14.550003
 50
151.344971
 51
28.655058
  0
ARC
  8
0
 10
270.736816
 20
65.643166
 40
0.150024
 50
180.000000
 51
208.655579
  0
ARC
  8
0
 10
260.136719
 20
65.643166
 40
0.150029
 50
331.344421
 51
0.000000
  0
ARC
  8
0
 10
305.436768
 20
45.000000
 40
11.799992
 50
156.824524
 51
23.175453
  0
ARC
  8
0
 10
305.436768
 20
45.000000
 40
11.950003
 50
156.824570
 51
23.175430
  0
ARC
  8
0
 10
310.743103
 20
62.985580
 40
0.156347
 50
180.479507
 51
203.176559
  0
ARC
  8
0
 10
300.130432
 20
62.985580
 40
0.156323
 50
336.823425
 51
359.520508
  0
ARC
  8
0
 10
345.436768
 20
45.000000
 40
9.499996
 50
162.916641
 51
17.083382
  0
ARC
  8
0
 10
345.436768
 20
45.000000
 40
9.649987
 50
162.916611
 51
17.083395
  0
ARC
  8
0
 10
350.736542
 20
60.603798
 40
0.149750
 50
179.978104
 51
197.085129
  0
ARC
  8
0
 10
340.137024
 20
60.603798
 40
0.149735
 50
342.914856
 51
0.021893
  0
ARC
  8
0
 10
301.336761
 20
195.900009
 40
1.000000
 50
180.000000
 51
270.000000
  0
ARC
  8
0
 10
301.336761
 20
204.099991
 40
1.000000
 50
90.000000
 51
180.000000
  0
ARC
  8
0
 10
330.336792
 20
204.099991
 40
1.000000
 50
0.000000
 51
90.000000
  0
ARC
  8
0
 10
330.336792
 20
195.900009
 40
1.000000
 50
270.000000
 51
0.000000
  0
CIRCLE
  8
0
 10
305.586792
 20
200.000000
 40
3.800000
  0
CIRCLE
  8
0
 10
316.436768
 20
200.000000
 40
3.150000
  0
ARC
  8
0
 10
317.236755
 20
199.199997
 40
0.500000
 50
90.000000
 51
180.000000
  0
ARC
  8
0
 10
315.636780
 20
199.199997
 40
0.500000
 50
0.000000
 51
90.000000
  0
ARC
  8
0
 10
315.636780
 20
200.800003
 40
0.500000
 50
270.000000
 51
0.000000
  0
ARC
  8
0
 10
317.236755
 20
200.800003
 40
0.500000
 50
180.000000
 51
270.000000
  0
CIRCLE
  8
0
 10
136.000000
 20
195.000000
 40
2.600006
  0
ARC
  8
0
 10
135.200012
 20
194.199997
 40
0.500000
 50
0.000000
 51
90.000000
  0
ARC
  8
0
 10
136.800003
 20
194.199997
 40
0.500000
 50
90.000000
 51
180.000000
  0
ARC
  8
0
 10
136.800003
 20
195.800003
 40
0.500000
 50
180.000000
 51
270.000000
  0
ARC
  8
0
 10
135.200012
 20
195.800003
 40
0.500000
 50
270.000000
 51
0.000000
  0
CIRCLE
  8
0
 10
128.500000
 20
195.000000
 40
2.000000
  0
ARC
  8
0
 10
138.500000
 20
190.500000
 40
1.000002
 50
29.999931
 51
240.000076
  0
ARC
  8
0
 10
133.500000
 20
190.500000
 40
1.000002
 50
299.999939
 51
150.000076
  0
ARC
  8
0
 10
140.500000
 20
191.500000
 40
0.500000
 50
270.000000
 51
0.000000
  0
ARC
  8
0
 10
131.500000
 20
191.500000
 40
0.500000
 50
180.000000
 51
270.000000
  0
ARC
  8
0
 10
140.500000
 20
199.500000
 40
0.500000
 50
0.000000
 51
90.000000
  0
ARC
  8
0
 10
131.500000
 20
199.500000
 40
0.500000
 50
90.000000
 51
180.000000
  0
CIRCLE
  8
0
 10
265.189758
 20
156.275833
 40
1.000000
  0
CIRCLE
  8
0
 10
249.763123
 20
184.275803
 40
1.000000
  0
CIRCLE
  8
0
 10
253.638260
 20
177.275818
 40
1.000000
  0
CIRCLE
  8
0
 10
257.160461
 20
170.275848
 40
1.000000
  0
CIRCLE
  8
0
 10
261.092163
 20
163.275818
 40
1.000000
  0
CIRCLE
  8
0
 10
79.753036
 20
156.275818
 40
1.000000
  0
CIRCLE
  8
0
 10
68.201538
 20
177.275803
 40
1.000000
  0
CIRCLE
  8
0
 10
71.723747
 20
170.275833
 40
1.000000
  0
CIRCLE
  8
0
 10
75.655426
 20
163.275803
 40
1.000000
  0
CIRCLE
  8
0
 10
64.326393
 20
184.275787
 40
1.000000
  0
CIRCLE
  8
0
 10
342.336792
 20
20.000000
 40
1.000000
  0
CIRCLE
  8
0
 10
31.900045
 20
15.000000
 40
1.000000
  0
CIRCLE
  8
0
 10
81.900047
 20
15.000000
 40
1.000000
  0
CIRCLE
  8
0
 10
121.900047
 20
15.000000
 40
1.000000
  0
CIRCLE
  8
0
 10
156.900055
 20
15.000000
 40
1.000000
  0
CIRCLE
  8
0
 10
222.336777
 20
20.000000
 40
1.000000
  0
CIRCLE
  8
0
 10
262.336792
 20
20.000000
 40
1.000000
  0
CIRCLE
  8
0
 10
302.336792
 20
20.000000
 40
1.000000
  0
TEXT
  8
0
 10
298.797760
 20
244.589584
 40
4.242641
  1
DATE : JAN ,1992
 50
0.000000
 41
1.052631
 51
0.000000
  7
STANDARD
  0
TEXT
  8
0
 10
192.472504
 20
226.757431
 40
5.000000
  1
MODEL : ZA131
 50
0.000000
 41
1.052632
 51
0.000000
  7
STANDARD
  0
TEXT
  8
0
 10
232.472504
 20
218.757431
 40
5.000000
  1
ZA132
 50
0.000000
 41
1.052632
 51
0.000000
  7
STANDARD
  0
TEXT
  8
0
 10
232.472504
 20
210.757431
 40
5.000000
  1
ZA150
 50
0.000000
 41
1.052632
 51
0.000000
  7
STANDARD
  0
TEXT
  8
0
 10
232.472504
 20
202.757431
 40
5.000000
  1
ZA154
 50
0.000000
 41
1.052632
 51
0.000000
  7
STANDARD
  0
TEXT
  8
0
 10
7.035715
 20
226.757431
 40
5.000000
  1
MODEL : CS3M
 50
0.000000
 41
1.052632
 51
0.000000
  7
STANDARD
  0
TEXT
  8
0
 10
47.035713
 20
218.757431
 40
5.000000
  1
CS4M
 50
0.000000
 41
1.052632
 51
0.000000
  7
STANDARD
  0
TEXT
  8
0
 10
47.035713
 20
210.757431
 40
5.000000
  1
CS5M
 50
0.000000
 41
1.052632
 51
0.000000
  7
STANDARD
  0
TEXT
  8
0
 10
47.035717
 20
202.757431
 40
5.000000
  1
ZG530
 50
0.000000
 41
1.052632
 51
0.000000
  7
STANDARD
  0
TEXT
  8
0
 10
47.035717
 20
194.757431
 40
5.000000
  1
ZG553
 50
0.000000
 41
1.052632
 51
0.000000
  7
STANDARD
  0
TEXT
  8
0
 10
339.936768
 20
17.850000
 40
3.500000
  1
 16
 50
0.000000
 41
1.052632
 51
0.000000
  7
STANDARD
  0
TEXT
  8
0
 10
219.936768
 20
17.850000
 40
3.500000
  1
 32
 50
0.000000
 41
1.052632
 51
0.000000
  7
STANDARD
  0
TEXT
  8
0
 10
259.936768
 20
17.850000
 40
3.500000
  1
 25
 50
0.000000
 41
1.052632
 51
0.000000
  7
STANDARD
  0
TEXT
  8
0
 10
299.936768
 20
17.850000
 40
3.500000
  1
 20
 50
0.000000
 41
1.052632
 51
0.000000
  7
STANDARD
  0
TEXT
  8
0
 10
154.500046
 20
12.849999
 40
3.500000
  1
 16
 50
0.000000
 41
1.052632
 51
0.000000
  7
STANDARD
  0
TEXT
  8
0
 10
119.500046
 20
12.849999
 40
3.500000
  1
 20
 50
0.000000
 41
1.052632
 51
0.000000
  7
STANDARD
  0
TEXT
  8
0
 10
79.500046
 20
12.849999
 40
3.500000
  1
 25
 50
0.000000
 41
1.052632
 51
0.000000
  7
STANDARD
  0
TEXT
  8
0
 10
29.500046
 20
12.849999
 40
3.500000
  1
 32
 50
0.000000
 41
1.052632
 51
0.000000
  7
STANDARD
  0
TEXT
  8
0
 10
2.317407
 20
243.907959
 40
5.000000
  1
TWIN PORT SENSOR SW
 50
0.000000
 41
0.787465
 51
0.000000
  7
STANDARD
  0
TEXT
  8
0
 10
266.591705
 20
154.269638
 40
3.500000
  1
40
 50
0.000000
 41
1.052632
 51
0.000000
  7
STANDARD
  0
TEXT
  8
0
 10
251.165054
 20
182.269608
 40
3.500000
  1
16
 50
0.000000
 41
1.052632
 51
0.000000
  7
STANDARD
  0
TEXT
  8
0
 10
255.040192
 20
175.269623
 40
3.500000
  1
20
 50
0.000000
 41
1.052632
 51
0.000000
  7
STANDARD
  0
TEXT
  8
0
 10
258.562408
 20
168.269653
 40
3.500000
  1
25
 50
0.000000
 41
1.052632
 51
0.000000
  7
STANDARD
  0
TEXT
  8
0
 10
262.494080
 20
161.269623
 40
3.500000
  1
32
 50
0.000000
 41
1.052632
 51
0.000000
  7
STANDARD
  0
TEXT
  8
0
 10
81.154976
 20
154.269623
 40
3.500000
  1
40
 50
0.000000
 41
1.052632
 51
0.000000
  7
STANDARD
  0
TEXT
  8
0
 10
65.728333
 20
182.269592
 40
3.500000
  1
16
 50
0.000000
 41
1.052632
 51
0.000000
  7
STANDARD
  0
TEXT
  8
0
 10
69.603477
 20
175.269608
 40
3.500000
  1
20
 50
0.000000
 41
1.052632
 51
0.000000
  7
STANDARD
  0
TEXT
  8
0
 10
73.125687
 20
168.269638
 40
3.500000
  1
25
 50
0.000000
 41
1.052632
 51
0.000000
  7
STANDARD
  0
TEXT
  8
0
 10
77.057365
 20
161.269608
 40
3.500000
  1
32
 50
0.000000
 41
1.052632
 51
0.000000
  7
STANDARD
  0
TEXT
  8
0
 10
302.273193
 20
3.650512
 40
5.000000
  1
KOGANEI,CORP
 50
0.000000
 41
1.052632
 51
0.000000
  7
STANDARD
  0
ENDSEC
  0
EOF
