  0
SECTION
  2
HEADER
  0
ENDSEC
  0
SECTION
  2
TABLES
  0
TABLE
  2
LTYPE
 70
     4
  0
LTYPE
  2
CONTINUOUS
 70
    64
  3
Solid line
 72
    65
 73
     0
 40
0.000000
  0
LTYPE
  2
DASHED
 70
    64
  3
__ __ __ __ __ __ __ __ __ __ __ __ __ __ __
 72
    65
 73
     2
 40
3.500000
 49
2.000000
 49
-1.500000
  0
LTYPE
  2
CENTER
 70
    64
  3
____ _ ____ _ ____ _ ____ _ ____ _ ____ _ ____
 72
    65
 73
     4
 40
17.500000
 49
13.000000
 49
-1.500000
 49
1.500000
 49
-1.500000
  0
LTYPE
  2
PHANTOM
 70
    64
  3
_____ _ _ _____ _ _ _____ _ _ _____ _ _ ____  
 72
    65
 73
     6
 40
15.500000
 49
8.000000
 49
-1.500000
 49
1.500000
 49
-1.500000
 49
1.500000
 49
-1.500000
  0
LTYPE
  2
DASHED1
 70
    64
  3
__ __ __ __ __ __ __ __ __ __ __ __ __ __ __
 72
    65
 73
     2
 40
1.500000
 49
1.000000
 49
-0.500000
  0
LTYPE
  2
DASHED2
 70
    64
  3
__ __ __ __ __ __ __ __ __ __ __ __ __ __ __
 72
    65
 73
     2
 40
3.500000
 49
2.500000
 49
-1.000000
  0
LTYPE
  2
DASHED3
 70
    64
  3
__ __ __ __ __ __ __ __ __ __ __ __ __ __ __
 72
    65
 73
     2
 40
6.000000
 49
4.000000
 49
-2.000000
  0
LTYPE
  2
DASHED4
 70
    64
  3
__ __ __ __ __ __ __ __ __ __ __ __ __ __ __
 72
    65
 73
     2
 40
12.000000
 49
10.000000
 49
-2.000000
  0
LTYPE
  2
DASHED5
 70
    64
  3
__ __ __ __ __ __ __ __ __ __ __ __ __ __ __
 72
    65
 73
     2
 40
17.000000
 49
15.000000
 49
-2.000000
  0
LTYPE
  2
DASHED6
 70
    64
  3
__ __ __ __ __ __ __ __ __ __ __ __ __ __ __
 72
    65
 73
     2
 40
29.000000
 49
27.000000
 49
-2.000000
  0
LTYPE
  2
PHANTOM1
 70
    64
  3
_____ _ _ _____ _ _ _____ _ _ _____ _ _ ____  
 72
    65
 73
     6
 40
31.000000
 49
25.000000
 49
-1.500000
 49
1.000000
 49
-1.000000
 49
1.000000
 49
-1.500000
  0
LTYPE
  2
PHANTOM2
 70
    64
  3
_____ _ _ _____ _ _ _____ _ _ _____ _ _ ____  
 72
    65
 73
     6
 40
36.000000
 49
27.000000
 49
-1.500000
 49
2.500000
 49
-1.000000
 49
2.500000
 49
-1.500000
  0
LTYPE
  2
PHANTOM3
 70
    64
  3
_____ _ _ _____ _ _ _____ _ _ _____ _ _ ____  
 72
    65
 73
     6
 40
78.000000
 49
64.000000
 49
-2.000000
 49
4.000000
 49
-2.000000
 49
4.000000
 49
-2.000000
  0
LTYPE
  2
CENTER1
 70
    64
  3
____ _ ____ _ ____ _ ____ _ ____ _ ____ _ ____
 72
    65
 73
     4
 40
19.000000
 49
14.000000
 49
-1.000000
 49
3.000000
 49
-1.000000
  0
LTYPE
  2
CENTER2
 70
    64
  3
____ _ ____ _ ____ _ ____ _ ____ _ ____ _ ____
 72
    65
 73
     4
 40
28.500000
 49
25.000000
 49
-1.000000
 49
1.500000
 49
-1.000000
  0
LTYPE
  2
CENTER3
 70
    64
  3
____ _ ____ _ ____ _ ____ _ ____ _ ____ _ ____
 72
    65
 73
     4
 40
31.500000
 49
27.000000
 49
-1.000000
 49
2.500000
 49
-1.000000
  0
LTYPE
  2
CENTER4
 70
    64
  3
____ _ ____ _ ____ _ ____ _ ____ _ ____ _ ____
 72
    65
 73
     4
 40
50.000000
 49
45.000000
 49
-1.000000
 49
3.000000
 49
-1.000000
  0
LTYPE
  2
CENTER5
 70
    64
  3
____ _ ____ _ ____ _ ____ _ ____ _ ____ _ ____
 72
    65
 73
     4
 40
100.000000
 49
92.000000
 49
-2.000000
 49
4.000000
 49
-2.000000
  0
LTYPE
  2
SBK1
 70
    64
  3
______ _ _ _ ______ _ _ _ ______ _ _ _ _____  
 72
    65
 73
     8
 40
60.500000
 49
45.000000
 49
-2.000000
 49
2.500000
 49
-2.000000
 49
2.500000
 49
-2.000000
 49
2.500000
 49
-2.000000
  0
LTYPE
  2
SBK2
 70
    64
  3
______ _ _ _ ______ _ _ _ ______ _ _ _ _____  
 72
    65
 73
     8
 40
84.000000
 49
64.000000
 49
-2.000000
 49
4.000000
 49
-2.000000
 49
4.000000
 49
-2.000000
 49
4.000000
 49
-2.000000
  0
LTYPE
  2
STCH
 70
    64
  3
__ __ __ __ __ __ __ __ __ __ __ __ __ __ __
 72
    65
 73
     2
 40
3.000000
 49
1.000000
 49
-2.000000
  0
LTYPE
  2
MTCH
 70
    64
  3
_____ _ _ _____ _ _ _____ _ _ _____ _ _ ____  
 72
    65
 73
     6
 40
80.000000
 49
66.000000
 49
-2.000000
 49
4.000000
 49
-2.000000
 49
4.000000
 49
-2.000000
  0
ENDTAB
  0
TABLE
  2
LAYER
 70
     1
  0
LAYER
  2
0
 70
     0
 62
     7
  6
CONTINUOUS
  0
ENDTAB
  0
TABLE
  2
STYLE
 70
     1
  0
STYLE
  2
STANDARD
 70
     0
 40
0.000000
 41
1.000000
 50
0.000000
 71
     0
 42
0.200000
  3
txt
  4
BIGFONT
  0
ENDTAB
  0
TABLE
  2
VIEW
 70
     0
  0
ENDTAB
  0
ENDSEC
  0
SECTION
  2
BLOCKS
  0
ENDSEC
  0
SECTION
  2
ENTITIES
  0
POINT
  8
0
 10
45.000000
 20
250.000046
  0
POINT
  8
0
 10
54.000000
 20
250.000046
  0
POINT
  8
0
 10
115.000000
 20
250.000046
  0
POINT
  8
0
 10
125.000000
 20
250.000046
  0
POINT
  8
0
 10
219.831482
 20
250.000046
  0
POINT
  8
0
 10
229.831482
 20
250.000046
  0
POINT
  8
0
 10
291.831482
 20
250.000046
  0
POINT
  8
0
 10
304.131470
 20
250.000046
  0
POINT
  8
0
 10
389.662964
 20
250.000031
  0
POINT
  8
0
 10
408.662964
 20
250.000031
  0
POINT
  8
0
 10
474.662964
 20
250.000046
  0
POINT
  8
0
 10
489.562958
 20
250.000046
  0
POINT
  8
0
 10
64.999878
 20
79.999931
  0
POINT
  8
0
 10
83.999878
 20
79.999931
  0
POINT
  8
0
 10
179.000000
 20
80.000000
  0
POINT
  8
0
 10
199.500000
 20
80.000000
  0
POINT
  8
0
 10
322.247253
 20
79.999969
  0
POINT
  8
0
 10
341.247253
 20
79.999969
  0
POINT
  8
0
 10
438.247223
 20
80.000000
  0
POINT
  8
0
 10
463.747223
 20
80.000000
  0
LINE
  8
0
 62
     3
 10
0.000000
 20
0.000000
 11
0.000000
 21
360.000092
  0
LINE
  8
0
 62
     3
 10
524.494446
 20
360.000092
 11
524.494446
 21
0.000000
  0
LINE
  8
0
 62
     3
 10
0.000000
 20
0.000000
 11
524.494446
 21
0.000000
  0
LINE
  8
0
 62
     3
 10
0.000000
 20
360.000092
 11
524.494446
 21
360.000092
  0
LINE
  8
0
 62
     3
 10
0.000000
 20
339.775330
 11
107.865173
 21
339.775330
  0
LINE
  8
0
 62
     3
 10
107.865173
 20
339.775330
 11
107.865173
 21
360.000092
  0
LINE
  8
0
 62
     3
 10
416.629272
 20
20.224701
 11
524.494446
 21
20.224701
  0
LINE
  8
0
 62
     3
 10
416.629272
 20
339.775330
 11
524.494446
 21
339.775330
  0
LINE
  8
0
 62
     3
 10
416.629272
 20
360.000092
 11
416.629272
 21
339.775330
  0
LINE
  8
0
 62
     3
 10
416.629272
 20
20.224701
 11
416.629272
 21
0.000000
  0
LINE
  8
0
 10
0.000000
 20
180.000046
 11
524.494446
 21
180.000046
  0
LINE
  8
0
 10
262.247223
 20
0.000000
 11
262.247223
 21
180.000046
  0
LINE
  8
0
 10
174.831482
 20
180.000046
 11
174.831482
 21
360.000092
  0
LINE
  8
0
 10
349.662964
 20
180.000046
 11
349.662964
 21
360.000092
  0
LINE
  8
0
 10
53.000000
 20
247.250046
 11
54.000000
 21
247.250046
  0
LINE
  8
0
 10
53.000000
 20
252.750046
 11
54.000000
 21
252.750046
  0
LINE
  8
0
 10
45.000000
 20
240.000046
 11
45.000000
 21
260.000061
  0
LINE
  8
0
 10
53.000000
 20
240.000046
 11
53.000000
 21
260.000061
  0
LINE
  8
0
 10
45.000000
 20
240.000046
 11
53.000000
 21
240.000046
  0
LINE
  8
0
 10
45.000000
 20
260.000061
 11
53.000000
 21
260.000061
  0
LINE
  8
0
 10
54.000000
 20
247.250046
 11
54.000000
 21
252.750046
  0
LINE
  8
0
  6
CENTER
 10
42.000000
 20
250.000046
 11
57.000000
 21
250.000046
  0
LINE
  8
0
  6
CENTER
 10
49.000000
 20
260.000061
 11
49.000000
 21
251.000046
  0
LINE
  8
0
  6
CENTER
 10
44.500000
 20
255.500046
 11
53.500000
 21
255.500046
  0
LINE
  8
0
  6
CENTER
 10
49.000000
 20
240.000046
 11
49.000000
 21
249.000046
  0
LINE
  8
0
  6
CENTER
 10
44.500000
 20
244.500046
 11
53.500000
 21
244.500046
  0
LINE
  8
0
 10
119.250000
 20
249.278366
 11
119.250000
 21
250.721741
  0
LINE
  8
0
 10
105.000000
 20
260.000061
 11
105.000000
 21
240.000046
  0
LINE
  8
0
 10
105.000000
 20
260.000061
 11
115.000000
 21
260.000061
  0
LINE
  8
0
 10
105.000000
 20
240.000046
 11
115.000000
 21
240.000046
  0
LINE
  8
0
 10
108.250008
 20
249.278381
 11
109.500023
 21
248.556686
  0
LINE
  8
0
 10
109.500046
 20
248.556686
 11
110.750046
 21
249.278381
  0
LINE
  8
0
 10
110.750000
 20
249.278366
 11
110.750000
 21
250.721741
  0
LINE
  8
0
 10
110.750038
 20
250.721741
 11
109.500023
 21
251.443436
  0
LINE
  8
0
 10
109.499977
 20
251.443558
 11
108.249962
 21
250.721863
  0
LINE
  8
0
 10
108.250000
 20
250.721756
 11
108.250000
 21
249.278366
  0
LINE
  8
0
 10
121.750015
 20
249.278351
 11
120.500000
 21
248.556656
  0
LINE
  8
0
 10
121.750000
 20
250.721756
 11
121.750000
 21
249.278366
  0
LINE
  8
0
 10
120.499992
 20
251.443436
 11
121.749969
 21
250.721756
  0
LINE
  8
0
 10
119.249977
 20
250.721741
 11
120.500000
 21
251.443451
  0
LINE
  8
0
 10
120.499992
 20
248.556671
 11
119.249985
 21
249.278366
  0
LINE
  8
0
  6
CENTER
 10
115.000000
 20
263.000061
 11
115.000000
 21
237.000046
  0
LINE
  8
0
  6
CENTER
 10
109.500000
 20
254.000046
 11
109.500000
 21
246.000046
  0
LINE
  8
0
  6
CENTER
 10
120.500000
 20
254.000046
 11
120.500000
 21
246.000046
  0
LINE
  8
0
  6
CENTER
 10
102.000000
 20
250.000046
 11
128.000000
 21
250.000046
  0
LINE
  8
0
 10
227.831482
 20
253.500046
 11
229.831482
 21
253.500046
  0
LINE
  8
0
 10
227.831482
 20
246.500046
 11
229.831482
 21
246.500046
  0
LINE
  8
0
 10
219.831482
 20
237.700043
 11
219.831482
 21
262.300049
  0
LINE
  8
0
 10
227.831482
 20
237.700043
 11
227.831482
 21
262.300049
  0
LINE
  8
0
 10
219.831482
 20
237.700043
 11
227.831482
 21
237.700043
  0
LINE
  8
0
 10
219.831482
 20
262.300049
 11
227.831482
 21
262.300049
  0
LINE
  8
0
 10
229.831482
 20
246.500046
 11
229.831482
 21
253.500046
  0
LINE
  8
0
  6
CENTER
 10
216.831482
 20
250.000046
 11
232.831482
 21
250.000046
  0
LINE
  8
0
  6
CENTER
 10
223.831482
 20
261.000061
 11
223.831482
 21
252.000046
  0
LINE
  8
0
  6
CENTER
 10
219.331482
 20
256.500061
 11
228.331482
 21
256.500061
  0
LINE
  8
0
  6
CENTER
 10
223.831482
 20
239.000046
 11
223.831482
 21
248.000046
  0
LINE
  8
0
  6
CENTER
 10
219.331482
 20
243.500046
 11
228.331482
 21
243.500046
  0
LINE
  8
0
 10
296.831451
 20
250.866119
 11
298.331451
 21
251.732147
  0
LINE
  8
0
 10
279.531494
 20
262.300049
 11
279.531494
 21
237.700043
  0
LINE
  8
0
 10
291.831482
 20
262.300049
 11
279.531494
 21
262.300049
  0
LINE
  8
0
 10
291.831482
 20
237.700043
 11
279.531494
 21
237.700043
  0
LINE
  8
0
 10
283.831482
 20
249.134018
 11
285.331482
 21
248.267990
  0
LINE
  8
0
 10
285.331512
 20
248.268036
 11
286.831512
 21
249.134064
  0
LINE
  8
0
 10
286.831482
 20
249.134018
 11
286.831482
 21
250.866074
  0
LINE
  8
0
 10
286.831482
 20
250.866104
 11
285.331451
 21
251.732132
  0
LINE
  8
0
 10
285.331512
 20
251.732178
 11
283.831512
 21
250.866150
  0
LINE
  8
0
 10
283.831482
 20
250.866074
 11
283.831482
 21
249.134018
  0
LINE
  8
0
 10
296.831482
 20
249.134018
 11
296.831482
 21
250.866074
  0
LINE
  8
0
 10
298.331573
 20
248.268143
 11
296.831573
 21
249.134171
  0
LINE
  8
0
 10
299.831512
 20
249.134033
 11
298.331512
 21
248.268005
  0
LINE
  8
0
 10
299.831482
 20
250.866074
 11
299.831482
 21
249.134018
  0
LINE
  8
0
 10
298.331482
 20
251.732086
 11
299.831482
 21
250.866058
  0
LINE
  8
0
  6
CENTER
 10
285.331482
 20
255.500046
 11
285.331482
 21
244.500046
  0
LINE
  8
0
  6
CENTER
 10
291.831482
 20
265.300049
 11
291.831482
 21
234.700043
  0
LINE
  8
0
  6
CENTER
 10
298.331482
 20
255.500046
 11
298.331482
 21
244.500046
  0
LINE
  8
0
  6
CENTER
 10
276.531494
 20
250.000046
 11
307.131470
 21
250.000046
  0
LINE
  8
0
 10
389.662964
 20
235.100037
 11
389.662964
 21
264.900024
  0
LINE
  8
0
 10
389.662964
 20
264.900024
 11
405.662964
 21
264.900024
  0
LINE
  8
0
 10
389.662964
 20
235.100037
 11
405.662964
 21
235.100037
  0
LINE
  8
0
 10
405.662964
 20
253.500031
 11
408.662964
 21
253.500031
  0
LINE
  8
0
 10
405.662964
 20
246.500031
 11
408.662964
 21
246.500031
  0
LINE
  8
0
 10
405.662964
 20
235.100037
 11
405.662964
 21
264.900024
  0
LINE
  8
0
 10
408.662964
 20
246.500031
 11
408.662964
 21
253.500031
  0
LINE
  8
0
  6
CENTER
 10
386.662964
 20
250.000031
 11
411.662964
 21
250.000031
  0
LINE
  8
0
  6
CENTER
 10
397.662964
 20
264.500031
 11
397.662964
 21
250.500031
  0
LINE
  8
0
  6
CENTER
 10
390.662964
 20
257.500031
 11
404.662964
 21
257.500031
  0
LINE
  8
0
  6
CENTER
 10
397.662964
 20
235.500031
 11
397.662964
 21
249.500031
  0
LINE
  8
0
  6
CENTER
 10
390.662964
 20
242.500031
 11
404.662964
 21
242.500031
  0
LINE
  8
0
 10
480.662964
 20
249.134033
 11
480.662964
 21
250.866074
  0
LINE
  8
0
 10
480.662964
 20
250.866058
 11
482.162964
 21
251.732086
  0
LINE
  8
0
 10
459.762970
 20
264.900024
 11
459.762970
 21
235.100037
  0
LINE
  8
0
 10
474.662964
 20
264.900055
 11
459.762970
 21
264.900055
  0
LINE
  8
0
 10
474.662964
 20
235.100037
 11
459.763000
 21
235.100037
  0
LINE
  8
0
 10
465.662964
 20
249.134064
 11
467.162964
 21
248.268036
  0
LINE
  8
0
 10
467.163025
 20
248.268036
 11
468.663025
 21
249.134064
  0
LINE
  8
0
 10
468.662964
 20
249.134033
 11
468.662964
 21
250.866074
  0
LINE
  8
0
 10
468.662994
 20
250.866104
 11
467.163025
 21
251.732117
  0
LINE
  8
0
 10
467.163055
 20
251.732101
 11
465.663055
 21
250.866074
  0
LINE
  8
0
 10
465.662964
 20
250.866058
 11
465.662964
 21
249.134003
  0
LINE
  8
0
 10
482.162903
 20
248.267929
 11
480.662903
 21
249.133957
  0
LINE
  8
0
 10
483.663086
 20
249.134018
 11
482.163086
 21
248.267990
  0
LINE
  8
0
 10
483.662964
 20
250.866089
 11
483.662964
 21
249.134033
  0
LINE
  8
0
 10
482.163116
 20
251.732285
 11
483.663086
 21
250.866272
  0
LINE
  8
0
  6
CENTER
 10
456.762970
 20
250.000046
 11
492.562958
 21
250.000046
  0
LINE
  8
0
  6
CENTER
 10
467.162964
 20
255.500031
 11
467.162964
 21
244.500031
  0
LINE
  8
0
  6
CENTER
 10
474.662964
 20
267.900055
 11
474.662964
 21
232.100037
  0
LINE
  8
0
  6
CENTER
 10
482.162964
 20
255.500061
 11
482.162964
 21
244.500061
  0
LINE
  8
0
 10
64.999878
 20
59.499931
 11
64.999878
 21
100.499931
  0
LINE
  8
0
 10
80.999878
 20
59.499931
 11
80.999878
 21
100.499931
  0
LINE
  8
0
 10
83.999878
 20
75.749931
 11
83.999878
 21
84.249931
  0
LINE
  8
0
 10
64.999878
 20
100.499931
 11
80.999878
 21
100.499931
  0
LINE
  8
0
 10
80.999878
 20
84.249931
 11
83.999878
 21
84.249931
  0
LINE
  8
0
 10
80.999878
 20
75.749931
 11
83.999878
 21
75.749931
  0
LINE
  8
0
 10
64.999878
 20
59.499931
 11
80.999878
 21
59.499931
  0
LINE
  8
0
  6
CENTER
 10
61.999878
 20
79.999931
 11
86.999878
 21
79.999931
  0
LINE
  8
0
  6
CENTER
 10
72.999878
 20
96.999931
 11
72.999878
 21
82.999931
  0
LINE
  8
0
  6
CENTER
 10
65.999878
 20
89.999931
 11
79.999878
 21
89.999931
  0
LINE
  8
0
  6
CENTER
 10
72.999878
 20
62.999931
 11
72.999878
 21
76.999931
  0
LINE
  8
0
  6
CENTER
 10
65.999878
 20
69.999931
 11
79.999878
 21
69.999931
  0
LINE
  8
0
 10
186.999985
 20
78.845276
 11
186.999985
 21
81.154678
  0
LINE
  8
0
 10
189.000031
 20
77.690620
 11
187.000031
 21
78.845329
  0
LINE
  8
0
 10
158.499954
 20
59.500000
 11
178.999954
 21
59.500000
  0
LINE
  8
0
 10
158.500046
 20
100.500000
 11
179.000046
 21
100.500000
  0
LINE
  8
0
 10
158.500000
 20
100.500046
 11
158.500000
 21
59.500046
  0
LINE
  8
0
 10
166.999985
 20
78.845314
 11
169.000000
 21
77.690605
  0
LINE
  8
0
 10
168.999985
 20
77.690605
 11
170.999985
 21
78.845299
  0
LINE
  8
0
 10
171.000015
 20
78.845306
 11
171.000015
 21
81.154709
  0
LINE
  8
0
 10
171.000000
 20
81.154724
 11
169.000000
 21
82.309425
  0
LINE
  8
0
 10
169.000046
 20
82.309410
 11
167.000031
 21
81.154701
  0
LINE
  8
0
 10
167.000015
 20
81.154739
 11
167.000015
 21
78.845322
  0
LINE
  8
0
 10
186.999985
 20
81.154732
 11
188.999985
 21
82.309425
  0
LINE
  8
0
 10
189.000015
 20
82.309395
 11
191.000031
 21
81.154678
  0
LINE
  8
0
 10
190.999985
 20
81.154678
 11
190.999985
 21
78.845261
  0
LINE
  8
0
 10
190.999985
 20
78.845306
 11
188.999969
 21
77.690598
  0
LINE
  8
0
  6
CENTER
 10
155.500000
 20
80.000000
 11
202.500000
 21
80.000000
  0
LINE
  8
0
  6
CENTER
 10
169.000000
 20
87.000023
 11
169.000000
 21
73.000023
  0
LINE
  8
0
  6
CENTER
 10
179.000000
 20
103.500000
 11
179.000000
 21
56.500000
  0
LINE
  8
0
  6
CENTER
 10
189.000000
 20
86.999977
 11
189.000000
 21
72.999977
  0
LINE
  8
0
 10
322.247253
 20
54.499969
 11
322.247253
 21
105.499969
  0
LINE
  8
0
 10
338.247253
 20
54.499969
 11
338.247253
 21
105.499969
  0
LINE
  8
0
 10
341.247253
 20
75.749969
 11
341.247253
 21
84.249969
  0
LINE
  8
0
 10
322.247253
 20
105.499969
 11
338.247253
 21
105.499969
  0
LINE
  8
0
 10
322.247253
 20
54.499969
 11
338.247253
 21
54.499969
  0
LINE
  8
0
 10
338.247253
 20
84.249969
 11
341.247253
 21
84.249969
  0
LINE
  8
0
 10
338.247253
 20
75.749969
 11
341.247253
 21
75.749969
  0
LINE
  8
0
  6
CENTER
 10
319.247253
 20
79.999969
 11
344.247253
 21
79.999969
  0
LINE
  8
0
  6
CENTER
 10
330.247253
 20
99.999969
 11
330.247253
 21
85.999969
  0
LINE
  8
0
  6
CENTER
 10
323.247253
 20
92.999969
 11
337.247253
 21
92.999969
  0
LINE
  8
0
  6
CENTER
 10
330.247253
 20
59.999969
 11
330.247253
 21
73.999969
  0
LINE
  8
0
  6
CENTER
 10
323.247253
 20
66.999969
 11
337.247253
 21
66.999969
  0
LINE
  8
0
 10
451.247223
 20
82.309380
 11
453.247223
 21
81.154686
  0
LINE
  8
0
 10
449.247284
 20
81.154686
 11
451.247253
 21
82.309380
  0
LINE
  8
0
 10
412.747253
 20
105.500000
 11
438.247253
 21
105.500000
  0
LINE
  8
0
 10
412.747223
 20
54.500000
 11
438.247223
 21
54.500000
  0
LINE
  8
0
 10
412.747223
 20
105.500008
 11
412.747223
 21
54.500008
  0
LINE
  8
0
 10
423.247223
 20
78.845306
 11
425.247223
 21
77.690613
  0
LINE
  8
0
 10
425.247253
 20
77.690567
 11
427.247253
 21
78.845261
  0
LINE
  8
0
 10
427.247223
 20
78.845284
 11
427.247223
 21
81.154686
  0
LINE
  8
0
 10
427.247223
 20
81.154716
 11
425.247223
 21
82.309410
  0
LINE
  8
0
 10
425.247314
 20
82.309311
 11
423.247314
 21
81.154617
  0
LINE
  8
0
 10
423.247253
 20
81.154716
 11
423.247253
 21
78.845329
  0
LINE
  8
0
 10
451.247162
 20
77.690590
 11
449.247192
 21
78.845284
  0
LINE
  8
0
 10
453.247223
 20
78.845329
 11
451.247223
 21
77.690643
  0
LINE
  8
0
 10
453.247192
 20
81.154701
 11
453.247192
 21
78.845314
  0
LINE
  8
0
 10
449.247223
 20
78.845284
 11
449.247223
 21
81.154686
  0
LINE
  8
0
  6
CENTER
 10
409.747223
 20
80.000000
 11
466.747223
 21
80.000000
  0
LINE
  8
0
  6
CENTER
 10
425.247223
 20
87.000008
 11
425.247223
 21
73.000008
  0
LINE
  8
0
  6
CENTER
 10
438.247223
 20
108.500000
 11
438.247223
 21
51.500000
  0
LINE
  8
0
  6
CENTER
 10
451.247223
 20
86.999992
 11
451.247223
 21
72.999992
  0
CIRCLE
  8
0
 10
49.000000
 20
244.500046
 40
2.500000
  0
CIRCLE
  8
0
 10
49.000000
 20
244.500046
 40
2.100000
  0
CIRCLE
  8
0
 10
49.000000
 20
255.500046
 40
2.100000
  0
CIRCLE
  8
0
 10
49.000000
 20
255.500046
 40
2.500000
  0
ARC
  8
0
 10
115.000000
 20
250.000046
 40
10.000000
 50
270.000000
 51
90.000000
  0
CIRCLE
  8
0
 10
120.500000
 20
250.000046
 40
3.000000
  0
CIRCLE
  8
0
 10
120.500000
 20
250.000046
 40
2.750000
  0
CIRCLE
  8
0
 10
109.500000
 20
250.000046
 40
3.000000
  0
CIRCLE
  8
0
 10
109.500000
 20
250.000046
 40
2.750000
  0
CIRCLE
  8
0
 10
223.831482
 20
243.500046
 40
2.500000
  0
CIRCLE
  8
0
 10
223.831482
 20
243.500046
 40
2.100000
  0
CIRCLE
  8
0
 10
223.831482
 20
256.500061
 40
2.100000
  0
CIRCLE
  8
0
 10
223.831482
 20
256.500061
 40
2.500000
  0
ARC
  8
0
 10
291.831482
 20
250.000046
 40
12.300003
 50
270.000000
 51
90.000000
  0
CIRCLE
  8
0
 10
298.331482
 20
250.000046
 40
3.500000
  0
CIRCLE
  8
0
 10
298.331482
 20
250.000046
 40
3.800000
  0
CIRCLE
  8
0
 10
285.331482
 20
250.000046
 40
3.800000
  0
CIRCLE
  8
0
 10
285.331482
 20
250.000046
 40
3.500000
  0
CIRCLE
  8
0
 10
397.662964
 20
257.500031
 40
4.283000
  0
CIRCLE
  8
0
 10
397.662964
 20
257.500031
 40
4.864000
  0
CIRCLE
  8
0
 10
397.662964
 20
242.500031
 40
4.864000
  0
CIRCLE
  8
0
 10
397.662964
 20
242.500031
 40
4.283000
  0
CIRCLE
  8
0
 10
482.162964
 20
250.000061
 40
3.800000
  0
CIRCLE
  8
0
 10
482.162964
 20
250.000061
 40
3.500000
  0
CIRCLE
  8
0
 10
467.162964
 20
250.000031
 40
3.800000
  0
CIRCLE
  8
0
 10
467.162964
 20
250.000031
 40
3.500000
  0
ARC
  8
0
 10
474.662964
 20
250.000046
 40
14.899994
 50
270.000000
 51
90.000000
  0
CIRCLE
  8
0
 10
72.999878
 20
89.999931
 40
4.283000
  0
CIRCLE
  8
0
 10
72.999878
 20
89.999931
 40
4.862500
  0
CIRCLE
  8
0
 10
72.999878
 20
69.999931
 40
4.862500
  0
CIRCLE
  8
0
 10
72.999878
 20
69.999931
 40
4.283000
  0
CIRCLE
  8
0
 10
189.000000
 20
79.999977
 40
4.750000
  0
CIRCLE
  8
0
 10
189.000000
 20
79.999977
 40
4.250000
  0
CIRCLE
  8
0
 10
169.000000
 20
80.000023
 40
4.250000
  0
CIRCLE
  8
0
 10
169.000000
 20
80.000023
 40
4.750000
  0
ARC
  8
0
 10
179.000000
 20
80.000000
 40
20.500000
 50
270.000000
 51
90.000000
  0
CIRCLE
  8
0
 10
330.247253
 20
92.999969
 40
4.283000
  0
CIRCLE
  8
0
 10
330.247253
 20
92.999969
 40
4.864000
  0
CIRCLE
  8
0
 10
330.247253
 20
66.999969
 40
4.864000
  0
CIRCLE
  8
0
 10
330.247253
 20
66.999969
 40
4.283000
  0
CIRCLE
  8
0
 10
451.247223
 20
79.999992
 40
4.750000
  0
CIRCLE
  8
0
 10
451.247223
 20
79.999992
 40
4.250000
  0
CIRCLE
  8
0
 10
425.247223
 20
80.000008
 40
4.250000
  0
CIRCLE
  8
0
 10
425.247223
 20
80.000008
 40
4.750000
  0
ARC
  8
0
 10
438.247223
 20
80.000000
 40
25.500000
 50
270.000000
 51
90.000000
  0
TEXT
  8
0
 10
422.460297
 20
345.487762
 40
6.000000
  1
DATE : JAN ,1992
 50
0.000000
 41
1.052631
 51
0.000000
  7
STANDARD
  0
TEXT
  8
0
 10
10.750001
 20
319.475342
 40
7.000000
  1
BORE : 16
 50
0.000000
 41
1.052632
 51
0.000000
  7
STANDARD
  0
TEXT
  8
0
 10
185.581482
 20
319.475342
 40
7.000000
  1
BORE : 20
 50
0.000000
 41
1.052632
 51
0.000000
  7
STANDARD
  0
TEXT
  8
0
 10
360.412964
 20
319.475342
 40
7.000000
  1
BORE : 25
 50
0.000000
 41
1.052632
 51
0.000000
  7
STANDARD
  0
TEXT
  8
0
 10
272.997223
 20
159.700043
 40
7.000000
  1
BORE : 40
 50
0.000000
 41
1.052632
 51
0.000000
  7
STANDARD
  0
TEXT
  8
0
 10
10.750001
 20
159.700043
 40
7.000000
  1
BORE : 32
 50
0.000000
 41
1.052632
 51
0.000000
  7
STANDARD
  0
TEXT
  8
0
 10
2.803290
 20
344.587769
 40
7.000000
  1
TWIN PORT ADAPTER,-RA
 50
0.000000
 41
0.725953
 51
0.000000
  7
STANDARD
  0
TEXT
  8
0
 10
427.811859
 20
4.812350
 40
7.000000
  1
KOGANEI,CORP
 50
0.000000
 41
1.052632
 51
0.000000
  7
STANDARD
  0
ENDSEC
  0
EOF
