  0
SECTION
  2
HEADER
  0
ENDSEC
  0
SECTION
  2
TABLES
  0
TABLE
  2
LTYPE
 70
     4
  0
LTYPE
  2
CONTINUOUS
 70
    64
  3
Solid line
 72
    65
 73
     0
 40
0.000000
  0
LTYPE
  2
DASHED
 70
    64
  3
__ __ __ __ __ __ __ __ __ __ __ __ __ __ __
 72
    65
 73
     2
 40
3.500000
 49
2.000000
 49
-1.500000
  0
LTYPE
  2
CENTER
 70
    64
  3
____ _ ____ _ ____ _ ____ _ ____ _ ____ _ ____
 72
    65
 73
     4
 40
17.500000
 49
13.000000
 49
-1.500000
 49
1.500000
 49
-1.500000
  0
LTYPE
  2
PHANTOM
 70
    64
  3
_____ _ _ _____ _ _ _____ _ _ _____ _ _ ____  
 72
    65
 73
     6
 40
15.500000
 49
8.000000
 49
-1.500000
 49
1.500000
 49
-1.500000
 49
1.500000
 49
-1.500000
  0
LTYPE
  2
DASHED1
 70
    64
  3
__ __ __ __ __ __ __ __ __ __ __ __ __ __ __
 72
    65
 73
     2
 40
1.500000
 49
1.000000
 49
-0.500000
  0
LTYPE
  2
DASHED2
 70
    64
  3
__ __ __ __ __ __ __ __ __ __ __ __ __ __ __
 72
    65
 73
     2
 40
3.500000
 49
2.500000
 49
-1.000000
  0
LTYPE
  2
DASHED3
 70
    64
  3
__ __ __ __ __ __ __ __ __ __ __ __ __ __ __
 72
    65
 73
     2
 40
6.000000
 49
4.000000
 49
-2.000000
  0
LTYPE
  2
DASHED4
 70
    64
  3
__ __ __ __ __ __ __ __ __ __ __ __ __ __ __
 72
    65
 73
     2
 40
12.000000
 49
10.000000
 49
-2.000000
  0
LTYPE
  2
DASHED5
 70
    64
  3
__ __ __ __ __ __ __ __ __ __ __ __ __ __ __
 72
    65
 73
     2
 40
17.000000
 49
15.000000
 49
-2.000000
  0
LTYPE
  2
DASHED6
 70
    64
  3
__ __ __ __ __ __ __ __ __ __ __ __ __ __ __
 72
    65
 73
     2
 40
29.000000
 49
27.000000
 49
-2.000000
  0
LTYPE
  2
PHANTOM1
 70
    64
  3
_____ _ _ _____ _ _ _____ _ _ _____ _ _ ____  
 72
    65
 73
     6
 40
31.000000
 49
25.000000
 49
-1.500000
 49
1.000000
 49
-1.000000
 49
1.000000
 49
-1.500000
  0
LTYPE
  2
PHANTOM2
 70
    64
  3
_____ _ _ _____ _ _ _____ _ _ _____ _ _ ____  
 72
    65
 73
     6
 40
36.000000
 49
27.000000
 49
-1.500000
 49
2.500000
 49
-1.000000
 49
2.500000
 49
-1.500000
  0
LTYPE
  2
PHANTOM3
 70
    64
  3
_____ _ _ _____ _ _ _____ _ _ _____ _ _ ____  
 72
    65
 73
     6
 40
78.000000
 49
64.000000
 49
-2.000000
 49
4.000000
 49
-2.000000
 49
4.000000
 49
-2.000000
  0
LTYPE
  2
CENTER1
 70
    64
  3
____ _ ____ _ ____ _ ____ _ ____ _ ____ _ ____
 72
    65
 73
     4
 40
19.000000
 49
14.000000
 49
-1.000000
 49
3.000000
 49
-1.000000
  0
LTYPE
  2
CENTER2
 70
    64
  3
____ _ ____ _ ____ _ ____ _ ____ _ ____ _ ____
 72
    65
 73
     4
 40
28.500000
 49
25.000000
 49
-1.000000
 49
1.500000
 49
-1.000000
  0
LTYPE
  2
CENTER3
 70
    64
  3
____ _ ____ _ ____ _ ____ _ ____ _ ____ _ ____
 72
    65
 73
     4
 40
31.500000
 49
27.000000
 49
-1.000000
 49
2.500000
 49
-1.000000
  0
LTYPE
  2
CENTER4
 70
    64
  3
____ _ ____ _ ____ _ ____ _ ____ _ ____ _ ____
 72
    65
 73
     4
 40
50.000000
 49
45.000000
 49
-1.000000
 49
3.000000
 49
-1.000000
  0
LTYPE
  2
CENTER5
 70
    64
  3
____ _ ____ _ ____ _ ____ _ ____ _ ____ _ ____
 72
    65
 73
     4
 40
100.000000
 49
92.000000
 49
-2.000000
 49
4.000000
 49
-2.000000
  0
LTYPE
  2
SBK1
 70
    64
  3
______ _ _ _ ______ _ _ _ ______ _ _ _ _____  
 72
    65
 73
     8
 40
60.500000
 49
45.000000
 49
-2.000000
 49
2.500000
 49
-2.000000
 49
2.500000
 49
-2.000000
 49
2.500000
 49
-2.000000
  0
LTYPE
  2
SBK2
 70
    64
  3
______ _ _ _ ______ _ _ _ ______ _ _ _ _____  
 72
    65
 73
     8
 40
84.000000
 49
64.000000
 49
-2.000000
 49
4.000000
 49
-2.000000
 49
4.000000
 49
-2.000000
 49
4.000000
 49
-2.000000
  0
LTYPE
  2
STCH
 70
    64
  3
__ __ __ __ __ __ __ __ __ __ __ __ __ __ __
 72
    65
 73
     2
 40
3.000000
 49
1.000000
 49
-2.000000
  0
LTYPE
  2
MTCH
 70
    64
  3
_____ _ _ _____ _ _ _____ _ _ _____ _ _ ____  
 72
    65
 73
     6
 40
80.000000
 49
66.000000
 49
-2.000000
 49
4.000000
 49
-2.000000
 49
4.000000
 49
-2.000000
  0
ENDTAB
  0
TABLE
  2
LAYER
 70
     1
  0
LAYER
  2
0
 70
     0
 62
     7
  6
CONTINUOUS
  0
ENDTAB
  0
TABLE
  2
STYLE
 70
     1
  0
STYLE
  2
STANDARD
 70
     0
 40
0.000000
 41
1.000000
 50
0.000000
 71
     0
 42
0.200000
  3
txt
  4
BIGFONT
  0
ENDTAB
  0
TABLE
  2
VIEW
 70
     0
  0
ENDTAB
  0
ENDSEC
  0
SECTION
  2
BLOCKS
  0
ENDSEC
  0
SECTION
  2
ENTITIES
  0
POINT
  8
0
 10
125.000015
 20
249.775299
  0
POINT
  8
0
 10
145.000015
 20
249.775299
  0
POINT
  8
0
 10
204.150055
 20
249.775330
  0
POINT
  8
0
 10
213.150055
 20
249.775330
  0
POINT
  8
0
 10
273.150055
 20
249.775330
  0
POINT
  8
0
 10
282.650055
 20
249.775330
  0
POINT
  8
0
 10
361.300110
 20
249.775299
  0
POINT
  8
0
 10
381.300110
 20
249.775299
  0
POINT
  8
0
 10
115.000000
 20
85.000015
  0
POINT
  8
0
 10
140.000000
 20
85.000015
  0
POINT
  8
0
 10
204.819916
 20
85.000069
  0
POINT
  8
0
 10
214.819916
 20
85.000069
  0
POINT
  8
0
 10
274.819916
 20
85.000069
  0
POINT
  8
0
 10
285.819916
 20
85.000069
  0
POINT
  8
0
 10
374.639832
 20
85.000015
  0
POINT
  8
0
 10
399.639832
 20
85.000015
  0
LINE
  8
0
 62
     3
 10
0.000000
 20
0.000000
 11
0.000000
 21
360.000092
  0
LINE
  8
0
 62
     3
 10
524.494446
 20
360.000092
 11
524.494446
 21
0.000000
  0
LINE
  8
0
 62
     3
 10
0.000000
 20
0.000000
 11
524.494446
 21
0.000000
  0
LINE
  8
0
 62
     3
 10
0.000000
 20
360.000092
 11
524.494446
 21
360.000092
  0
LINE
  8
0
 62
     3
 10
0.000000
 20
339.775330
 11
107.865173
 21
339.775330
  0
LINE
  8
0
 62
     3
 10
107.865173
 20
339.775330
 11
107.865173
 21
360.000092
  0
LINE
  8
0
 62
     3
 10
416.629272
 20
20.224701
 11
524.494446
 21
20.224701
  0
LINE
  8
0
 62
     3
 10
416.629272
 20
339.775330
 11
524.494446
 21
339.775330
  0
LINE
  8
0
 62
     3
 10
416.629272
 20
360.000092
 11
416.629272
 21
339.775330
  0
LINE
  8
0
 62
     3
 10
416.629272
 20
20.224701
 11
416.629272
 21
0.000000
  0
LINE
  8
0
 10
0.000000
 20
180.000046
 11
524.494446
 21
180.000046
  0
LINE
  8
0
  6
CENTER
 10
102.000015
 20
249.775299
 11
148.000015
 21
249.775299
  0
LINE
  8
0
 10
105.000015
 20
224.775299
 11
145.000015
 21
224.775299
  0
LINE
  8
0
  6
CENTER
 10
125.000015
 20
272.775299
 11
125.000015
 21
221.775299
  0
LINE
  8
0
 10
105.000015
 20
249.775299
 11
105.000015
 21
224.775299
  0
LINE
  8
0
 10
145.000015
 20
249.775299
 11
145.000015
 21
224.775299
  0
LINE
  8
0
 10
105.000015
 20
232.775299
 11
145.000015
 21
232.775299
  0
LINE
  8
0
  6
CENTER
 10
111.000015
 20
234.775299
 11
111.000015
 21
222.775299
  0
LINE
  8
0
  6
DASHED
 10
114.250015
 20
232.775299
 11
114.250015
 21
224.775299
  0
LINE
  8
0
  6
DASHED
 10
107.750015
 20
232.775299
 11
107.750015
 21
224.775299
  0
LINE
  8
0
  6
DASHED
 10
135.750015
 20
232.775299
 11
135.750015
 21
224.775299
  0
LINE
  8
0
  6
CENTER
 10
139.000015
 20
234.775299
 11
139.000015
 21
222.775299
  0
LINE
  8
0
  6
DASHED
 10
142.250015
 20
232.775299
 11
142.250015
 21
224.775299
  0
LINE
  8
0
  6
CENTER
 10
109.000015
 20
239.775299
 11
121.000015
 21
239.775299
  0
LINE
  8
0
  6
CENTER
 10
115.000015
 20
245.775299
 11
115.000015
 21
233.775299
  0
LINE
  8
0
 10
113.000015
 20
238.620621
 11
115.000008
 21
237.465927
  0
LINE
  8
0
 10
115.000000
 20
237.465912
 11
117.000015
 21
238.620621
  0
LINE
  8
0
 10
117.000000
 20
238.620605
 11
117.000000
 21
240.930008
  0
LINE
  8
0
 10
117.000031
 20
240.930008
 11
115.000015
 21
242.084717
  0
LINE
  8
0
 10
114.999977
 20
242.084793
 11
112.999962
 21
240.930084
  0
LINE
  8
0
 10
113.000015
 20
240.929993
 11
113.000015
 21
238.620590
  0
LINE
  8
0
 10
115.000015
 20
244.775299
 11
105.000015
 21
244.775299
  0
LINE
  8
0
 10
120.000015
 20
239.775299
 11
120.000015
 21
234.775299
  0
LINE
  8
0
  6
CENTER
 10
135.000015
 20
245.775299
 11
135.000015
 21
233.775299
  0
LINE
  8
0
 10
135.000015
 20
244.775299
 11
145.000015
 21
244.775299
  0
LINE
  8
0
 10
130.000015
 20
239.775299
 11
130.000015
 21
234.775299
  0
LINE
  8
0
  6
CENTER
 10
141.000015
 20
239.775299
 11
129.000015
 21
239.775299
  0
LINE
  8
0
 10
133.000031
 20
238.620605
 11
133.000031
 21
240.930008
  0
LINE
  8
0
 10
133.000015
 20
240.930023
 11
135.000015
 21
242.084732
  0
LINE
  8
0
 10
135.000031
 20
242.084732
 11
137.000031
 21
240.930023
  0
LINE
  8
0
 10
137.000015
 20
240.929993
 11
137.000015
 21
238.620590
  0
LINE
  8
0
 10
137.000015
 20
238.620560
 11
135.000031
 21
237.465866
  0
LINE
  8
0
 10
135.000015
 20
237.465897
 11
133.000015
 21
238.620605
  0
LINE
  8
0
  6
CENTER
 10
115.000015
 20
253.775299
 11
115.000015
 21
265.775299
  0
LINE
  8
0
 10
115.000015
 20
254.775299
 11
105.635101
 21
254.775299
  0
LINE
  8
0
 10
120.000015
 20
259.775299
 11
120.000015
 21
269.140198
  0
LINE
  8
0
  6
CENTER
 10
109.000015
 20
259.775299
 11
121.000015
 21
259.775299
  0
LINE
  8
0
 10
117.000000
 20
260.929993
 11
117.000000
 21
258.620605
  0
LINE
  8
0
 10
117.000038
 20
258.620636
 11
115.000023
 21
257.465942
  0
LINE
  8
0
 10
114.999992
 20
257.465851
 11
112.999985
 21
258.620544
  0
LINE
  8
0
 10
113.000015
 20
258.620605
 11
113.000015
 21
260.929993
  0
LINE
  8
0
 10
113.000053
 20
260.929962
 11
115.000038
 21
262.084686
  0
LINE
  8
0
 10
115.000015
 20
262.084686
 11
117.000008
 21
260.929993
  0
LINE
  8
0
  6
CENTER
 10
135.000015
 20
253.775299
 11
135.000015
 21
265.775299
  0
LINE
  8
0
 10
135.000015
 20
254.775299
 11
144.364929
 21
254.775299
  0
LINE
  8
0
 10
130.000015
 20
259.775299
 11
130.000015
 21
269.140198
  0
LINE
  8
0
  6
CENTER
 10
141.000015
 20
259.775299
 11
129.000015
 21
259.775299
  0
LINE
  8
0
 10
133.000031
 20
260.929993
 11
133.000031
 21
258.620605
  0
LINE
  8
0
 10
133.000046
 20
258.620605
 11
135.000061
 21
257.465912
  0
LINE
  8
0
 10
135.000015
 20
257.465942
 11
137.000015
 21
258.620605
  0
LINE
  8
0
 10
137.000015
 20
258.620605
 11
137.000015
 21
260.929993
  0
LINE
  8
0
 10
136.999985
 20
260.930023
 11
134.999969
 21
262.084747
  0
LINE
  8
0
 10
135.000015
 20
262.084656
 11
133.000000
 21
260.929962
  0
LINE
  8
0
 10
135.473740
 20
254.775299
 11
135.473740
 21
244.775299
  0
LINE
  8
0
 10
120.000015
 20
260.249023
 11
130.000015
 21
260.249023
  0
LINE
  8
0
 10
114.526291
 20
244.775299
 11
114.526291
 21
254.775299
  0
LINE
  8
0
  6
CENTER
 10
202.150055
 20
249.775330
 11
216.150055
 21
249.775330
  0
LINE
  8
0
 10
213.150055
 20
269.775330
 11
213.150055
 21
229.775330
  0
LINE
  8
0
 10
192.150024
 20
224.775330
 11
212.150055
 21
224.775330
  0
LINE
  8
0
 10
192.150024
 20
232.775330
 11
209.650055
 21
232.775330
  0
LINE
  8
0
 10
209.650055
 20
269.775330
 11
213.150055
 21
269.775330
  0
LINE
  8
0
 10
212.150055
 20
229.775330
 11
213.150055
 21
229.775330
  0
LINE
  8
0
 10
212.150055
 20
249.775330
 11
212.150055
 21
224.775330
  0
LINE
  8
0
 10
192.150055
 20
232.775330
 11
192.150055
 21
224.775330
  0
LINE
  8
0
 10
209.650055
 20
269.775330
 11
209.650055
 21
232.775330
  0
LINE
  8
0
 10
204.150055
 20
260.249054
 11
204.150055
 21
234.775330
  0
LINE
  8
0
 10
209.650101
 20
269.775299
 11
206.330353
 21
264.025330
  0
LINE
  8
0
  6
CENTER
 10
198.150055
 20
234.775330
 11
198.150055
 21
222.775330
  0
LINE
  8
0
  6
DASHED
 10
201.400055
 20
232.775330
 11
201.400055
 21
224.775330
  0
LINE
  8
0
  6
DASHED
 10
194.900055
 20
232.775330
 11
194.900055
 21
224.775330
  0
LINE
  8
0
  6
CENTER
 10
202.650055
 20
239.775330
 11
216.150055
 21
239.775330
  0
LINE
  8
0
 10
204.650055
 20
244.025330
 11
209.650055
 21
244.025330
  0
LINE
  8
0
 10
204.650055
 20
235.525330
 11
209.650055
 21
235.525330
  0
LINE
  8
0
 10
204.650055
 20
244.025330
 11
204.650055
 21
235.525330
  0
LINE
  8
0
 10
204.650055
 20
255.525330
 11
209.650055
 21
255.525330
  0
LINE
  8
0
  6
CENTER
 10
202.650055
 20
259.775330
 11
216.150055
 21
259.775330
  0
LINE
  8
0
 10
204.650055
 20
264.025330
 11
209.650055
 21
264.025330
  0
LINE
  8
0
 10
204.650055
 20
255.525330
 11
204.650055
 21
264.025330
  0
LINE
  8
0
 10
204.650116
 20
261.115082
 11
204.150116
 21
260.249054
  0
LINE
  8
0
 10
204.150055
 20
254.775330
 11
209.650055
 21
254.775330
  0
LINE
  8
0
 10
204.150055
 20
244.775330
 11
209.650055
 21
244.775330
  0
LINE
  8
0
  6
CENTER
 10
115.000000
 20
113.000015
 11
115.000000
 21
52.000015
  0
LINE
  8
0
  6
CENTER
 10
87.000000
 20
85.000015
 11
143.000000
 21
85.000015
  0
LINE
  8
0
 10
90.000000
 20
55.000015
 11
140.000000
 21
55.000015
  0
LINE
  8
0
 10
90.000000
 20
85.000015
 11
90.000000
 21
55.000015
  0
LINE
  8
0
 10
140.000000
 20
85.000015
 11
140.000000
 21
55.000015
  0
LINE
  8
0
 10
90.000000
 20
64.000015
 11
140.000000
 21
64.000015
  0
LINE
  8
0
  6
CENTER
 10
98.000000
 20
66.000015
 11
98.000000
 21
53.000015
  0
LINE
  8
0
  6
DASHED
 10
102.500000
 20
64.000015
 11
102.500000
 21
55.000015
  0
LINE
  8
0
  6
DASHED
 10
93.500000
 20
64.000015
 11
93.500000
 21
55.000015
  0
LINE
  8
0
  6
DASHED
 10
127.500000
 20
64.000015
 11
127.500000
 21
55.000015
  0
LINE
  8
0
  6
CENTER
 10
132.000000
 20
66.000015
 11
132.000000
 21
53.000015
  0
LINE
  8
0
  6
DASHED
 10
136.500000
 20
64.000015
 11
136.500000
 21
55.000015
  0
LINE
  8
0
  6
CENTER
 10
102.000000
 20
79.000015
 11
102.000000
 21
65.000015
  0
LINE
  8
0
  6
CENTER
 10
95.000000
 20
72.000015
 11
109.000000
 21
72.000015
  0
LINE
  8
0
 10
99.500008
 20
70.556618
 11
102.000008
 21
69.113243
  0
LINE
  8
0
 10
101.999977
 20
69.113235
 11
104.499977
 21
70.556610
  0
LINE
  8
0
 10
104.499969
 20
70.556641
 11
104.499969
 21
73.443390
  0
LINE
  8
0
 10
104.500008
 20
73.443382
 11
102.000008
 21
74.886757
  0
LINE
  8
0
 10
102.000061
 20
74.886734
 11
99.500061
 21
73.443359
  0
LINE
  8
0
 10
99.499969
 20
73.443405
 11
99.499969
 21
70.556656
  0
LINE
  8
0
 10
102.000000
 20
78.000015
 11
90.000000
 21
78.000015
  0
LINE
  8
0
 10
108.000000
 20
72.000015
 11
108.000000
 21
66.000015
  0
LINE
  8
0
  6
CENTER
 10
128.000000
 20
79.000015
 11
128.000000
 21
65.000015
  0
LINE
  8
0
 10
128.000000
 20
78.000015
 11
140.000000
 21
78.000015
  0
LINE
  8
0
 10
122.000000
 20
72.000015
 11
122.000000
 21
66.000015
  0
LINE
  8
0
  6
CENTER
 10
135.000000
 20
72.000015
 11
121.000000
 21
72.000015
  0
LINE
  8
0
 10
125.500000
 20
70.556641
 11
125.500000
 21
73.443390
  0
LINE
  8
0
 10
125.499954
 20
73.443481
 11
127.999954
 21
74.886856
  0
LINE
  8
0
 10
127.999977
 20
74.886795
 11
130.499939
 21
73.443436
  0
LINE
  8
0
 10
130.500031
 20
73.443405
 11
130.500031
 21
70.556656
  0
LINE
  8
0
 10
130.499924
 20
70.556694
 11
127.999924
 21
69.113319
  0
LINE
  8
0
 10
127.999962
 20
69.113190
 11
125.499931
 21
70.556580
  0
LINE
  8
0
  6
CENTER
 10
102.000000
 20
91.000015
 11
102.000000
 21
105.000015
  0
LINE
  8
0
 10
102.000000
 20
92.000015
 11
91.000000
 21
92.000015
  0
LINE
  8
0
 10
108.000000
 20
98.000015
 11
108.000000
 21
109.000015
  0
LINE
  8
0
  6
CENTER
 10
95.000000
 20
98.000015
 11
109.000000
 21
98.000015
  0
LINE
  8
0
 10
104.499969
 20
99.443390
 11
104.499969
 21
96.556641
  0
LINE
  8
0
 10
104.499947
 20
96.556664
 11
101.999954
 21
95.113281
  0
LINE
  8
0
 10
102.000046
 20
95.113289
 11
99.500053
 21
96.556671
  0
LINE
  8
0
 10
99.499969
 20
96.556625
 11
99.499969
 21
99.443375
  0
LINE
  8
0
 10
99.499954
 20
99.443436
 11
101.999954
 21
100.886810
  0
LINE
  8
0
 10
101.999977
 20
100.886658
 11
104.499969
 21
99.443283
  0
LINE
  8
0
  6
CENTER
 10
128.000000
 20
91.000015
 11
128.000000
 21
105.000015
  0
LINE
  8
0
 10
128.000000
 20
92.000015
 11
139.000000
 21
92.000015
  0
LINE
  8
0
 10
122.000000
 20
98.000015
 11
122.000000
 21
109.000015
  0
LINE
  8
0
  6
CENTER
 10
135.000000
 20
98.000015
 11
121.000000
 21
98.000015
  0
LINE
  8
0
 10
125.500000
 20
99.443390
 11
125.500000
 21
96.556641
  0
LINE
  8
0
 10
125.499947
 20
96.556618
 11
127.999947
 21
95.113258
  0
LINE
  8
0
 10
128.000000
 20
95.113220
 11
130.500000
 21
96.556602
  0
LINE
  8
0
 10
130.500031
 20
96.556625
 11
130.500031
 21
99.443375
  0
LINE
  8
0
 10
130.499924
 20
99.443321
 11
127.999924
 21
100.886696
  0
LINE
  8
0
 10
127.999924
 20
100.886780
 11
125.499916
 21
99.443420
  0
LINE
  8
0
 10
128.741669
 20
92.000015
 11
128.741669
 21
78.000015
  0
LINE
  8
0
 10
108.000000
 20
98.741684
 11
122.000000
 21
98.741684
  0
LINE
  8
0
 10
101.258331
 20
78.000015
 11
101.258331
 21
92.000015
  0
LINE
  8
0
  6
CENTER
 10
201.819885
 20
85.000069
 11
217.819885
 21
85.000069
  0
LINE
  8
0
 10
214.819916
 20
110.000069
 11
214.819916
 21
60.000069
  0
LINE
  8
0
 10
204.819916
 20
98.741737
 11
204.819916
 21
66.000069
  0
LINE
  8
0
 10
211.319885
 20
110.000069
 11
214.819885
 21
110.000069
  0
LINE
  8
0
 10
187.819885
 20
64.000069
 11
211.319885
 21
64.000069
  0
LINE
  8
0
 10
187.819885
 20
55.000076
 11
213.819885
 21
55.000076
  0
LINE
  8
0
 10
187.819916
 20
64.000061
 11
187.819916
 21
55.000061
  0
LINE
  8
0
 10
213.819916
 20
85.000069
 11
213.819916
 21
55.000076
  0
LINE
  8
0
 10
213.819885
 20
60.000069
 11
214.819885
 21
60.000069
  0
LINE
  8
0
 10
211.319916
 20
110.000069
 11
211.319916
 21
64.000069
  0
LINE
  8
0
 10
211.320068
 20
110.000023
 11
207.278625
 21
103.000038
  0
LINE
  8
0
 10
204.819885
 20
92.000069
 11
211.319885
 21
92.000069
  0
LINE
  8
0
 10
204.819885
 20
78.000069
 11
211.319885
 21
78.000069
  0
LINE
  8
0
  6
CENTER
 10
202.319885
 20
72.000069
 11
217.819885
 21
72.000069
  0
LINE
  8
0
 10
205.319885
 20
77.000069
 11
211.319885
 21
77.000069
  0
LINE
  8
0
 10
205.319885
 20
67.000069
 11
211.319885
 21
67.000069
  0
LINE
  8
0
 10
205.319916
 20
77.000069
 11
205.319916
 21
67.000069
  0
LINE
  8
0
 10
205.319885
 20
93.000069
 11
211.319885
 21
93.000069
  0
LINE
  8
0
  6
CENTER
 10
202.319885
 20
98.000069
 11
217.819885
 21
98.000069
  0
LINE
  8
0
 10
205.319885
 20
103.000069
 11
211.319885
 21
103.000069
  0
LINE
  8
0
 10
205.319916
 20
93.000069
 11
205.319916
 21
103.000069
  0
LINE
  8
0
 10
205.320068
 20
99.607712
 11
204.820068
 21
98.741692
  0
LINE
  8
0
  6
CENTER
 10
195.819916
 20
66.000069
 11
195.819916
 21
53.000076
  0
LINE
  8
0
  6
DASHED
 10
200.319916
 20
64.000069
 11
200.319916
 21
55.000076
  0
LINE
  8
0
  6
DASHED
 10
191.319916
 20
64.000061
 11
191.319916
 21
55.000061
  0
LINE
  8
0
  6
CENTER
 10
284.150055
 20
249.775330
 11
270.150055
 21
249.775330
  0
LINE
  8
0
 10
273.150055
 20
269.775330
 11
273.150055
 21
229.775330
  0
LINE
  8
0
 10
294.150085
 20
224.775330
 11
274.150055
 21
224.775330
  0
LINE
  8
0
 10
294.150085
 20
232.775330
 11
278.650055
 21
232.775330
  0
LINE
  8
0
 10
277.650055
 20
269.775330
 11
273.150055
 21
269.775330
  0
LINE
  8
0
 10
274.150055
 20
229.775330
 11
273.150055
 21
229.775330
  0
LINE
  8
0
 10
274.150055
 20
249.775330
 11
274.150055
 21
224.775330
  0
LINE
  8
0
 10
294.150055
 20
232.775330
 11
294.150055
 21
224.775330
  0
LINE
  8
0
 10
277.650055
 20
269.775330
 11
277.650055
 21
233.775330
  0
LINE
  8
0
 10
282.150055
 20
257.775299
 11
282.150055
 21
233.775330
  0
LINE
  8
0
  6
CENTER
 10
288.150055
 20
234.775330
 11
288.150055
 21
222.775330
  0
LINE
  8
0
  6
DASHED
 10
284.900055
 20
232.775330
 11
284.900055
 21
224.775330
  0
LINE
  8
0
  6
DASHED
 10
291.400055
 20
232.775330
 11
291.400055
 21
224.775330
  0
LINE
  8
0
 10
282.650055
 20
254.025330
 11
282.150055
 21
254.025330
  0
LINE
  8
0
 10
282.650055
 20
245.525330
 11
282.150055
 21
245.525330
  0
LINE
  8
0
 10
282.650055
 20
254.025330
 11
282.650055
 21
245.525330
  0
LINE
  8
0
 10
341.300110
 20
249.775299
 11
341.300110
 21
224.775299
  0
LINE
  8
0
 10
381.300110
 20
249.775299
 11
381.300110
 21
224.775299
  0
LINE
  8
0
 10
381.300110
 20
224.775299
 11
341.300110
 21
224.775299
  0
LINE
  8
0
 10
381.300110
 20
232.775299
 11
341.300110
 21
232.775299
  0
LINE
  8
0
  6
DASHED
 10
378.550110
 20
232.775299
 11
378.550110
 21
224.775299
  0
LINE
  8
0
  6
CENTER
 10
375.300110
 20
234.775299
 11
375.300110
 21
222.775299
  0
LINE
  8
0
  6
DASHED
 10
372.050110
 20
232.775299
 11
372.050110
 21
224.775299
  0
LINE
  8
0
  6
CENTER
 10
361.300110
 20
272.775299
 11
361.300110
 21
221.775299
  0
LINE
  8
0
  6
CENTER
 10
384.300110
 20
249.775299
 11
338.300110
 21
249.775299
  0
LINE
  8
0
  6
DASHED
 10
350.550110
 20
232.775299
 11
350.550110
 21
224.775299
  0
LINE
  8
0
  6
CENTER
 10
347.300110
 20
234.775299
 11
347.300110
 21
222.775299
  0
LINE
  8
0
  6
DASHED
 10
344.050110
 20
232.775299
 11
344.050110
 21
224.775299
  0
LINE
  8
0
 10
363.300079
 20
250.929916
 11
361.300079
 21
252.084625
  0
LINE
  8
0
 10
361.300018
 20
252.084747
 11
359.300018
 21
250.930023
  0
LINE
  8
0
 10
359.300110
 20
250.929993
 11
359.300110
 21
248.620590
  0
LINE
  8
0
 10
363.300079
 20
248.620605
 11
363.300079
 21
250.930008
  0
LINE
  8
0
 10
361.300049
 20
247.465912
 11
363.300018
 21
248.620605
  0
LINE
  8
0
 10
359.300049
 20
248.620560
 11
361.300079
 21
247.465866
  0
LINE
  8
0
 10
282.149994
 20
257.775238
 11
277.649994
 21
262.275238
  0
LINE
  8
0
 10
348.800110
 20
249.775299
 11
348.800110
 21
232.775299
  0
LINE
  8
0
 10
373.800110
 20
249.775299
 11
373.800110
 21
232.775299
  0
LINE
  8
0
 10
369.300110
 20
249.775299
 11
369.300110
 21
232.775299
  0
LINE
  8
0
 10
353.300110
 20
249.775299
 11
353.300110
 21
232.775299
  0
LINE
  8
0
  6
CENTER
 10
287.819946
 20
85.000069
 11
271.819946
 21
85.000069
  0
LINE
  8
0
 10
274.819916
 20
110.000069
 11
274.819916
 21
60.000069
  0
LINE
  8
0
 10
284.819916
 20
95.000015
 11
284.819916
 21
65.000069
  0
LINE
  8
0
 10
279.819916
 20
110.000069
 11
274.819946
 21
110.000069
  0
LINE
  8
0
 10
301.819946
 20
64.000069
 11
280.819916
 21
64.000069
  0
LINE
  8
0
 10
301.819946
 20
55.000076
 11
275.819946
 21
55.000076
  0
LINE
  8
0
 10
301.819916
 20
64.000061
 11
301.819916
 21
55.000061
  0
LINE
  8
0
 10
275.819916
 20
85.000069
 11
275.819916
 21
55.000076
  0
LINE
  8
0
 10
275.819946
 20
60.000069
 11
274.819946
 21
60.000069
  0
LINE
  8
0
 10
279.819916
 20
110.000069
 11
279.819916
 21
65.000069
  0
LINE
  8
0
 10
285.819946
 20
80.000069
 11
284.819916
 21
80.000069
  0
LINE
  8
0
 10
285.819946
 20
90.000069
 11
284.819916
 21
90.000069
  0
LINE
  8
0
 10
285.819916
 20
80.000069
 11
285.819916
 21
90.000069
  0
LINE
  8
0
  6
CENTER
 10
293.819916
 20
66.000069
 11
293.819916
 21
53.000076
  0
LINE
  8
0
  6
DASHED
 10
289.319916
 20
64.000069
 11
289.319916
 21
55.000076
  0
LINE
  8
0
  6
DASHED
 10
298.319916
 20
64.000061
 11
298.319916
 21
55.000061
  0
LINE
  8
0
 10
349.639832
 20
85.000015
 11
349.639832
 21
55.000015
  0
LINE
  8
0
  6
DASHED
 10
353.139832
 20
64.000015
 11
353.139832
 21
55.000015
  0
LINE
  8
0
 10
399.639832
 20
64.000015
 11
349.639832
 21
64.000015
  0
LINE
  8
0
  6
CENTER
 10
357.639832
 20
66.000015
 11
357.639832
 21
53.000015
  0
LINE
  8
0
  6
DASHED
 10
362.139832
 20
64.000015
 11
362.139832
 21
55.000015
  0
LINE
  8
0
 10
399.639832
 20
55.000015
 11
349.639832
 21
55.000015
  0
LINE
  8
0
  6
CENTER
 10
374.639832
 20
113.000015
 11
374.639832
 21
52.000015
  0
LINE
  8
0
  6
DASHED
 10
387.139832
 20
64.000015
 11
387.139832
 21
55.000015
  0
LINE
  8
0
  6
CENTER
 10
391.639832
 20
66.000015
 11
391.639832
 21
53.000015
  0
LINE
  8
0
  6
DASHED
 10
396.139832
 20
64.000015
 11
396.139832
 21
55.000015
  0
LINE
  8
0
 10
399.639832
 20
85.000015
 11
399.639832
 21
55.000015
  0
LINE
  8
0
  6
CENTER
 10
402.639832
 20
85.000015
 11
346.639832
 21
85.000015
  0
LINE
  8
0
 10
374.639862
 20
87.886757
 11
372.139893
 21
86.443398
  0
LINE
  8
0
 10
377.139801
 20
86.443367
 11
374.639832
 21
87.886726
  0
LINE
  8
0
 10
377.139832
 20
83.556641
 11
377.139832
 21
86.443390
  0
LINE
  8
0
 10
374.639832
 20
82.113258
 11
377.139862
 21
83.556633
  0
LINE
  8
0
 10
372.139801
 20
83.556549
 11
374.639771
 21
82.113190
  0
LINE
  8
0
 10
372.139801
 20
86.443405
 11
372.139801
 21
83.556656
  0
LINE
  8
0
 10
284.819855
 20
94.999962
 11
279.819855
 21
99.999969
  0
LINE
  8
0
 10
359.639832
 20
85.000015
 11
359.639832
 21
64.000015
  0
LINE
  8
0
 10
364.639832
 20
85.000015
 11
364.639832
 21
64.000015
  0
LINE
  8
0
 10
384.639832
 20
85.000015
 11
384.639832
 21
64.000015
  0
LINE
  8
0
 10
389.639832
 20
85.000015
 11
389.639832
 21
64.000015
  0
CIRCLE
  8
0
 10
135.000015
 20
259.775299
 40
4.250000
  0
ARC
  8
0
 10
135.000015
 20
259.775299
 40
5.000000
 50
180.000000
 51
270.000000
  0
ARC
  8
0
 10
125.000015
 20
249.775299
 40
20.000000
 50
0.000000
 51
179.999954
  0
CIRCLE
  8
0
 10
125.000015
 20
249.775299
 40
6.250000
  0
CIRCLE
  8
0
 10
115.000015
 20
239.775299
 40
4.250000
  0
ARC
  8
0
 10
115.000015
 20
239.775299
 40
5.000000
 50
0.000000
 51
90.000000
  0
ARC
  8
0
 10
135.000015
 20
239.775299
 40
5.000000
 50
90.000000
 51
180.000000
  0
CIRCLE
  8
0
 10
135.000015
 20
239.775299
 40
4.250000
  0
ARC
  8
0
 10
115.000015
 20
259.775299
 40
5.000000
 50
270.000000
 51
0.000000
  0
CIRCLE
  8
0
 10
115.000015
 20
259.775299
 40
4.250000
  0
ARC
  8
0
 10
202.150055
 20
234.775330
 40
2.000000
 50
270.000000
 51
0.000000
  0
ARC
  8
0
 10
106.000000
 20
66.000015
 40
2.000000
 50
270.000000
 51
0.000000
  0
ARC
  8
0
 10
124.000000
 20
66.000015
 40
2.000000
 50
180.000000
 51
270.000000
  0
ARC
  8
0
 10
115.000000
 20
85.000015
 40
25.000000
 50
0.000000
 51
179.999969
  0
CIRCLE
  8
0
 10
115.000000
 20
85.000015
 40
8.250000
  0
CIRCLE
  8
0
 10
102.000000
 20
72.000015
 40
5.000000
  0
ARC
  8
0
 10
102.000000
 20
72.000015
 40
6.000000
 50
0.000000
 51
90.000000
  0
ARC
  8
0
 10
128.000000
 20
72.000015
 40
6.000000
 50
90.000000
 51
180.000000
  0
CIRCLE
  8
0
 10
128.000000
 20
72.000015
 40
5.000000
  0
ARC
  8
0
 10
102.000000
 20
98.000015
 40
6.000000
 50
269.999939
 51
359.999939
  0
CIRCLE
  8
0
 10
102.000000
 20
98.000015
 40
5.000000
  0
ARC
  8
0
 10
128.000000
 20
98.000015
 40
6.000000
 50
180.000000
 51
269.999939
  0
CIRCLE
  8
0
 10
128.000000
 20
98.000015
 40
5.000000
  0
ARC
  8
0
 10
202.819916
 20
66.000069
 40
2.000000
 50
270.000000
 51
0.000000
  0
ARC
  8
0
 10
361.300110
 20
249.775299
 40
20.000000
 50
0.000000
 51
179.999954
  0
CIRCLE
  8
0
 10
361.300110
 20
249.775299
 40
4.250000
  0
ARC
  8
0
 10
283.150055
 20
233.775330
 40
1.000000
 50
180.000000
 51
270.000000
  0
ARC
  8
0
 10
278.650055
 20
233.775330
 40
1.000000
 50
180.000000
 51
270.000000
  0
CIRCLE
  8
0
 10
361.300110
 20
249.775299
 40
4.750000
  0
ARC
  8
0
 10
361.300110
 20
249.775299
 40
8.000000
 50
0.000000
 51
180.000000
  0
ARC
  8
0
 10
361.300110
 20
249.775299
 40
12.500000
 50
0.000000
 51
179.999924
  0
ARC
  8
0
 10
374.639832
 20
85.000015
 40
25.000000
 50
0.000000
 51
179.999969
  0
CIRCLE
  8
0
 10
374.639832
 20
85.000015
 40
5.000000
  0
ARC
  8
0
 10
285.819916
 20
65.000069
 40
1.000000
 50
180.000000
 51
270.000000
  0
ARC
  8
0
 10
280.819916
 20
65.000069
 40
1.000000
 50
180.000000
 51
270.000000
  0
CIRCLE
  8
0
 10
374.639832
 20
85.000015
 40
5.500000
  0
ARC
  8
0
 10
374.639832
 20
85.000015
 40
10.000000
 50
0.000000
 51
179.999954
  0
ARC
  8
0
 10
374.639832
 20
85.000015
 40
15.000000
 50
0.000000
 51
179.999969
  0
ARC
  8
0
 10
132.000015
 20
234.775299
 40
2.000000
 50
180.000000
 51
270.000000
  0
ARC
  8
0
 10
118.000015
 20
234.775299
 40
2.000000
 50
270.000000
 51
0.000000
  0
TEXT
  8
0
 10
422.460297
 20
345.487762
 40
6.000000
  1
DATE : JAN ,1992
 50
0.000000
 41
1.052631
 51
0.000000
  7
STANDARD
  0
TEXT
  8
0
 10
10.750001
 20
159.700043
 40
7.000000
  1
BORE : 40
 50
0.000000
 41
1.052632
 51
0.000000
  7
STANDARD
  0
TEXT
  8
0
 10
10.750001
 20
319.475342
 40
7.000000
  1
BORE : 32
 50
0.000000
 41
1.052632
 51
0.000000
  7
STANDARD
  0
TEXT
  8
0
 10
2.977783
 20
344.587769
 40
7.000000
  1
TWIN PORT FOOT MOUNT,-1B
 50
0.000000
 41
0.634115
 51
0.000000
  7
STANDARD
  0
TEXT
  8
0
 10
427.811859
 20
4.812350
 40
7.000000
  1
KOGANEI,CORP
 50
0.000000
 41
1.052632
 51
0.000000
  7
STANDARD
  0
ENDSEC
  0
EOF
