  0
SECTION
  2
HEADER
  0
ENDSEC
  0
SECTION
  2
TABLES
  0
TABLE
  2
LTYPE
 70
     4
  0
LTYPE
  2
CONTINUOUS
 70
    64
  3
Solid line
 72
    65
 73
     0
 40
0.000000
  0
LTYPE
  2
DASHED
 70
    64
  3
__ __ __ __ __ __ __ __ __ __ __ __ __ __ __
 72
    65
 73
     2
 40
3.500000
 49
2.000000
 49
-1.500000
  0
LTYPE
  2
CENTER
 70
    64
  3
____ _ ____ _ ____ _ ____ _ ____ _ ____ _ ____
 72
    65
 73
     4
 40
17.500000
 49
13.000000
 49
-1.500000
 49
1.500000
 49
-1.500000
  0
LTYPE
  2
PHANTOM
 70
    64
  3
_____ _ _ _____ _ _ _____ _ _ _____ _ _ ____  
 72
    65
 73
     6
 40
15.500000
 49
8.000000
 49
-1.500000
 49
1.500000
 49
-1.500000
 49
1.500000
 49
-1.500000
  0
LTYPE
  2
DASHED1
 70
    64
  3
__ __ __ __ __ __ __ __ __ __ __ __ __ __ __
 72
    65
 73
     2
 40
1.500000
 49
1.000000
 49
-0.500000
  0
LTYPE
  2
DASHED2
 70
    64
  3
__ __ __ __ __ __ __ __ __ __ __ __ __ __ __
 72
    65
 73
     2
 40
3.500000
 49
2.500000
 49
-1.000000
  0
LTYPE
  2
DASHED3
 70
    64
  3
__ __ __ __ __ __ __ __ __ __ __ __ __ __ __
 72
    65
 73
     2
 40
6.000000
 49
4.000000
 49
-2.000000
  0
LTYPE
  2
DASHED4
 70
    64
  3
__ __ __ __ __ __ __ __ __ __ __ __ __ __ __
 72
    65
 73
     2
 40
12.000000
 49
10.000000
 49
-2.000000
  0
LTYPE
  2
DASHED5
 70
    64
  3
__ __ __ __ __ __ __ __ __ __ __ __ __ __ __
 72
    65
 73
     2
 40
17.000000
 49
15.000000
 49
-2.000000
  0
LTYPE
  2
DASHED6
 70
    64
  3
__ __ __ __ __ __ __ __ __ __ __ __ __ __ __
 72
    65
 73
     2
 40
29.000000
 49
27.000000
 49
-2.000000
  0
LTYPE
  2
PHANTOM1
 70
    64
  3
_____ _ _ _____ _ _ _____ _ _ _____ _ _ ____  
 72
    65
 73
     6
 40
31.000000
 49
25.000000
 49
-1.500000
 49
1.000000
 49
-1.000000
 49
1.000000
 49
-1.500000
  0
LTYPE
  2
PHANTOM2
 70
    64
  3
_____ _ _ _____ _ _ _____ _ _ _____ _ _ ____  
 72
    65
 73
     6
 40
36.000000
 49
27.000000
 49
-1.500000
 49
2.500000
 49
-1.000000
 49
2.500000
 49
-1.500000
  0
LTYPE
  2
PHANTOM3
 70
    64
  3
_____ _ _ _____ _ _ _____ _ _ _____ _ _ ____  
 72
    65
 73
     6
 40
78.000000
 49
64.000000
 49
-2.000000
 49
4.000000
 49
-2.000000
 49
4.000000
 49
-2.000000
  0
LTYPE
  2
CENTER1
 70
    64
  3
____ _ ____ _ ____ _ ____ _ ____ _ ____ _ ____
 72
    65
 73
     4
 40
19.000000
 49
14.000000
 49
-1.000000
 49
3.000000
 49
-1.000000
  0
LTYPE
  2
CENTER2
 70
    64
  3
____ _ ____ _ ____ _ ____ _ ____ _ ____ _ ____
 72
    65
 73
     4
 40
28.500000
 49
25.000000
 49
-1.000000
 49
1.500000
 49
-1.000000
  0
LTYPE
  2
CENTER3
 70
    64
  3
____ _ ____ _ ____ _ ____ _ ____ _ ____ _ ____
 72
    65
 73
     4
 40
31.500000
 49
27.000000
 49
-1.000000
 49
2.500000
 49
-1.000000
  0
LTYPE
  2
CENTER4
 70
    64
  3
____ _ ____ _ ____ _ ____ _ ____ _ ____ _ ____
 72
    65
 73
     4
 40
50.000000
 49
45.000000
 49
-1.000000
 49
3.000000
 49
-1.000000
  0
LTYPE
  2
CENTER5
 70
    64
  3
____ _ ____ _ ____ _ ____ _ ____ _ ____ _ ____
 72
    65
 73
     4
 40
100.000000
 49
92.000000
 49
-2.000000
 49
4.000000
 49
-2.000000
  0
LTYPE
  2
SBK1
 70
    64
  3
______ _ _ _ ______ _ _ _ ______ _ _ _ _____  
 72
    65
 73
     8
 40
60.500000
 49
45.000000
 49
-2.000000
 49
2.500000
 49
-2.000000
 49
2.500000
 49
-2.000000
 49
2.500000
 49
-2.000000
  0
LTYPE
  2
SBK2
 70
    64
  3
______ _ _ _ ______ _ _ _ ______ _ _ _ _____  
 72
    65
 73
     8
 40
84.000000
 49
64.000000
 49
-2.000000
 49
4.000000
 49
-2.000000
 49
4.000000
 49
-2.000000
 49
4.000000
 49
-2.000000
  0
LTYPE
  2
STCH
 70
    64
  3
__ __ __ __ __ __ __ __ __ __ __ __ __ __ __
 72
    65
 73
     2
 40
3.000000
 49
1.000000
 49
-2.000000
  0
LTYPE
  2
MTCH
 70
    64
  3
_____ _ _ _____ _ _ _____ _ _ _____ _ _ ____  
 72
    65
 73
     6
 40
80.000000
 49
66.000000
 49
-2.000000
 49
4.000000
 49
-2.000000
 49
4.000000
 49
-2.000000
  0
ENDTAB
  0
TABLE
  2
LAYER
 70
     1
  0
LAYER
  2
0
 70
     0
 62
     7
  6
CONTINUOUS
  0
ENDTAB
  0
TABLE
  2
STYLE
 70
     1
  0
STYLE
  2
STANDARD
 70
     0
 40
0.000000
 41
1.000000
 50
0.000000
 71
     0
 42
0.200000
  3
txt
  4
BIGFONT
  0
ENDTAB
  0
TABLE
  2
VIEW
 70
     0
  0
ENDTAB
  0
ENDSEC
  0
SECTION
  2
BLOCKS
  0
ENDSEC
  0
SECTION
  2
ENTITIES
  0
POINT
  8
0
 10
44.999878
 20
245.000061
  0
POINT
  8
0
 10
55.999878
 20
245.000061
  0
POINT
  8
0
 10
119.700043
 20
245.000092
  0
POINT
  8
0
 10
126.700043
 20
245.000000
  0
POINT
  8
0
 10
214.831467
 20
245.000061
  0
POINT
  8
0
 10
228.831467
 20
245.000061
  0
POINT
  8
0
 10
295.931458
 20
245.000061
  0
POINT
  8
0
 10
303.931458
 20
245.000061
  0
POINT
  8
0
 10
394.662964
 20
245.000046
  0
POINT
  8
0
 10
410.662964
 20
245.000046
  0
POINT
  8
0
 10
480.103333
 20
245.000076
  0
POINT
  8
0
 10
489.103333
 20
245.000076
  0
POINT
  8
0
 10
75.000015
 20
80.000015
  0
POINT
  8
0
 10
95.000015
 20
80.000015
  0
POINT
  8
0
 10
169.150055
 20
80.000053
  0
POINT
  8
0
 10
178.150055
 20
80.000053
  0
POINT
  8
0
 10
337.247223
 20
80.000015
  0
POINT
  8
0
 10
362.247223
 20
80.000015
  0
POINT
  8
0
 10
442.067139
 20
80.000069
  0
POINT
  8
0
 10
452.067139
 20
80.000069
  0
LINE
  8
0
 62
     3
 10
0.000000
 20
0.000000
 11
0.000000
 21
360.000092
  0
LINE
  8
0
 62
     3
 10
524.494446
 20
360.000092
 11
524.494446
 21
0.000000
  0
LINE
  8
0
 62
     3
 10
0.000000
 20
0.000000
 11
524.494446
 21
0.000000
  0
LINE
  8
0
 62
     3
 10
0.000000
 20
360.000092
 11
524.494446
 21
360.000092
  0
LINE
  8
0
 62
     3
 10
0.000000
 20
339.775330
 11
107.865173
 21
339.775330
  0
LINE
  8
0
 62
     3
 10
107.865173
 20
339.775330
 11
107.865173
 21
360.000092
  0
LINE
  8
0
 62
     3
 10
416.629272
 20
20.224701
 11
524.494446
 21
20.224701
  0
LINE
  8
0
 62
     3
 10
416.629272
 20
339.775330
 11
524.494446
 21
339.775330
  0
LINE
  8
0
 62
     3
 10
416.629272
 20
360.000092
 11
416.629272
 21
339.775330
  0
LINE
  8
0
 62
     3
 10
416.629272
 20
20.224701
 11
416.629272
 21
0.000000
  0
LINE
  8
0
 10
0.000000
 20
180.000046
 11
524.494446
 21
180.000046
  0
LINE
  8
0
 10
262.247223
 20
0.000000
 11
262.247223
 21
180.000046
  0
LINE
  8
0
 10
174.831482
 20
180.000046
 11
174.831482
 21
360.000092
  0
LINE
  8
0
 10
349.662964
 20
180.000046
 11
349.662964
 21
360.000092
  0
LINE
  8
0
 10
40.062027
 20
242.334991
 11
40.062027
 21
247.665115
  0
LINE
  8
0
 10
42.334808
 20
249.937881
 11
47.664948
 21
249.937881
  0
LINE
  8
0
 10
37.749863
 20
238.278336
 11
38.999863
 21
237.556641
  0
LINE
  8
0
 10
38.999851
 20
237.556717
 11
40.249851
 21
238.278397
  0
LINE
  8
0
 10
40.249863
 20
238.278366
 11
40.249863
 21
239.721741
  0
LINE
  8
0
 10
40.249844
 20
239.721771
 11
38.999859
 21
240.443451
  0
LINE
  8
0
 10
38.999809
 20
240.443604
 11
37.749809
 21
239.721924
  0
LINE
  8
0
 10
37.749863
 20
239.721741
 11
37.749863
 21
238.278366
  0
LINE
  8
0
 10
50.999855
 20
240.443359
 11
52.249855
 21
239.721680
  0
LINE
  8
0
 10
52.249893
 20
239.721741
 11
52.249893
 21
238.278366
  0
LINE
  8
0
 10
52.249947
 20
238.278183
 11
50.999950
 21
237.556488
  0
LINE
  8
0
 10
50.999836
 20
237.556641
 11
49.749851
 21
238.278320
  0
LINE
  8
0
 10
49.749969
 20
239.721588
 11
50.999969
 21
240.443268
  0
LINE
  8
0
 10
49.749893
 20
238.278366
 11
49.749893
 21
239.721741
  0
LINE
  8
0
 10
38.999882
 20
249.556625
 11
37.749882
 21
250.278305
  0
LINE
  8
0
 10
37.749863
 20
250.278366
 11
37.749863
 21
251.721741
  0
LINE
  8
0
 10
37.749882
 20
251.721664
 11
38.999870
 21
252.443344
  0
LINE
  8
0
 10
38.999874
 20
252.443390
 11
40.249878
 21
251.721710
  0
LINE
  8
0
 10
40.249985
 20
250.278214
 11
38.999973
 21
249.556519
  0
LINE
  8
0
 10
40.249863
 20
251.721741
 11
40.249863
 21
250.278366
  0
LINE
  8
0
 10
50.999954
 20
249.556488
 11
52.249954
 21
250.278168
  0
LINE
  8
0
 10
52.249893
 20
250.278366
 11
52.249893
 21
251.721741
  0
LINE
  8
0
 10
52.249855
 20
251.721741
 11
50.999859
 21
252.443436
  0
LINE
  8
0
 10
50.999920
 20
252.443314
 11
49.749931
 21
251.721634
  0
LINE
  8
0
 10
49.749908
 20
250.278427
 11
50.999905
 21
249.556732
  0
LINE
  8
0
 10
49.749893
 20
251.721741
 11
49.749893
 21
250.278366
  0
LINE
  8
0
 10
33.999878
 20
235.000061
 11
55.999878
 21
235.000061
  0
LINE
  8
0
 10
33.999878
 20
229.000061
 11
55.999878
 21
229.000061
  0
LINE
  8
0
 10
55.999878
 20
245.000061
 11
55.999878
 21
229.000061
  0
LINE
  8
0
 10
33.999878
 20
245.000061
 11
33.999878
 21
229.000061
  0
LINE
  8
0
 10
49.937714
 20
247.665115
 11
49.937714
 21
242.334991
  0
LINE
  8
0
 10
38.999878
 20
242.500061
 11
33.999878
 21
242.500061
  0
LINE
  8
0
 10
42.499878
 20
239.000061
 11
42.499878
 21
237.000061
  0
LINE
  8
0
 10
50.999878
 20
242.500061
 11
55.999878
 21
242.500061
  0
LINE
  8
0
 10
47.499878
 20
239.000061
 11
47.499878
 21
237.000061
  0
LINE
  8
0
 10
38.999878
 20
247.500061
 11
34.287735
 21
247.500061
  0
LINE
  8
0
 10
42.499878
 20
251.000061
 11
42.499878
 21
255.712189
  0
LINE
  8
0
 10
50.999878
 20
247.500061
 11
55.712021
 21
247.500061
  0
LINE
  8
0
 10
47.499878
 20
251.000061
 11
47.499878
 21
255.712189
  0
LINE
  8
0
  6
DASHED
 10
35.749878
 20
235.000061
 11
35.749878
 21
229.000061
  0
LINE
  8
0
  6
CENTER
 10
37.999878
 20
237.000061
 11
37.999878
 21
227.000061
  0
LINE
  8
0
  6
DASHED
 10
40.249878
 20
235.000061
 11
40.249878
 21
229.000061
  0
LINE
  8
0
  6
DASHED
 10
49.749878
 20
235.000061
 11
49.749878
 21
229.000061
  0
LINE
  8
0
  6
CENTER
 10
51.999878
 20
237.000061
 11
51.999878
 21
227.000061
  0
LINE
  8
0
  6
DASHED
 10
54.249878
 20
235.000061
 11
54.249878
 21
229.000061
  0
LINE
  8
0
  6
CENTER
 10
50.999878
 20
243.000061
 11
50.999878
 21
235.000061
  0
LINE
  8
0
  6
CENTER
 10
54.999878
 20
239.000061
 11
46.999878
 21
239.000061
  0
LINE
  8
0
  6
CENTER
 10
34.999878
 20
239.000061
 11
42.999878
 21
239.000061
  0
LINE
  8
0
  6
CENTER
 10
38.999878
 20
243.000061
 11
38.999878
 21
235.000061
  0
LINE
  8
0
  6
CENTER
 10
34.999878
 20
251.000061
 11
42.999878
 21
251.000061
  0
LINE
  8
0
  6
CENTER
 10
38.999878
 20
247.000061
 11
38.999878
 21
255.000061
  0
LINE
  8
0
  6
CENTER
 10
30.999878
 20
245.000061
 11
58.999878
 21
245.000061
  0
LINE
  8
0
  6
CENTER
 10
44.999878
 20
259.000061
 11
44.999878
 21
226.000061
  0
LINE
  8
0
  6
CENTER
 10
50.999878
 20
247.000061
 11
50.999878
 21
255.000061
  0
LINE
  8
0
  6
CENTER
 10
54.999878
 20
251.000061
 11
46.999878
 21
251.000061
  0
LINE
  8
0
 10
120.200081
 20
250.803940
 11
119.700066
 21
249.937927
  0
LINE
  8
0
 10
125.700043
 20
245.000031
 11
125.699860
 21
229.000031
  0
LINE
  8
0
 10
126.700172
 20
256.000000
 11
126.699913
 21
234.000000
  0
LINE
  8
0
 10
120.200081
 20
248.250076
 11
120.200150
 21
253.750076
  0
LINE
  8
0
 10
111.699883
 20
229.000198
 11
125.699883
 21
229.000031
  0
LINE
  8
0
 10
123.200150
 20
256.000061
 11
126.700150
 21
256.000000
  0
LINE
  8
0
 10
119.700104
 20
249.937927
 11
119.699951
 21
237.000107
  0
LINE
  8
0
 10
111.699951
 20
235.000198
 11
123.199951
 21
235.000061
  0
LINE
  8
0
 10
111.699928
 20
235.000183
 11
111.699860
 21
229.000183
  0
LINE
  8
0
 10
123.200142
 20
256.000061
 11
121.901070
 21
253.750076
  0
LINE
  8
0
 10
123.200172
 20
256.000061
 11
123.199928
 21
235.000046
  0
LINE
  8
0
 10
119.700035
 20
242.500107
 11
123.200035
 21
242.500061
  0
LINE
  8
0
 10
119.700096
 20
247.500092
 11
123.200096
 21
247.500046
  0
LINE
  8
0
 10
120.200142
 20
253.750076
 11
123.200142
 21
253.750046
  0
LINE
  8
0
 10
120.200005
 20
241.750076
 11
120.199944
 21
236.250076
  0
LINE
  8
0
 10
120.200012
 20
241.750092
 11
123.200012
 21
241.750061
  0
LINE
  8
0
 10
120.199966
 20
236.250092
 11
123.199966
 21
236.250061
  0
LINE
  8
0
 10
125.699936
 20
234.000031
 11
126.699936
 21
234.000015
  0
LINE
  8
0
 10
120.200073
 20
248.250076
 11
123.200073
 21
248.250046
  0
LINE
  8
0
  6
DASHED
 10
113.449928
 20
235.000168
 11
113.449860
 21
229.000168
  0
LINE
  8
0
  6
CENTER
 10
115.699951
 20
237.000137
 11
115.699829
 21
227.000137
  0
LINE
  8
0
  6
DASHED
 10
117.949928
 20
235.000107
 11
117.949860
 21
229.000107
  0
LINE
  8
0
  6
CENTER
 10
118.199997
 20
239.000122
 11
129.699997
 21
238.999985
  0
LINE
  8
0
  6
CENTER
 10
116.700066
 20
245.000122
 11
129.700073
 21
244.999969
  0
LINE
  8
0
  6
CENTER
 10
118.200104
 20
251.000107
 11
129.700104
 21
250.999969
  0
LINE
  8
0
 10
208.625687
 20
242.429428
 11
208.625687
 21
247.570709
  0
LINE
  8
0
 10
212.260834
 20
251.205841
 11
217.402115
 21
251.205841
  0
LINE
  8
0
 10
206.331467
 20
237.134048
 11
207.831482
 21
236.268021
  0
LINE
  8
0
 10
207.831482
 20
236.268066
 11
209.331497
 21
237.134094
  0
LINE
  8
0
 10
209.331451
 20
237.134048
 11
209.331451
 21
238.866104
  0
LINE
  8
0
 10
209.331482
 20
238.866135
 11
207.831482
 21
239.732162
  0
LINE
  8
0
 10
207.831467
 20
239.732178
 11
206.331467
 21
238.866150
  0
LINE
  8
0
 10
206.331451
 20
238.866089
 11
206.331451
 21
237.134033
  0
LINE
  8
0
 10
220.331482
 20
237.134048
 11
220.331482
 21
238.866104
  0
LINE
  8
0
 10
220.331482
 20
238.866089
 11
221.831497
 21
239.732117
  0
LINE
  8
0
 10
221.831436
 20
239.732086
 11
223.331451
 21
238.866058
  0
LINE
  8
0
 10
223.331482
 20
238.866089
 11
223.331482
 21
237.134033
  0
LINE
  8
0
 10
223.331467
 20
237.134018
 11
221.831467
 21
236.267990
  0
LINE
  8
0
 10
221.831467
 20
236.268021
 11
220.331451
 21
237.134048
  0
LINE
  8
0
 10
209.331451
 20
252.866089
 11
209.331451
 21
251.134033
  0
LINE
  8
0
 10
209.331467
 20
251.134018
 11
207.831467
 21
250.268005
  0
LINE
  8
0
 10
207.831467
 20
250.268021
 11
206.331467
 21
251.134033
  0
LINE
  8
0
 10
206.331451
 20
251.134033
 11
206.331451
 21
252.866089
  0
LINE
  8
0
 10
206.331467
 20
252.866104
 11
207.831482
 21
253.732132
  0
LINE
  8
0
 10
207.831451
 20
253.732101
 11
209.331451
 21
252.866074
  0
LINE
  8
0
 10
220.331482
 20
252.866089
 11
220.331482
 21
251.134033
  0
LINE
  8
0
 10
220.331467
 20
251.134018
 11
221.831482
 21
250.267990
  0
LINE
  8
0
 10
221.831436
 20
250.267990
 11
223.331436
 21
251.134018
  0
LINE
  8
0
 10
223.331482
 20
251.134033
 11
223.331482
 21
252.866089
  0
LINE
  8
0
 10
223.331467
 20
252.866089
 11
221.831467
 21
253.732117
  0
LINE
  8
0
 10
221.831451
 20
253.732071
 11
220.331436
 21
252.866043
  0
LINE
  8
0
 10
200.831467
 20
233.000061
 11
228.831467
 21
233.000061
  0
LINE
  8
0
 10
200.831467
 20
226.000061
 11
228.831467
 21
226.000061
  0
LINE
  8
0
 10
200.831467
 20
245.000061
 11
200.831467
 21
226.000061
  0
LINE
  8
0
 10
228.831467
 20
245.000061
 11
228.831467
 21
226.000061
  0
LINE
  8
0
 10
207.831467
 20
242.500061
 11
200.831467
 21
242.500061
  0
LINE
  8
0
 10
212.331467
 20
238.000061
 11
212.331467
 21
235.000061
  0
LINE
  8
0
 10
217.331467
 20
238.000061
 11
217.331467
 21
235.000061
  0
LINE
  8
0
 10
221.831467
 20
242.500061
 11
228.831467
 21
242.500061
  0
LINE
  8
0
 10
212.331467
 20
252.000061
 11
212.331467
 21
258.775055
  0
LINE
  8
0
 10
207.831467
 20
247.500061
 11
201.056488
 21
247.500061
  0
LINE
  8
0
 10
217.331467
 20
252.000061
 11
217.331467
 21
258.775055
  0
LINE
  8
0
 10
221.831467
 20
247.500061
 11
228.606445
 21
247.500061
  0
LINE
  8
0
 10
221.037262
 20
242.429428
 11
221.037262
 21
247.570709
  0
LINE
  8
0
  6
CENTER
 10
202.831467
 20
252.000061
 11
212.831467
 21
252.000061
  0
LINE
  8
0
  6
CENTER
 10
207.831467
 20
247.000061
 11
207.831467
 21
257.000061
  0
LINE
  8
0
  6
CENTER
 10
221.831467
 20
247.000061
 11
221.831467
 21
257.000061
  0
LINE
  8
0
  6
CENTER
 10
226.831467
 20
252.000061
 11
216.831467
 21
252.000061
  0
LINE
  8
0
  6
CENTER
 10
214.831467
 20
262.000061
 11
214.831467
 21
223.000061
  0
LINE
  8
0
  6
CENTER
 10
197.831467
 20
245.000061
 11
231.831467
 21
245.000061
  0
LINE
  8
0
  6
CENTER
 10
226.831467
 20
238.000061
 11
216.831467
 21
238.000061
  0
LINE
  8
0
  6
CENTER
 10
221.831467
 20
243.000061
 11
221.831467
 21
233.000061
  0
LINE
  8
0
  6
CENTER
 10
202.831467
 20
238.000061
 11
212.831467
 21
238.000061
  0
LINE
  8
0
  6
CENTER
 10
207.831467
 20
243.000061
 11
207.831467
 21
233.000061
  0
LINE
  8
0
  6
DASHED
 10
203.081467
 20
233.000061
 11
203.081467
 21
226.000061
  0
LINE
  8
0
  6
CENTER
 10
205.831467
 20
235.000061
 11
205.831467
 21
224.000061
  0
LINE
  8
0
  6
DASHED
 10
208.581467
 20
233.000061
 11
208.581467
 21
226.000061
  0
LINE
  8
0
  6
DASHED
 10
221.081467
 20
233.000061
 11
221.081467
 21
226.000061
  0
LINE
  8
0
  6
CENTER
 10
223.831467
 20
235.000061
 11
223.831467
 21
224.000061
  0
LINE
  8
0
  6
DASHED
 10
226.581467
 20
233.000061
 11
226.581467
 21
226.000061
  0
LINE
  8
0
 10
303.931458
 20
259.000061
 11
303.931458
 21
231.000061
  0
LINE
  8
0
  6
CENTER
 10
292.931458
 20
245.000061
 11
306.931458
 21
245.000061
  0
LINE
  8
0
 10
285.931458
 20
233.000061
 11
285.931458
 21
226.000061
  0
LINE
  8
0
 10
302.931458
 20
245.000061
 11
302.931458
 21
226.000061
  0
LINE
  8
0
 10
285.931458
 20
226.000061
 11
302.931458
 21
226.000061
  0
LINE
  8
0
 10
285.931458
 20
233.000061
 11
300.431458
 21
233.000061
  0
LINE
  8
0
 10
302.931458
 20
231.000061
 11
303.931458
 21
231.000061
  0
LINE
  8
0
 10
300.431458
 20
259.000061
 11
300.431458
 21
233.000061
  0
LINE
  8
0
 10
300.431458
 20
259.000061
 11
303.931458
 21
259.000061
  0
LINE
  8
0
 10
300.431488
 20
259.000061
 11
298.410736
 21
255.500061
  0
LINE
  8
0
  6
CENTER
 10
290.931458
 20
235.000061
 11
290.931458
 21
224.000061
  0
LINE
  8
0
  6
DASHED
 10
293.681458
 20
233.000061
 11
293.681458
 21
226.000061
  0
LINE
  8
0
  6
DASHED
 10
288.181458
 20
233.000061
 11
288.181458
 21
226.000061
  0
LINE
  8
0
  6
CENTER
 10
294.431458
 20
238.000061
 11
306.931458
 21
238.000061
  0
LINE
  8
0
 10
295.931458
 20
247.500061
 11
300.431458
 21
247.500061
  0
LINE
  8
0
 10
295.931458
 20
242.500061
 11
300.431458
 21
242.500061
  0
LINE
  8
0
 10
296.431458
 20
241.500061
 11
300.431458
 21
241.500061
  0
LINE
  8
0
 10
296.431458
 20
234.500061
 11
300.431458
 21
234.500061
  0
LINE
  8
0
 10
296.431458
 20
241.500061
 11
296.431458
 21
234.500061
  0
LINE
  8
0
 10
296.431458
 20
248.500061
 11
300.431458
 21
248.500061
  0
LINE
  8
0
 10
296.431458
 20
255.500061
 11
300.431458
 21
255.500061
  0
LINE
  8
0
 10
296.431458
 20
248.500061
 11
296.431458
 21
255.500061
  0
LINE
  8
0
  6
CENTER
 10
294.431458
 20
252.000061
 11
306.931458
 21
252.000061
  0
LINE
  8
0
 10
296.431488
 20
252.071869
 11
295.931488
 21
251.205841
  0
LINE
  8
0
 10
295.931458
 20
251.205841
 11
295.931458
 21
235.000061
  0
LINE
  8
0
  6
CENTER
 10
394.662964
 20
264.000061
 11
394.662964
 21
221.000046
  0
LINE
  8
0
 10
378.662964
 20
224.000046
 11
410.662964
 21
224.000046
  0
LINE
  8
0
  6
CENTER
 10
375.662964
 20
245.000046
 11
413.662964
 21
245.000046
  0
LINE
  8
0
 10
378.662964
 20
245.000046
 11
378.662964
 21
224.000046
  0
LINE
  8
0
 10
410.662964
 20
245.000046
 11
410.662964
 21
224.000046
  0
LINE
  8
0
 10
378.662964
 20
232.000046
 11
410.662964
 21
232.000046
  0
LINE
  8
0
  6
CENTER
 10
384.662964
 20
234.000046
 11
384.662964
 21
222.000046
  0
LINE
  8
0
  6
DASHED
 10
381.412964
 20
232.000046
 11
381.412964
 21
224.000046
  0
LINE
  8
0
  6
DASHED
 10
387.912964
 20
232.000046
 11
387.912964
 21
224.000046
  0
LINE
  8
0
  6
DASHED
 10
401.412964
 20
232.000046
 11
401.412964
 21
224.000046
  0
LINE
  8
0
  6
CENTER
 10
404.662964
 20
234.000046
 11
404.662964
 21
222.000046
  0
LINE
  8
0
  6
DASHED
 10
407.912964
 20
232.000046
 11
407.912964
 21
224.000046
  0
LINE
  8
0
  6
CENTER
 10
380.662964
 20
237.000046
 11
392.662964
 21
237.000046
  0
LINE
  8
0
  6
CENTER
 10
386.662964
 20
243.000046
 11
386.662964
 21
231.000046
  0
LINE
  8
0
 10
384.662994
 20
235.845337
 11
386.662994
 21
234.690643
  0
LINE
  8
0
 10
386.662994
 20
234.690659
 11
388.662994
 21
235.845367
  0
LINE
  8
0
 10
388.662964
 20
235.845352
 11
388.662964
 21
238.154755
  0
LINE
  8
0
 10
388.662994
 20
238.154739
 11
386.662964
 21
239.309448
  0
LINE
  8
0
 10
386.662994
 20
239.309433
 11
384.663025
 21
238.154739
  0
LINE
  8
0
 10
384.662964
 20
238.154724
 11
384.662964
 21
235.845337
  0
LINE
  8
0
 10
386.662964
 20
242.000046
 11
378.662964
 21
242.000046
  0
LINE
  8
0
 10
391.662964
 20
237.000046
 11
391.662964
 21
234.000046
  0
LINE
  8
0
 10
400.662994
 20
238.154739
 11
402.662994
 21
239.309448
  0
LINE
  8
0
 10
400.662964
 20
235.845352
 11
400.662964
 21
238.154755
  0
LINE
  8
0
 10
402.662933
 20
234.690582
 11
400.662933
 21
235.845276
  0
LINE
  8
0
 10
404.662994
 20
235.845352
 11
402.662994
 21
234.690659
  0
LINE
  8
0
 10
404.662964
 20
238.154724
 11
404.662964
 21
235.845337
  0
LINE
  8
0
 10
402.663025
 20
239.309509
 11
404.663025
 21
238.154816
  0
LINE
  8
0
  6
CENTER
 10
408.662964
 20
237.000046
 11
396.662964
 21
237.000046
  0
LINE
  8
0
  6
CENTER
 10
402.662964
 20
243.000046
 11
402.662964
 21
231.000046
  0
LINE
  8
0
 10
397.662964
 20
237.000046
 11
397.662964
 21
234.000046
  0
LINE
  8
0
 10
402.662964
 20
242.000046
 11
410.662964
 21
242.000046
  0
LINE
  8
0
 10
388.662933
 20
251.845322
 11
386.662933
 21
250.690628
  0
LINE
  8
0
 10
388.662964
 20
254.154739
 11
388.662964
 21
251.845337
  0
LINE
  8
0
 10
386.662964
 20
255.309433
 11
388.662964
 21
254.154739
  0
LINE
  8
0
 10
384.662994
 20
254.154785
 11
386.662994
 21
255.309479
  0
LINE
  8
0
 10
384.662964
 20
251.845367
 11
384.662964
 21
254.154755
  0
LINE
  8
0
 10
386.662964
 20
250.690659
 11
384.662994
 21
251.845352
  0
LINE
  8
0
  6
CENTER
 10
380.662964
 20
253.000046
 11
392.662964
 21
253.000046
  0
LINE
  8
0
  6
CENTER
 10
386.662964
 20
247.000046
 11
386.662964
 21
259.000061
  0
LINE
  8
0
 10
391.662964
 20
253.000046
 11
391.662964
 21
260.716278
  0
LINE
  8
0
 10
386.662964
 20
248.000046
 11
378.946716
 21
248.000046
  0
LINE
  8
0
 10
400.662933
 20
251.845322
 11
402.662933
 21
250.690613
  0
LINE
  8
0
 10
400.662964
 20
254.154739
 11
400.662964
 21
251.845337
  0
LINE
  8
0
 10
402.662964
 20
255.309433
 11
400.662994
 21
254.154739
  0
LINE
  8
0
 10
404.662933
 20
254.154739
 11
402.662964
 21
255.309433
  0
LINE
  8
0
 10
404.662964
 20
251.845367
 11
404.662964
 21
254.154755
  0
LINE
  8
0
 10
402.663025
 20
250.690674
 11
404.662994
 21
251.845367
  0
LINE
  8
0
  6
CENTER
 10
408.662964
 20
253.000046
 11
396.662964
 21
253.000046
  0
LINE
  8
0
  6
CENTER
 10
402.662964
 20
247.000046
 11
402.662964
 21
259.000061
  0
LINE
  8
0
 10
397.662964
 20
253.000046
 11
397.662964
 21
260.716278
  0
LINE
  8
0
 10
402.662964
 20
248.000046
 11
410.379211
 21
248.000046
  0
LINE
  8
0
 10
401.136688
 20
248.238693
 11
401.136688
 21
241.761398
  0
LINE
  8
0
 10
391.424316
 20
251.473770
 11
397.901611
 21
251.473770
  0
LINE
  8
0
 10
388.189240
 20
241.761398
 11
388.189240
 21
248.238693
  0
LINE
  8
0
  6
CENTER
 10
478.103333
 20
245.000076
 11
492.103333
 21
245.000076
  0
LINE
  8
0
 10
489.103333
 20
261.000061
 11
489.103333
 21
229.000076
  0
LINE
  8
0
 10
468.103333
 20
224.000076
 11
488.103333
 21
224.000076
  0
LINE
  8
0
 10
485.603333
 20
261.000061
 11
489.103333
 21
261.000061
  0
LINE
  8
0
 10
468.103333
 20
232.000076
 11
485.603333
 21
232.000076
  0
LINE
  8
0
 10
468.103333
 20
232.000076
 11
468.103333
 21
224.000076
  0
LINE
  8
0
 10
488.103333
 20
245.000076
 11
488.103333
 21
224.000076
  0
LINE
  8
0
 10
485.603333
 20
261.000061
 11
485.603333
 21
232.000076
  0
LINE
  8
0
 10
480.103333
 20
251.473801
 11
480.103333
 21
234.000076
  0
LINE
  8
0
 10
488.103333
 20
229.000076
 11
489.103333
 21
229.000076
  0
LINE
  8
0
 10
485.603027
 20
261.000214
 11
483.437958
 21
257.250214
  0
LINE
  8
0
  6
CENTER
 10
478.603333
 20
237.000076
 11
491.103333
 21
237.000076
  0
LINE
  8
0
 10
480.603333
 20
241.250076
 11
485.603333
 21
241.250076
  0
LINE
  8
0
 10
480.603333
 20
232.750076
 11
485.603333
 21
232.750076
  0
LINE
  8
0
 10
480.603333
 20
241.250076
 11
480.603333
 21
232.750076
  0
LINE
  8
0
 10
480.603333
 20
248.750076
 11
485.603333
 21
248.750076
  0
LINE
  8
0
 10
480.603333
 20
248.750076
 11
480.603333
 21
257.250061
  0
LINE
  8
0
  6
CENTER
 10
478.603333
 20
253.000076
 11
491.103333
 21
253.000076
  0
LINE
  8
0
 10
480.603333
 20
257.250061
 11
485.603333
 21
257.250061
  0
LINE
  8
0
 10
480.603027
 20
252.339981
 11
480.103027
 21
251.473953
  0
LINE
  8
0
 10
480.103333
 20
248.000076
 11
485.603333
 21
248.000076
  0
LINE
  8
0
 10
480.103333
 20
242.000076
 11
485.603333
 21
242.000076
  0
LINE
  8
0
  6
CENTER
 10
474.103333
 20
234.000076
 11
474.103333
 21
222.000076
  0
LINE
  8
0
  6
DASHED
 10
470.853333
 20
232.000076
 11
470.853333
 21
224.000076
  0
LINE
  8
0
  6
DASHED
 10
477.353333
 20
232.000076
 11
477.353333
 21
224.000076
  0
LINE
  8
0
  6
CENTER
 10
52.000015
 20
80.000015
 11
98.000015
 21
80.000015
  0
LINE
  8
0
 10
55.000015
 20
55.000015
 11
95.000015
 21
55.000015
  0
LINE
  8
0
  6
CENTER
 10
75.000015
 20
103.000015
 11
75.000015
 21
52.000015
  0
LINE
  8
0
 10
55.000015
 20
80.000015
 11
55.000015
 21
55.000015
  0
LINE
  8
0
 10
95.000015
 20
80.000015
 11
95.000015
 21
55.000015
  0
LINE
  8
0
 10
55.000015
 20
63.000015
 11
95.000015
 21
63.000015
  0
LINE
  8
0
  6
CENTER
 10
61.000015
 20
65.000015
 11
61.000015
 21
53.000015
  0
LINE
  8
0
  6
DASHED
 10
64.250015
 20
63.000015
 11
64.250015
 21
55.000015
  0
LINE
  8
0
  6
DASHED
 10
57.750015
 20
63.000015
 11
57.750015
 21
55.000015
  0
LINE
  8
0
  6
DASHED
 10
85.750015
 20
63.000015
 11
85.750015
 21
55.000015
  0
LINE
  8
0
  6
CENTER
 10
89.000015
 20
65.000015
 11
89.000015
 21
53.000015
  0
LINE
  8
0
  6
DASHED
 10
92.250015
 20
63.000015
 11
92.250015
 21
55.000015
  0
LINE
  8
0
  6
CENTER
 10
59.000015
 20
70.000015
 11
71.000015
 21
70.000015
  0
LINE
  8
0
  6
CENTER
 10
65.000015
 20
76.000015
 11
65.000015
 21
64.000015
  0
LINE
  8
0
 10
62.999977
 20
68.845291
 11
64.999977
 21
67.690590
  0
LINE
  8
0
 10
65.000008
 20
67.690620
 11
67.000008
 21
68.845322
  0
LINE
  8
0
 10
67.000000
 20
68.845322
 11
67.000000
 21
71.154724
  0
LINE
  8
0
 10
67.000000
 20
71.154686
 11
64.999985
 21
72.309395
  0
LINE
  8
0
 10
65.000000
 20
72.309418
 11
62.999985
 21
71.154709
  0
LINE
  8
0
 10
63.000015
 20
71.154709
 11
63.000015
 21
68.845306
  0
LINE
  8
0
 10
65.000015
 20
75.000015
 11
55.000015
 21
75.000015
  0
LINE
  8
0
 10
70.000015
 20
70.000015
 11
70.000015
 21
65.000015
  0
LINE
  8
0
  6
CENTER
 10
85.000015
 20
76.000015
 11
85.000015
 21
64.000015
  0
LINE
  8
0
 10
85.000015
 20
75.000015
 11
95.000015
 21
75.000015
  0
LINE
  8
0
 10
80.000015
 20
70.000015
 11
80.000015
 21
65.000015
  0
LINE
  8
0
  6
CENTER
 10
91.000015
 20
70.000015
 11
79.000015
 21
70.000015
  0
LINE
  8
0
 10
83.000031
 20
68.845322
 11
83.000031
 21
71.154724
  0
LINE
  8
0
 10
83.000008
 20
71.154709
 11
85.000015
 21
72.309410
  0
LINE
  8
0
 10
85.000069
 20
72.309486
 11
87.000069
 21
71.154785
  0
LINE
  8
0
 10
87.000015
 20
71.154709
 11
87.000015
 21
68.845306
  0
LINE
  8
0
 10
86.999992
 20
68.845329
 11
84.999992
 21
67.690628
  0
LINE
  8
0
 10
85.000061
 20
67.690689
 11
83.000061
 21
68.845398
  0
LINE
  8
0
  6
CENTER
 10
65.000015
 20
84.000015
 11
65.000015
 21
96.000015
  0
LINE
  8
0
 10
65.000015
 20
85.000015
 11
55.635101
 21
85.000015
  0
LINE
  8
0
 10
70.000015
 20
90.000015
 11
70.000015
 21
99.364929
  0
LINE
  8
0
  6
CENTER
 10
59.000015
 20
90.000015
 11
71.000015
 21
90.000015
  0
LINE
  8
0
 10
67.000000
 20
91.154709
 11
67.000000
 21
88.845306
  0
LINE
  8
0
 10
67.000046
 20
88.845345
 11
65.000038
 21
87.690651
  0
LINE
  8
0
 10
65.000008
 20
87.690613
 11
63.000000
 21
88.845306
  0
LINE
  8
0
 10
63.000015
 20
88.845322
 11
63.000015
 21
91.154724
  0
LINE
  8
0
 10
63.000031
 20
91.154709
 11
65.000031
 21
92.309418
  0
LINE
  8
0
 10
65.000015
 20
92.309402
 11
67.000008
 21
91.154709
  0
LINE
  8
0
  6
CENTER
 10
85.000015
 20
84.000015
 11
85.000015
 21
96.000015
  0
LINE
  8
0
 10
85.000015
 20
85.000015
 11
94.364929
 21
85.000015
  0
LINE
  8
0
 10
80.000015
 20
90.000015
 11
80.000015
 21
99.364929
  0
LINE
  8
0
  6
CENTER
 10
91.000015
 20
90.000015
 11
79.000015
 21
90.000015
  0
LINE
  8
0
 10
83.000031
 20
91.154709
 11
83.000031
 21
88.845306
  0
LINE
  8
0
 10
83.000038
 20
88.845314
 11
85.000046
 21
87.690620
  0
LINE
  8
0
 10
85.000008
 20
87.690636
 11
87.000008
 21
88.845322
  0
LINE
  8
0
 10
87.000015
 20
88.845322
 11
87.000015
 21
91.154724
  0
LINE
  8
0
 10
87.000000
 20
91.154716
 11
84.999992
 21
92.309433
  0
LINE
  8
0
 10
85.000015
 20
92.309418
 11
83.000000
 21
91.154701
  0
LINE
  8
0
 10
85.473740
 20
85.000015
 11
85.473740
 21
75.000015
  0
LINE
  8
0
 10
70.000015
 20
90.473740
 11
80.000015
 21
90.473740
  0
LINE
  8
0
 10
64.526291
 20
75.000015
 11
64.526291
 21
85.000015
  0
LINE
  8
0
  6
CENTER
 10
167.150055
 20
80.000053
 11
181.150055
 21
80.000053
  0
LINE
  8
0
 10
178.150055
 20
100.000053
 11
178.150055
 21
60.000053
  0
LINE
  8
0
 10
157.150024
 20
55.000053
 11
177.150055
 21
55.000053
  0
LINE
  8
0
 10
157.150024
 20
63.000053
 11
174.650055
 21
63.000053
  0
LINE
  8
0
 10
174.650055
 20
100.000053
 11
178.150055
 21
100.000053
  0
LINE
  8
0
 10
177.150055
 20
60.000053
 11
178.150055
 21
60.000053
  0
LINE
  8
0
 10
177.150055
 20
80.000053
 11
177.150055
 21
55.000053
  0
LINE
  8
0
 10
157.150055
 20
63.000053
 11
157.150055
 21
55.000053
  0
LINE
  8
0
 10
174.650055
 20
100.000053
 11
174.650055
 21
63.000053
  0
LINE
  8
0
 10
169.150055
 20
90.473778
 11
169.150055
 21
65.000053
  0
LINE
  8
0
 10
174.650131
 20
100.000015
 11
171.330368
 21
94.250031
  0
LINE
  8
0
  6
CENTER
 10
163.150055
 20
65.000053
 11
163.150055
 21
53.000053
  0
LINE
  8
0
  6
DASHED
 10
166.400055
 20
63.000053
 11
166.400055
 21
55.000053
  0
LINE
  8
0
  6
DASHED
 10
159.900055
 20
63.000053
 11
159.900055
 21
55.000053
  0
LINE
  8
0
  6
CENTER
 10
167.650055
 20
70.000053
 11
181.150055
 21
70.000053
  0
LINE
  8
0
 10
169.650055
 20
74.250053
 11
174.650055
 21
74.250053
  0
LINE
  8
0
 10
169.650055
 20
65.750053
 11
174.650055
 21
65.750053
  0
LINE
  8
0
 10
169.650055
 20
74.250053
 11
169.650055
 21
65.750053
  0
LINE
  8
0
 10
169.650055
 20
85.750053
 11
174.650055
 21
85.750053
  0
LINE
  8
0
  6
CENTER
 10
167.650055
 20
90.000053
 11
181.150055
 21
90.000053
  0
LINE
  8
0
 10
169.650055
 20
94.250053
 11
174.650055
 21
94.250053
  0
LINE
  8
0
 10
169.650055
 20
85.750053
 11
169.650055
 21
94.250053
  0
LINE
  8
0
 10
169.650131
 20
91.339775
 11
169.150131
 21
90.473747
  0
LINE
  8
0
 10
169.150055
 20
85.000053
 11
174.650055
 21
85.000053
  0
LINE
  8
0
 10
169.150055
 20
75.000053
 11
174.650055
 21
75.000053
  0
LINE
  8
0
  6
CENTER
 10
337.247223
 20
108.000015
 11
337.247223
 21
47.000015
  0
LINE
  8
0
  6
CENTER
 10
309.247223
 20
80.000015
 11
365.247223
 21
80.000015
  0
LINE
  8
0
 10
312.247223
 20
50.000015
 11
362.247223
 21
50.000015
  0
LINE
  8
0
 10
312.247223
 20
80.000015
 11
312.247223
 21
50.000015
  0
LINE
  8
0
 10
362.247223
 20
80.000015
 11
362.247223
 21
50.000015
  0
LINE
  8
0
 10
312.247223
 20
59.000015
 11
362.247223
 21
59.000015
  0
LINE
  8
0
  6
CENTER
 10
320.247223
 20
61.000015
 11
320.247223
 21
48.000015
  0
LINE
  8
0
  6
DASHED
 10
324.747223
 20
59.000015
 11
324.747223
 21
50.000015
  0
LINE
  8
0
  6
DASHED
 10
315.747223
 20
59.000015
 11
315.747223
 21
50.000015
  0
LINE
  8
0
  6
DASHED
 10
349.747223
 20
59.000015
 11
349.747223
 21
50.000015
  0
LINE
  8
0
  6
CENTER
 10
354.247223
 20
61.000015
 11
354.247223
 21
48.000015
  0
LINE
  8
0
  6
DASHED
 10
358.747223
 20
59.000015
 11
358.747223
 21
50.000015
  0
LINE
  8
0
  6
CENTER
 10
324.247223
 20
74.000015
 11
324.247223
 21
60.000015
  0
LINE
  8
0
  6
CENTER
 10
317.247223
 20
67.000015
 11
331.247223
 21
67.000015
  0
LINE
  8
0
 10
321.747223
 20
65.556610
 11
324.247223
 21
64.113235
  0
LINE
  8
0
 10
324.247223
 20
64.113243
 11
326.747223
 21
65.556618
  0
LINE
  8
0
 10
326.747192
 20
65.556641
 11
326.747192
 21
68.443390
  0
LINE
  8
0
 10
326.747253
 20
68.443367
 11
324.247253
 21
69.886742
  0
LINE
  8
0
 10
324.247284
 20
69.886734
 11
321.747284
 21
68.443359
  0
LINE
  8
0
 10
321.747192
 20
68.443405
 11
321.747192
 21
65.556656
  0
LINE
  8
0
 10
324.247223
 20
73.000015
 11
312.247223
 21
73.000015
  0
LINE
  8
0
 10
330.247223
 20
67.000015
 11
330.247223
 21
61.000015
  0
LINE
  8
0
  6
CENTER
 10
350.247223
 20
74.000015
 11
350.247223
 21
60.000015
  0
LINE
  8
0
 10
350.247223
 20
73.000015
 11
362.247223
 21
73.000015
  0
LINE
  8
0
 10
344.247223
 20
67.000015
 11
344.247223
 21
61.000015
  0
LINE
  8
0
  6
CENTER
 10
357.247223
 20
67.000015
 11
343.247223
 21
67.000015
  0
LINE
  8
0
 10
347.747223
 20
65.556641
 11
347.747223
 21
68.443390
  0
LINE
  8
0
 10
347.747162
 20
68.443474
 11
350.247162
 21
69.886848
  0
LINE
  8
0
 10
350.247192
 20
69.886787
 11
352.747162
 21
68.443420
  0
LINE
  8
0
 10
352.747253
 20
68.443405
 11
352.747253
 21
65.556656
  0
LINE
  8
0
 10
352.747101
 20
65.556679
 11
350.247101
 21
64.113304
  0
LINE
  8
0
 10
350.247192
 20
64.113258
 11
347.747162
 21
65.556648
  0
LINE
  8
0
  6
CENTER
 10
324.247223
 20
86.000015
 11
324.247223
 21
100.000015
  0
LINE
  8
0
 10
324.247223
 20
87.000015
 11
313.247223
 21
87.000015
  0
LINE
  8
0
 10
330.247223
 20
93.000015
 11
330.247223
 21
104.000015
  0
LINE
  8
0
  6
CENTER
 10
317.247223
 20
93.000015
 11
331.247223
 21
93.000015
  0
LINE
  8
0
 10
326.747192
 20
94.443390
 11
326.747192
 21
91.556641
  0
LINE
  8
0
 10
326.747162
 20
91.556664
 11
324.247162
 21
90.113281
  0
LINE
  8
0
 10
324.247253
 20
90.113266
 11
321.747253
 21
91.556648
  0
LINE
  8
0
 10
321.747192
 20
91.556625
 11
321.747192
 21
94.443375
  0
LINE
  8
0
 10
321.747162
 20
94.443443
 11
324.247162
 21
95.886818
  0
LINE
  8
0
 10
324.247192
 20
95.886734
 11
326.747192
 21
94.443367
  0
LINE
  8
0
  6
CENTER
 10
350.247223
 20
86.000015
 11
350.247223
 21
100.000015
  0
LINE
  8
0
 10
350.247223
 20
87.000015
 11
361.247223
 21
87.000015
  0
LINE
  8
0
 10
344.247223
 20
93.000015
 11
344.247223
 21
104.000015
  0
LINE
  8
0
  6
CENTER
 10
357.247223
 20
93.000015
 11
343.247223
 21
93.000015
  0
LINE
  8
0
 10
347.747223
 20
94.443390
 11
347.747223
 21
91.556641
  0
LINE
  8
0
 10
347.747162
 20
91.556648
 11
350.247162
 21
90.113289
  0
LINE
  8
0
 10
350.247253
 20
90.113228
 11
352.747253
 21
91.556602
  0
LINE
  8
0
 10
352.747253
 20
91.556625
 11
352.747253
 21
94.443375
  0
LINE
  8
0
 10
352.747131
 20
94.443390
 11
350.247131
 21
95.886765
  0
LINE
  8
0
 10
350.247131
 20
95.886772
 11
347.747131
 21
94.443413
  0
LINE
  8
0
 10
350.988892
 20
87.000015
 11
350.988892
 21
73.000015
  0
LINE
  8
0
 10
330.247223
 20
93.741684
 11
344.247223
 21
93.741684
  0
LINE
  8
0
 10
323.505554
 20
73.000015
 11
323.505554
 21
87.000015
  0
LINE
  8
0
  6
CENTER
 10
439.067108
 20
80.000069
 11
455.067108
 21
80.000069
  0
LINE
  8
0
 10
452.067139
 20
105.000069
 11
452.067139
 21
55.000069
  0
LINE
  8
0
 10
442.067139
 20
93.741737
 11
442.067139
 21
61.000069
  0
LINE
  8
0
 10
448.567108
 20
105.000069
 11
452.067108
 21
105.000069
  0
LINE
  8
0
 10
425.067108
 20
59.000069
 11
448.567108
 21
59.000069
  0
LINE
  8
0
 10
425.067108
 20
50.000076
 11
451.067108
 21
50.000076
  0
LINE
  8
0
 10
425.067139
 20
59.000061
 11
425.067139
 21
50.000061
  0
LINE
  8
0
 10
451.067139
 20
80.000069
 11
451.067139
 21
50.000076
  0
LINE
  8
0
 10
451.067108
 20
55.000069
 11
452.067108
 21
55.000069
  0
LINE
  8
0
 10
448.567139
 20
105.000069
 11
448.567139
 21
59.000069
  0
LINE
  8
0
 10
448.567291
 20
105.000015
 11
444.525848
 21
98.000031
  0
LINE
  8
0
 10
442.067108
 20
87.000069
 11
448.567108
 21
87.000069
  0
LINE
  8
0
 10
442.067108
 20
73.000069
 11
448.567108
 21
73.000069
  0
LINE
  8
0
  6
CENTER
 10
439.567108
 20
67.000069
 11
455.067108
 21
67.000069
  0
LINE
  8
0
 10
442.567108
 20
72.000069
 11
448.567108
 21
72.000069
  0
LINE
  8
0
 10
442.567108
 20
62.000069
 11
448.567108
 21
62.000069
  0
LINE
  8
0
 10
442.567139
 20
72.000069
 11
442.567139
 21
62.000069
  0
LINE
  8
0
 10
442.567108
 20
88.000069
 11
448.567108
 21
88.000069
  0
LINE
  8
0
  6
CENTER
 10
439.567108
 20
93.000069
 11
455.067108
 21
93.000069
  0
LINE
  8
0
 10
442.567108
 20
98.000069
 11
448.567108
 21
98.000069
  0
LINE
  8
0
 10
442.567139
 20
88.000069
 11
442.567139
 21
98.000069
  0
LINE
  8
0
 10
442.567291
 20
94.607712
 11
442.067291
 21
93.741684
  0
LINE
  8
0
  6
CENTER
 10
433.067139
 20
61.000069
 11
433.067139
 21
48.000076
  0
LINE
  8
0
  6
DASHED
 10
437.567139
 20
59.000069
 11
437.567139
 21
50.000076
  0
LINE
  8
0
  6
DASHED
 10
428.567139
 20
59.000061
 11
428.567139
 21
50.000061
  0
CIRCLE
  8
0
 10
44.999878
 20
245.000061
 40
3.250000
  0
ARC
  8
0
 10
40.499878
 20
237.000061
 40
2.000000
 50
270.000000
 51
0.000000
  0
ARC
  8
0
 10
49.499878
 20
237.000061
 40
2.000000
 50
180.000000
 51
270.000000
  0
ARC
  8
0
 10
50.999878
 20
239.000061
 40
3.500000
 50
90.000000
 51
180.000000
  0
ARC
  8
0
 10
38.999878
 20
251.000061
 40
3.500000
 50
270.000000
 51
0.000000
  0
ARC
  8
0
 10
50.999878
 20
251.000061
 40
3.500000
 50
180.000000
 51
270.000000
  0
ARC
  8
0
 10
38.999878
 20
239.000061
 40
3.500000
 50
0.000000
 51
90.000000
  0
ARC
  8
0
 10
44.999878
 20
245.000061
 40
11.000003
 50
151.555328
 51
180.000000
  0
ARC
  8
0
 10
38.999878
 20
251.000061
 40
3.750003
 50
78.297745
 51
191.702148
  0
ARC
  8
0
 10
50.999878
 20
251.000061
 40
3.749997
 50
348.297852
 51
101.702255
  0
ARC
  8
0
 10
44.999878
 20
245.000061
 40
11.000000
 50
0.000000
 51
28.444603
  0
CIRCLE
  8
0
 10
50.999878
 20
251.000061
 40
2.750000
  0
CIRCLE
  8
0
 10
38.999878
 20
251.000061
 40
2.750000
  0
CIRCLE
  8
0
 10
50.999878
 20
239.000061
 40
2.750000
  0
CIRCLE
  8
0
 10
38.999878
 20
239.000061
 40
2.750000
  0
ARC
  8
0
 10
44.999878
 20
245.000061
 40
11.000002
 50
61.555370
 51
118.444626
  0
ARC
  8
0
 10
117.699951
 20
237.000122
 40
2.000000
 50
269.999359
 51
359.999115
  0
CIRCLE
  8
0
 10
214.831467
 20
245.000061
 40
4.250000
  0
ARC
  8
0
 10
210.331467
 20
235.000061
 40
2.000000
 50
270.000000
 51
0.000000
  0
ARC
  8
0
 10
219.331467
 20
235.000061
 40
2.000000
 50
180.000000
 51
270.000000
  0
ARC
  8
0
 10
221.831467
 20
238.000061
 40
4.500000
 50
90.000000
 51
180.000000
  0
ARC
  8
0
 10
221.831467
 20
252.000061
 40
4.500000
 50
180.000000
 51
270.000000
  0
ARC
  8
0
 10
207.831467
 20
252.000061
 40
4.500000
 50
270.000000
 51
0.000000
  0
ARC
  8
0
 10
207.831467
 20
238.000061
 40
4.500000
 50
0.000000
 51
90.000000
  0
CIRCLE
  8
0
 10
221.831467
 20
252.000061
 40
3.500000
  0
CIRCLE
  8
0
 10
207.831467
 20
252.000061
 40
3.500000
  0
CIRCLE
  8
0
 10
221.831467
 20
238.000061
 40
3.500000
  0
CIRCLE
  8
0
 10
207.831467
 20
238.000061
 40
3.500000
  0
ARC
  8
0
 10
214.831467
 20
245.000061
 40
14.000000
 50
0.000000
 51
179.999939
  0
ARC
  8
0
 10
293.931458
 20
235.000061
 40
2.000000
 50
270.000000
 51
0.000000
  0
ARC
  8
0
 10
389.662964
 20
234.000046
 40
2.000000
 50
270.000000
 51
0.000000
  0
ARC
  8
0
 10
399.662964
 20
234.000046
 40
2.000000
 50
180.000000
 51
270.000000
  0
ARC
  8
0
 10
394.662964
 20
245.000046
 40
16.000000
 50
0.000000
 51
179.999939
  0
CIRCLE
  8
0
 10
394.662964
 20
245.000046
 40
5.250000
  0
CIRCLE
  8
0
 10
386.662964
 20
237.000046
 40
4.250000
  0
ARC
  8
0
 10
386.662964
 20
237.000046
 40
5.000000
 50
0.000000
 51
90.000000
  0
ARC
  8
0
 10
402.662964
 20
237.000046
 40
5.000000
 50
90.000000
 51
180.000000
  0
CIRCLE
  8
0
 10
402.662964
 20
237.000046
 40
4.250000
  0
ARC
  8
0
 10
386.662964
 20
253.000046
 40
5.000000
 50
270.000000
 51
0.000000
  0
CIRCLE
  8
0
 10
386.662964
 20
253.000046
 40
4.250000
  0
ARC
  8
0
 10
402.662964
 20
253.000046
 40
5.000000
 50
180.000000
 51
270.000000
  0
CIRCLE
  8
0
 10
402.662964
 20
253.000046
 40
4.250000
  0
ARC
  8
0
 10
478.103333
 20
234.000076
 40
2.000000
 50
270.000000
 51
0.000000
  0
CIRCLE
  8
0
 10
85.000015
 20
90.000015
 40
4.250000
  0
ARC
  8
0
 10
85.000015
 20
90.000015
 40
5.000000
 50
180.000000
 51
270.000000
  0
ARC
  8
0
 10
75.000015
 20
80.000015
 40
20.000000
 50
0.000000
 51
179.999954
  0
CIRCLE
  8
0
 10
75.000015
 20
80.000015
 40
6.250000
  0
CIRCLE
  8
0
 10
65.000015
 20
70.000015
 40
4.250000
  0
ARC
  8
0
 10
65.000015
 20
70.000015
 40
5.000000
 50
0.000000
 51
90.000000
  0
ARC
  8
0
 10
85.000015
 20
70.000015
 40
5.000000
 50
90.000000
 51
180.000000
  0
CIRCLE
  8
0
 10
85.000015
 20
70.000015
 40
4.250000
  0
ARC
  8
0
 10
65.000015
 20
90.000015
 40
5.000000
 50
270.000000
 51
359.999908
  0
CIRCLE
  8
0
 10
65.000015
 20
90.000015
 40
4.250000
  0
ARC
  8
0
 10
167.150055
 20
65.000053
 40
2.000000
 50
270.000000
 51
0.000000
  0
ARC
  8
0
 10
328.247223
 20
61.000015
 40
2.000000
 50
270.000000
 51
0.000000
  0
ARC
  8
0
 10
346.247223
 20
61.000015
 40
2.000000
 50
180.000000
 51
270.000000
  0
ARC
  8
0
 10
337.247223
 20
80.000015
 40
25.000000
 50
0.000000
 51
179.999969
  0
CIRCLE
  8
0
 10
337.247223
 20
80.000015
 40
8.250000
  0
CIRCLE
  8
0
 10
324.247223
 20
67.000015
 40
5.000000
  0
ARC
  8
0
 10
324.247223
 20
67.000015
 40
6.000000
 50
0.000000
 51
90.000000
  0
ARC
  8
0
 10
350.247223
 20
67.000015
 40
6.000000
 50
90.000000
 51
180.000000
  0
CIRCLE
  8
0
 10
350.247223
 20
67.000015
 40
5.000000
  0
ARC
  8
0
 10
324.247223
 20
93.000015
 40
6.000000
 50
270.000000
 51
359.999939
  0
CIRCLE
  8
0
 10
324.247223
 20
93.000015
 40
5.000000
  0
ARC
  8
0
 10
350.247223
 20
93.000015
 40
6.000000
 50
180.000000
 51
270.000000
  0
CIRCLE
  8
0
 10
350.247223
 20
93.000015
 40
5.000000
  0
ARC
  8
0
 10
440.067139
 20
61.000069
 40
2.000000
 50
270.000000
 51
0.000000
  0
ARC
  8
0
 10
82.000015
 20
65.000015
 40
2.000000
 50
180.000000
 51
270.000000
  0
ARC
  8
0
 10
68.000015
 20
65.000015
 40
2.000000
 50
270.000000
 51
0.000000
  0
TEXT
  8
0
 10
422.460297
 20
345.487762
 40
6.000000
  1
DATE : JAN ,1992
 50
0.000000
 41
1.052631
 51
0.000000
  7
STANDARD
  0
TEXT
  8
0
 10
10.750001
 20
319.475342
 40
7.000000
  1
BORE : 16
 50
0.000000
 41
1.052632
 51
0.000000
  7
STANDARD
  0
TEXT
  8
0
 10
185.581482
 20
319.475342
 40
7.000000
  1
BORE : 20
 50
0.000000
 41
1.052632
 51
0.000000
  7
STANDARD
  0
TEXT
  8
0
 10
360.412964
 20
319.475342
 40
7.000000
  1
BORE : 25
 50
0.000000
 41
1.052632
 51
0.000000
  7
STANDARD
  0
TEXT
  8
0
 10
272.997223
 20
159.700043
 40
7.000000
  1
BORE : 40
 50
0.000000
 41
1.052632
 51
0.000000
  7
STANDARD
  0
TEXT
  8
0
 10
10.750001
 20
159.700043
 40
7.000000
  1
BORE : 32
 50
0.000000
 41
1.052632
 51
0.000000
  7
STANDARD
  0
TEXT
  8
0
 10
2.977783
 20
344.587769
 40
7.000000
  1
TWIN PORT FOOT MOUNT,-1A
 50
0.000000
 41
0.634115
 51
0.000000
  7
STANDARD
  0
TEXT
  8
0
 10
427.811859
 20
4.812350
 40
7.000000
  1
KOGANEI,CORP
 50
0.000000
 41
1.052632
 51
0.000000
  7
STANDARD
  0
ENDSEC
  0
EOF
