  0
SECTION
  2
HEADER
  0
ENDSEC
  0
SECTION
  2
TABLES
  0
TABLE
  2
LTYPE
 70
     4
  0
LTYPE
  2
CONTINUOUS
 70
    64
  3
Solid line
 72
    65
 73
     0
 40
0.000000
  0
LTYPE
  2
DASHED
 70
    64
  3
__ __ __ __ __ __ __ __ __ __ __ __ __ __ __
 72
    65
 73
     2
 40
3.500000
 49
2.000000
 49
-1.500000
  0
LTYPE
  2
CENTER
 70
    64
  3
____ _ ____ _ ____ _ ____ _ ____ _ ____ _ ____
 72
    65
 73
     4
 40
17.500000
 49
13.000000
 49
-1.500000
 49
1.500000
 49
-1.500000
  0
LTYPE
  2
PHANTOM
 70
    64
  3
_____ _ _ _____ _ _ _____ _ _ _____ _ _ ____  
 72
    65
 73
     6
 40
15.500000
 49
8.000000
 49
-1.500000
 49
1.500000
 49
-1.500000
 49
1.500000
 49
-1.500000
  0
LTYPE
  2
DASHED1
 70
    64
  3
__ __ __ __ __ __ __ __ __ __ __ __ __ __ __
 72
    65
 73
     2
 40
1.500000
 49
1.000000
 49
-0.500000
  0
LTYPE
  2
DASHED2
 70
    64
  3
__ __ __ __ __ __ __ __ __ __ __ __ __ __ __
 72
    65
 73
     2
 40
3.500000
 49
2.500000
 49
-1.000000
  0
LTYPE
  2
DASHED3
 70
    64
  3
__ __ __ __ __ __ __ __ __ __ __ __ __ __ __
 72
    65
 73
     2
 40
6.000000
 49
4.000000
 49
-2.000000
  0
LTYPE
  2
DASHED4
 70
    64
  3
__ __ __ __ __ __ __ __ __ __ __ __ __ __ __
 72
    65
 73
     2
 40
12.000000
 49
10.000000
 49
-2.000000
  0
LTYPE
  2
DASHED5
 70
    64
  3
__ __ __ __ __ __ __ __ __ __ __ __ __ __ __
 72
    65
 73
     2
 40
17.000000
 49
15.000000
 49
-2.000000
  0
LTYPE
  2
DASHED6
 70
    64
  3
__ __ __ __ __ __ __ __ __ __ __ __ __ __ __
 72
    65
 73
     2
 40
29.000000
 49
27.000000
 49
-2.000000
  0
LTYPE
  2
PHANTOM1
 70
    64
  3
_____ _ _ _____ _ _ _____ _ _ _____ _ _ ____  
 72
    65
 73
     6
 40
31.000000
 49
25.000000
 49
-1.500000
 49
1.000000
 49
-1.000000
 49
1.000000
 49
-1.500000
  0
LTYPE
  2
PHANTOM2
 70
    64
  3
_____ _ _ _____ _ _ _____ _ _ _____ _ _ ____  
 72
    65
 73
     6
 40
36.000000
 49
27.000000
 49
-1.500000
 49
2.500000
 49
-1.000000
 49
2.500000
 49
-1.500000
  0
LTYPE
  2
PHANTOM3
 70
    64
  3
_____ _ _ _____ _ _ _____ _ _ _____ _ _ ____  
 72
    65
 73
     6
 40
78.000000
 49
64.000000
 49
-2.000000
 49
4.000000
 49
-2.000000
 49
4.000000
 49
-2.000000
  0
LTYPE
  2
CENTER1
 70
    64
  3
____ _ ____ _ ____ _ ____ _ ____ _ ____ _ ____
 72
    65
 73
     4
 40
19.000000
 49
14.000000
 49
-1.000000
 49
3.000000
 49
-1.000000
  0
LTYPE
  2
CENTER2
 70
    64
  3
____ _ ____ _ ____ _ ____ _ ____ _ ____ _ ____
 72
    65
 73
     4
 40
28.500000
 49
25.000000
 49
-1.000000
 49
1.500000
 49
-1.000000
  0
LTYPE
  2
CENTER3
 70
    64
  3
____ _ ____ _ ____ _ ____ _ ____ _ ____ _ ____
 72
    65
 73
     4
 40
31.500000
 49
27.000000
 49
-1.000000
 49
2.500000
 49
-1.000000
  0
LTYPE
  2
CENTER4
 70
    64
  3
____ _ ____ _ ____ _ ____ _ ____ _ ____ _ ____
 72
    65
 73
     4
 40
50.000000
 49
45.000000
 49
-1.000000
 49
3.000000
 49
-1.000000
  0
LTYPE
  2
CENTER5
 70
    64
  3
____ _ ____ _ ____ _ ____ _ ____ _ ____ _ ____
 72
    65
 73
     4
 40
100.000000
 49
92.000000
 49
-2.000000
 49
4.000000
 49
-2.000000
  0
LTYPE
  2
SBK1
 70
    64
  3
______ _ _ _ ______ _ _ _ ______ _ _ _ _____  
 72
    65
 73
     8
 40
60.500000
 49
45.000000
 49
-2.000000
 49
2.500000
 49
-2.000000
 49
2.500000
 49
-2.000000
 49
2.500000
 49
-2.000000
  0
LTYPE
  2
SBK2
 70
    64
  3
______ _ _ _ ______ _ _ _ ______ _ _ _ _____  
 72
    65
 73
     8
 40
84.000000
 49
64.000000
 49
-2.000000
 49
4.000000
 49
-2.000000
 49
4.000000
 49
-2.000000
 49
4.000000
 49
-2.000000
  0
LTYPE
  2
STCH
 70
    64
  3
__ __ __ __ __ __ __ __ __ __ __ __ __ __ __
 72
    65
 73
     2
 40
3.000000
 49
1.000000
 49
-2.000000
  0
LTYPE
  2
MTCH
 70
    64
  3
_____ _ _ _____ _ _ _____ _ _ _____ _ _ ____  
 72
    65
 73
     6
 40
80.000000
 49
66.000000
 49
-2.000000
 49
4.000000
 49
-2.000000
 49
4.000000
 49
-2.000000
  0
ENDTAB
  0
TABLE
  2
LAYER
 70
     1
  0
LAYER
  2
0
 70
     0
 62
     7
  6
CONTINUOUS
  0
ENDTAB
  0
TABLE
  2
STYLE
 70
     1
  0
STYLE
  2
STANDARD
 70
     0
 40
0.000000
 41
1.000000
 50
0.000000
 71
     0
 42
0.200000
  3
txt
  4
BIGFONT
  0
ENDTAB
  0
TABLE
  2
VIEW
 70
     0
  0
ENDTAB
  0
ENDSEC
  0
SECTION
  2
BLOCKS
  0
ENDSEC
  0
SECTION
  2
ENTITIES
  0
LINE
  8
0
 10
-194.250000
 20
132.600006
 11
194.800003
 21
132.600006
  0
LINE
  8
0
 10
194.800003
 20
132.600006
 11
194.800003
 21
-133.500000
  0
LINE
  8
0
 10
-194.250000
 20
132.600006
 11
-194.250000
 21
-133.500000
  0
LINE
  8
0
 10
-194.250000
 20
-133.500000
 11
194.800003
 21
-133.500000
  0
LINE
  8
0
 10
109.800003
 20
-118.500000
 11
109.800003
 21
-133.500000
  0
LINE
  8
0
 10
109.800003
 20
-118.500000
 11
194.800003
 21
-118.500000
  0
LINE
  8
0
 10
109.800003
 20
132.600006
 11
109.800003
 21
117.600006
  0
LINE
  8
0
 10
109.800003
 20
117.600006
 11
194.800003
 21
117.600006
  0
LINE
  8
0
 10
-194.250000
 20
117.600006
 11
-109.250000
 21
117.600006
  0
LINE
  8
0
 10
-109.250000
 20
132.600006
 11
-109.250000
 21
117.600006
  0
LINE
  8
0
  6
DASHED
 62
     4
 10
-77.096405
 20
-61.709518
 11
-55.096405
 21
-61.709518
  0
LINE
  8
0
  6
DASHED
 62
     4
 10
-77.096405
 20
-65.809525
 11
-55.096405
 21
-65.809525
  0
LINE
  8
0
  6
DASHED
 62
     4
 10
-77.096405
 20
-61.709518
 11
-77.096405
 21
-62.159523
  0
LINE
  8
0
  6
DASHED
 62
     4
 10
-55.096405
 20
-61.709518
 11
-55.096405
 21
-62.159523
  0
LINE
  8
0
  6
DASHED
 62
     4
 10
-77.096405
 20
-65.359520
 11
-77.096405
 21
-65.809525
  0
LINE
  8
0
  6
DASHED
 62
     4
 10
-55.096405
 20
-65.359520
 11
-55.096405
 21
-65.809525
  0
LINE
  8
0
  6
DASHED
 62
     4
 10
59.714737
 20
-60.759506
 11
76.628716
 21
-60.759506
  0
LINE
  8
0
  6
DASHED
 62
     4
 10
59.714737
 20
-56.659515
 11
76.628716
 21
-56.659515
  0
LINE
  8
0
  6
DASHED
 62
     4
 10
59.714737
 20
-57.109512
 11
59.714737
 21
-56.659515
  0
LINE
  8
0
  6
DASHED
 62
     4
 10
59.714737
 20
-60.309509
 11
59.714737
 21
-60.759506
  0
LINE
  8
0
  6
DASHED
 62
     4
 10
-77.096405
 20
-106.309525
 11
-55.096405
 21
-106.309525
  0
LINE
  8
0
  6
DASHED
 62
     4
 10
-72.396393
 20
-110.909523
 11
-55.096405
 21
-110.909523
  0
LINE
  8
0
  6
DASHED
 62
     4
 10
-55.096405
 20
-106.309525
 11
-55.096405
 21
-110.909523
  0
LINE
  8
0
  6
DASHED
 62
     4
 10
-77.096405
 20
-108.109520
 11
-77.096405
 21
-106.309525
  0
LINE
  8
0
  6
DASHED
 62
     4
 10
-72.396393
 20
-109.351486
 11
-72.396393
 21
-110.909523
  0
LINE
  8
0
  6
DASHED
 62
     4
 10
-77.096405
 20
-108.109520
 11
-72.846390
 21
-108.109520
  0
LINE
  8
0
  6
DASHED
 62
     4
 10
-72.846390
 20
-108.109520
 11
-72.846390
 21
-109.351486
  0
LINE
  8
0
  6
DASHED
 62
     4
 10
-73.096390
 20
-108.109520
 11
-73.096390
 21
-108.909523
  0
LINE
  8
0
  6
DASHED
 62
     4
 10
-77.096405
 20
-108.109520
 11
-77.096405
 21
-108.909523
  0
LINE
  8
0
  6
DASHED
 62
     4
 10
-77.096405
 20
-108.909523
 11
-73.096390
 21
-108.909523
  0
LINE
  8
0
  6
DASHED
 62
     4
 10
-72.896393
 20
-108.109520
 11
-72.896393
 21
-110.109520
  0
LINE
  8
0
  6
DASHED
 62
     4
 10
-72.896393
 20
-110.109520
 11
-72.396393
 21
-110.109520
  0
LINE
  8
0
  6
DASHED
 62
     4
 10
-72.846390
 20
-109.351486
 11
-72.396393
 21
-109.351486
  0
LINE
  8
0
  6
DASHED
 62
     4
 10
-46.596375
 20
-107.309509
 11
-46.596375
 21
-109.909515
  0
LINE
  8
0
  6
CENTER
 62
     1
 10
-48.319275
 20
-108.159439
 11
-36.387207
 21
-108.159439
  0
LINE
  8
0
  6
CENTER
 62
     1
 10
-48.268982
 20
-109.059433
 11
-36.345337
 21
-109.059433
  0
LINE
  8
0
  6
DASHED
 62
     4
 10
-36.596375
 20
-107.909454
 11
-36.596375
 21
-108.409454
  0
LINE
  8
0
  6
DASHED
 62
     4
 10
-36.596375
 20
-108.809448
 11
-36.596375
 21
-109.309448
  0
LINE
  8
0
  6
DASHED
 62
     4
 10
-39.596375
 20
-107.709442
 11
-39.596375
 21
-109.509460
  0
LINE
  8
0
  6
DASHED
 62
     4
 10
-46.596375
 20
-109.509445
 11
-42.590820
 21
-109.509445
  0
LINE
  8
0
  6
DASHED
 62
     4
 10
-46.596375
 20
-108.609421
 11
-43.110413
 21
-108.609421
  0
LINE
  8
0
  6
DASHED
 62
     4
 10
-41.610413
 20
-108.609421
 11
-39.596375
 21
-108.609421
  0
LINE
  8
0
  6
DASHED
 62
     4
 10
-41.090820
 20
-109.509445
 11
-39.596375
 21
-109.509445
  0
LINE
  8
0
  6
DASHED
 62
     4
 10
-46.596375
 20
-107.709427
 11
-43.630066
 21
-107.709427
  0
LINE
  8
0
  6
DASHED
 62
     4
 10
-42.130066
 20
-107.709427
 11
-39.596375
 21
-107.709427
  0
LINE
  8
0
  6
DASHED
 62
     4
 10
-39.596375
 20
-107.909439
 11
-36.596375
 21
-107.909439
  0
LINE
  8
0
  6
DASHED
 62
     4
 10
-39.596375
 20
-108.409439
 11
-36.596375
 21
-108.409439
  0
LINE
  8
0
  6
DASHED
 62
     4
 10
-39.596375
 20
-108.809433
 11
-36.596375
 21
-108.809433
  0
LINE
  8
0
  6
DASHED
 62
     4
 10
-39.596375
 20
-109.309433
 11
-36.596375
 21
-109.309433
  0
LINE
  8
0
 62
     1
 10
-42.860394
 20
-106.444519
 11
-40.360394
 21
-110.774651
  0
LINE
  8
0
  6
CENTER
 62
     1
 10
-56.410767
 20
-108.609512
 11
-46.596375
 21
-108.609512
  0
LINE
  8
0
 62
     1
 10
-44.360474
 20
-106.444496
 11
-41.860474
 21
-110.774628
  0
LINE
  8
0
 62
     1
 10
-51.841171
 20
-106.444489
 11
-49.341171
 21
-110.774612
  0
LINE
  8
0
 62
     1
 10
-53.341122
 20
-106.444542
 11
-50.841122
 21
-110.774666
  0
LINE
  8
0
  6
DASHED
 62
     4
 10
-76.121399
 20
-110.309525
 11
-74.071396
 21
-110.309525
  0
LINE
  8
0
  6
DASHED
 62
     4
 10
-74.070976
 20
-110.309975
 11
-73.845985
 21
-110.084976
  0
LINE
  8
0
  6
DASHED
 62
     4
 10
-76.121346
 20
-110.309532
 11
-76.346336
 21
-110.084534
  0
LINE
  8
0
  6
DASHED
 62
     4
 10
-76.346390
 20
-108.908707
 11
-76.346390
 21
-110.084526
  0
LINE
  8
0
 62
     1
 10
-76.121399
 20
-108.908707
 11
-76.121399
 21
-110.309525
  0
LINE
  8
0
 62
     1
 10
-74.071396
 20
-108.908707
 11
-74.071396
 21
-110.309525
  0
LINE
  8
0
  6
DASHED
 62
     4
 10
-73.846390
 20
-108.908707
 11
-73.846390
 21
-110.084518
  0
LINE
  8
0
  6
DASHED
 62
     4
 10
-76.346390
 20
-110.084526
 11
-73.846390
 21
-110.084526
  0
LINE
  8
0
  6
DASHED
 62
     4
 10
-77.096405
 20
-107.309525
 11
-55.096405
 21
-107.309525
  0
LINE
  8
0
  6
DASHED
 62
     4
 10
-77.096405
 20
-106.759506
 11
-55.096405
 21
-106.759506
  0
LINE
  8
0
  6
DASHED
 62
     4
 10
-55.096405
 20
-107.309509
 11
-52.841705
 21
-107.309509
  0
LINE
  8
0
  6
DASHED
 62
     4
 10
-55.096405
 20
-109.909515
 11
-51.340607
 21
-109.909515
  0
LINE
  8
0
  6
DASHED
 62
     4
 10
-51.341675
 20
-107.309509
 11
-46.596375
 21
-107.309509
  0
LINE
  8
0
  6
DASHED
 62
     4
 10
-49.840576
 20
-109.909515
 11
-46.596375
 21
-109.909515
  0
LINE
  8
0
  6
DASHED
 62
     4
 10
59.714737
 20
-106.309525
 11
75.814743
 21
-106.309525
  0
LINE
  8
0
  6
DASHED
 62
     4
 10
64.414719
 20
-110.909523
 11
81.714737
 21
-110.909523
  0
LINE
  8
0
  6
DASHED
 62
     4
 10
59.714737
 20
-108.909523
 11
59.714737
 21
-106.309525
  0
LINE
  8
0
  6
DASHED
 62
     4
 10
64.414719
 20
-109.291679
 11
64.414719
 21
-110.909523
  0
LINE
  8
0
  6
CENTER
 62
     1
 10
61.714737
 20
-105.579269
 11
61.714737
 21
-111.482193
  0
LINE
  8
0
  6
DASHED
 62
     4
 10
59.714737
 20
-108.109528
 11
63.988541
 21
-108.109528
  0
LINE
  8
0
  6
DASHED
 62
     4
 10
59.714737
 20
-108.909523
 11
63.714737
 21
-108.909523
  0
LINE
  8
0
  6
DASHED
 62
     4
 10
63.714737
 20
-108.109520
 11
63.714737
 21
-108.909523
  0
LINE
  8
0
  6
DASHED
 62
     4
 10
63.914719
 20
-110.109528
 11
64.414719
 21
-110.109528
  0
LINE
  8
0
  6
DASHED
 62
     4
 10
63.914719
 20
-108.109528
 11
63.914719
 21
-110.109528
  0
LINE
  8
0
  6
DASHED
 62
     4
 10
63.988541
 20
-109.291679
 11
64.414719
 21
-109.291679
  0
LINE
  8
0
  6
DASHED
 62
     4
 10
63.988541
 20
-108.109528
 11
63.988541
 21
-109.291679
  0
LINE
  8
0
  6
DASHED
 62
     4
 10
59.714737
 20
-107.309525
 11
81.714737
 21
-107.309525
  0
LINE
  8
0
  6
DASHED
 62
     4
 10
59.714737
 20
-106.759521
 11
81.714737
 21
-106.759521
  0
LINE
  8
0
  6
DASHED
 62
     4
 10
60.689713
 20
-110.309525
 11
62.739731
 21
-110.309525
  0
LINE
  8
0
  6
DASHED
 62
     4
 10
62.740299
 20
-110.310066
 11
62.965290
 21
-110.085068
  0
LINE
  8
0
  6
DASHED
 62
     4
 10
60.689812
 20
-110.309402
 11
60.464825
 21
-110.084419
  0
LINE
  8
0
  6
DASHED
 62
     4
 10
60.464737
 20
-108.909523
 11
60.464737
 21
-110.084526
  0
LINE
  8
0
 62
     1
 10
60.689713
 20
-108.909523
 11
60.689713
 21
-110.309525
  0
LINE
  8
0
 62
     1
 10
62.739731
 20
-108.909523
 11
62.739731
 21
-110.309525
  0
LINE
  8
0
  6
DASHED
 62
     4
 10
62.964737
 20
-108.909523
 11
62.964737
 21
-110.084518
  0
LINE
  8
0
  6
DASHED
 62
     4
 10
60.464737
 20
-110.084526
 11
62.964737
 21
-110.084526
  0
LINE
  8
0
 62
     1
 10
60.689713
 20
-105.809525
 11
60.689713
 21
-106.309525
  0
LINE
  8
0
 62
     1
 10
62.739731
 20
-105.809525
 11
62.739731
 21
-106.309525
  0
LINE
  8
0
  6
DASHED
 62
     4
 10
81.714737
 20
-106.309525
 11
81.714737
 21
-110.909523
  0
LINE
  8
0
 10
116.975525
 20
6.443623
 11
116.975525
 21
-23.556381
  0
LINE
  8
0
 10
128.975525
 20
6.443623
 11
128.975525
 21
-23.556381
  0
LINE
  8
0
 10
140.975525
 20
6.443623
 11
140.975525
 21
-23.556381
  0
LINE
  8
0
 10
152.975525
 20
6.443623
 11
152.975525
 21
-23.556381
  0
LINE
  8
0
 10
164.975525
 20
6.443623
 11
164.975525
 21
-23.556381
  0
LINE
  8
0
 10
176.975525
 20
6.443623
 11
176.975525
 21
-23.556381
  0
LINE
  8
0
 10
188.975525
 20
6.443623
 11
188.975525
 21
-23.556381
  0
LINE
  8
0
 10
91.975525
 20
6.443623
 11
188.975525
 21
6.443623
  0
LINE
  8
0
 10
91.975525
 20
-11.556377
 11
188.975525
 21
-11.556377
  0
LINE
  8
0
 10
91.975525
 20
-17.556377
 11
188.975525
 21
-17.556377
  0
LINE
  8
0
 10
116.975563
 20
-11.556370
 11
114.859642
 21
0.443625
  0
LINE
  8
0
 10
91.975525
 20
0.443623
 11
114.859604
 21
0.443623
  0
LINE
  8
0
 10
91.975525
 20
6.443623
 11
91.975525
 21
-23.556381
  0
LINE
  8
0
 10
91.975525
 20
-23.556381
 11
188.975525
 21
-23.556381
  0
LINE
  8
0
 10
27.999962
 20
90.285736
 11
27.999962
 21
29.714293
  0
LINE
  8
0
  6
CENTER
 62
     2
 10
-25.000023
 20
65.800018
 11
-25.000023
 21
53.800030
  0
LINE
  8
0
  6
CENTER
 62
     2
 10
4.999977
 20
66.200020
 11
4.999977
 21
54.010841
  0
LINE
  8
0
  6
CENTER
 62
     2
 10
-5.000000
 20
93.000015
 11
-5.000000
 21
81.063873
  0
LINE
  8
0
  6
CENTER
 62
     2
 10
-10.800018
 20
32.500000
 11
0.805321
 21
32.500000
  0
LINE
  8
0
  6
CENTER
 62
     2
 10
-11.493614
 20
87.500000
 11
1.199997
 21
87.500000
  0
LINE
  8
0
  6
CENTER
 62
     2
 10
-5.000000
 20
38.550789
 11
-5.000000
 21
26.280235
  0
LINE
  8
0
 10
-39.499947
 20
91.000015
 11
27.285683
 21
91.000015
  0
LINE
  8
0
 10
-39.500011
 20
29.000008
 11
27.285683
 21
29.000008
  0
LINE
  8
0
 10
27.285614
 20
90.999969
 11
27.999897
 21
90.285690
  0
LINE
  8
0
 10
27.999960
 20
29.714340
 11
27.285673
 21
29.000051
  0
LINE
  8
0
  6
CENTER
 62
     2
 10
-64.042358
 20
60.000000
 11
31.632538
 21
60.000000
  0
LINE
  8
0
 10
-40.000023
 20
85.800003
 11
-8.620775
 21
85.800003
  0
LINE
  8
0
 10
-40.000023
 20
82.600006
 11
27.999969
 21
82.600006
  0
LINE
  8
0
 10
-40.000023
 20
62.600014
 11
-28.039749
 21
62.600014
  0
LINE
  8
0
 10
-40.000023
 20
65.799995
 11
27.999969
 21
65.799995
  0
LINE
  8
0
 10
-1.379227
 20
85.800003
 11
27.999969
 21
85.800003
  0
LINE
  8
0
 10
-21.960299
 20
62.600014
 11
1.960251
 21
62.600014
  0
LINE
  8
0
 10
8.039703
 20
62.600014
 11
27.999969
 21
62.600014
  0
LINE
  8
0
 10
-40.000000
 20
90.499985
 11
-40.000000
 21
29.499992
  0
LINE
  8
0
 10
-49.000004
 20
64.118805
 11
-49.000004
 21
55.881199
  0
LINE
  8
0
 10
-49.000004
 20
64.000008
 11
-49.000004
 21
55.999996
  0
LINE
  8
0
 10
-50.000000
 20
90.499985
 11
-50.000000
 21
29.499992
  0
LINE
  8
0
 10
-60.000000
 20
90.499985
 11
-60.000000
 21
29.499992
  0
LINE
  8
0
  6
CENTER
 62
     2
 10
-58.235016
 20
37.999992
 11
-52.201584
 21
37.999992
  0
LINE
  8
0
  6
CENTER
 62
     2
 10
-58.583092
 20
81.999969
 11
-51.853508
 21
81.999969
  0
LINE
  8
0
 10
-50.000000
 20
69.000000
 11
-40.000000
 21
69.000000
  0
LINE
  8
0
 10
-50.000000
 20
79.000000
 11
-40.000000
 21
79.000000
  0
LINE
  8
0
 10
-50.000000
 20
41.000000
 11
-40.000000
 21
41.000000
  0
LINE
  8
0
 10
-50.000000
 20
51.000000
 11
-40.000000
 21
51.000000
  0
LINE
  8
0
 10
-50.000000
 20
64.000008
 11
-49.000004
 21
64.000008
  0
LINE
  8
0
 10
-50.000000
 20
56.000000
 11
-49.000004
 21
56.000000
  0
LINE
  8
0
  6
CENTER
 62
     2
 10
-55.533989
 20
74.000000
 11
-34.600002
 21
74.000000
  0
LINE
  8
0
  6
CENTER
 62
     2
 10
-55.328609
 20
46.000000
 11
-35.000000
 21
46.000000
  0
LINE
  8
0
  6
CENTER
 62
     2
 10
-55.000000
 20
85.570312
 11
-55.000000
 21
78.260590
  0
LINE
  8
0
  6
CENTER
 62
     2
 10
-55.000000
 20
41.363811
 11
-55.000000
 21
34.402138
  0
LINE
  8
0
 10
-50.000000
 20
76.861816
 11
-48.000008
 21
76.861816
  0
LINE
  8
0
 10
-50.000000
 20
71.138153
 11
-48.000008
 21
71.138153
  0
LINE
  8
0
 10
-50.000000
 20
48.861809
 11
-48.000008
 21
48.861809
  0
LINE
  8
0
 10
-50.000000
 20
43.138168
 11
-48.000008
 21
43.138168
  0
LINE
  8
0
 10
-48.000008
 20
76.861816
 11
-48.000008
 21
71.138184
  0
LINE
  8
0
 10
-48.000008
 20
48.861805
 11
-48.000008
 21
43.138168
  0
LINE
  8
0
 10
-47.999958
 20
48.861835
 11
-49.999950
 21
45.046082
  0
LINE
  8
0
 10
-48.000088
 20
43.138161
 11
-50.000092
 21
46.953926
  0
LINE
  8
0
 10
-49.999954
 20
74.953957
 11
-47.999958
 21
71.138206
  0
LINE
  8
0
 10
-48.000015
 20
76.861816
 11
-50.000011
 21
73.046066
  0
LINE
  8
0
 10
-48.711330
 20
64.618813
 11
-45.500008
 21
64.618813
  0
LINE
  8
0
 10
-48.711330
 20
62.309395
 11
-45.500008
 21
62.309395
  0
LINE
  8
0
 10
-48.711330
 20
57.690582
 11
-45.500008
 21
57.690582
  0
LINE
  8
0
 10
-48.711330
 20
55.381187
 11
-45.500008
 21
55.381187
  0
LINE
  8
0
 10
-45.500008
 20
64.618820
 11
-45.500008
 21
55.381187
  0
LINE
  8
0
 10
-42.480011
 20
64.118805
 11
-42.480011
 21
55.881199
  0
LINE
  8
0
 10
-48.999996
 20
64.118782
 11
-48.711300
 21
64.618820
  0
LINE
  8
0
 10
-49.000050
 20
55.881145
 11
-48.711372
 21
55.381142
  0
LINE
  8
0
 10
-42.191338
 20
64.618813
 11
-40.288696
 21
64.618813
  0
LINE
  8
0
 10
-42.191338
 20
55.381187
 11
-40.288673
 21
55.381187
  0
LINE
  8
0
 10
-40.000042
 20
64.118767
 11
-40.288719
 21
64.618767
  0
LINE
  8
0
 10
-39.999996
 20
55.881180
 11
-40.288673
 21
55.381180
  0
LINE
  8
0
 10
-42.479992
 20
64.118828
 11
-42.191319
 21
64.618820
  0
LINE
  8
0
 10
-42.480114
 20
55.881153
 11
-42.191429
 21
55.381138
  0
LINE
  8
0
 10
-42.191338
 20
57.690582
 11
-40.288673
 21
57.690582
  0
LINE
  8
0
 10
-42.191338
 20
62.309395
 11
-40.288673
 21
62.309395
  0
LINE
  8
0
 10
-45.500008
 20
62.499977
 11
-42.480011
 21
62.499977
  0
LINE
  8
0
 10
-45.500008
 20
57.499977
 11
-42.480011
 21
57.499977
  0
LINE
  8
0
 62
     2
 10
-45.500008
 20
57.904991
 11
-42.480011
 21
57.904991
  0
LINE
  8
0
 62
     2
 10
-45.500008
 20
62.095009
 11
-42.480011
 21
62.095009
  0
LINE
  8
0
 10
-60.000000
 20
29.499992
 11
-50.000000
 21
29.499992
  0
LINE
  8
0
 10
-60.000000
 20
90.499985
 11
-50.000000
 21
90.499985
  0
LINE
  8
0
 10
-39.499985
 20
90.999977
 11
-39.999973
 21
90.499992
  0
LINE
  8
0
 10
-40.000008
 20
29.499996
 11
-39.500008
 21
28.999996
  0
LINE
  8
0
  6
PHANTOM
 62
     3
 10
-15.000011
 20
103.181610
 11
-15.000011
 21
19.000008
  0
LINE
  8
0
  6
PHANTOM
 62
     3
 10
-0.000011
 20
96.133530
 11
-0.000011
 21
19.000008
  0
LINE
  8
0
  6
CENTER
 62
     2
 10
-123.899994
 20
60.000000
 11
-91.899979
 21
60.000000
  0
LINE
  8
0
 10
-119.285713
 20
91.000000
 11
-109.099968
 21
91.000000
  0
LINE
  8
0
  6
CENTER
 62
     2
 10
-114.371773
 20
46.000023
 11
-100.855446
 21
46.000023
  0
LINE
  8
0
  6
CENTER
 62
     2
 10
-114.168503
 20
74.000031
 11
-100.855446
 21
74.000031
  0
LINE
  8
0
  6
CENTER
 62
     2
 10
-107.500000
 20
95.800003
 11
-107.500000
 21
22.600014
  0
LINE
  8
0
 10
-95.499985
 20
90.500031
 11
-95.499985
 21
29.500015
  0
LINE
  8
0
 10
-119.499992
 20
90.500031
 11
-119.499992
 21
29.500015
  0
LINE
  8
0
 10
-95.000000
 20
90.285706
 11
-95.000000
 21
85.800018
  0
LINE
  8
0
 10
-120.000000
 20
90.285706
 11
-120.000000
 21
85.800018
  0
LINE
  8
0
 10
-95.000000
 20
62.600014
 11
-95.000000
 21
29.714293
  0
LINE
  8
0
 10
-120.000000
 20
62.600033
 11
-120.000000
 21
29.714293
  0
LINE
  8
0
  6
CENTER
 62
     2
 10
-110.713219
 20
87.500000
 11
-104.107513
 21
87.500000
  0
LINE
  8
0
  6
CENTER
 62
     2
 10
-110.713219
 20
32.500000
 11
-104.615631
 21
32.500000
  0
LINE
  8
0
 10
-110.000000
 20
75.443405
 11
-110.000000
 21
72.556656
  0
LINE
  8
0
 10
-105.000000
 20
75.443405
 11
-105.000000
 21
72.556656
  0
LINE
  8
0
 10
-107.500015
 20
76.886765
 11
-105.000000
 21
75.443382
  0
LINE
  8
0
 10
-110.000000
 20
72.556625
 11
-107.499985
 21
71.113243
  0
LINE
  8
0
 10
-110.000023
 20
75.443520
 11
-107.500023
 21
76.886887
  0
LINE
  8
0
 10
-107.500015
 20
71.113319
 11
-105.000015
 21
72.556694
  0
LINE
  8
0
 10
-110.000000
 20
47.443394
 11
-110.000000
 21
44.556648
  0
LINE
  8
0
 10
-105.000000
 20
47.443394
 11
-105.000000
 21
44.556648
  0
LINE
  8
0
 10
-107.499992
 20
48.886742
 11
-105.000000
 21
47.443371
  0
LINE
  8
0
 10
-110.000000
 20
44.556644
 11
-107.499985
 21
43.113262
  0
LINE
  8
0
 10
-110.000015
 20
47.443485
 11
-107.500023
 21
48.886856
  0
LINE
  8
0
 10
-107.500008
 20
43.113335
 11
-105.000015
 21
44.556705
  0
LINE
  8
0
 10
-119.499992
 20
29.499992
 11
-95.499985
 21
29.499992
  0
LINE
  8
0
 10
-119.285713
 20
29.000008
 11
-95.714287
 21
29.000008
  0
LINE
  8
0
 10
-119.499992
 20
90.500015
 11
-95.499985
 21
90.500015
  0
LINE
  8
0
 10
-119.285683
 20
90.999992
 11
-119.999969
 21
90.285706
  0
LINE
  8
0
 10
-95.714294
 20
91.000023
 11
-95.000000
 21
90.285728
  0
LINE
  8
0
 10
-119.999992
 20
29.714331
 11
-119.285706
 21
29.000044
  0
LINE
  8
0
 10
-95.000015
 20
29.714333
 11
-95.714302
 21
29.000046
  0
LINE
  8
0
 10
-119.999908
 20
65.800018
 11
-119.499947
 21
65.800018
  0
LINE
  8
0
 10
-119.999908
 20
62.600037
 11
-119.499947
 21
62.600037
  0
LINE
  8
0
 10
-95.000000
 20
82.600006
 11
-95.000000
 21
65.800018
  0
LINE
  8
0
 10
-95.000107
 20
85.800018
 11
-95.500069
 21
85.800018
  0
LINE
  8
0
 10
-95.000107
 20
82.600006
 11
-95.500069
 21
82.600006
  0
LINE
  8
0
 10
-95.000084
 20
65.800018
 11
-95.500053
 21
65.800018
  0
LINE
  8
0
 10
-95.000000
 20
62.600014
 11
-95.500053
 21
62.600014
  0
LINE
  8
0
 10
-109.099968
 20
90.999908
 11
-109.099968
 21
90.499939
  0
LINE
  8
0
 10
-105.899963
 20
90.999908
 11
-105.899963
 21
90.499939
  0
LINE
  8
0
 10
-119.999908
 20
82.600037
 11
-119.499947
 21
82.600037
  0
LINE
  8
0
 10
-119.999908
 20
85.800018
 11
-119.499947
 21
85.800018
  0
LINE
  8
0
 10
-120.000000
 20
82.600037
 11
-120.000000
 21
65.800018
  0
LINE
  8
0
 10
-105.899963
 20
91.000000
 11
-95.714264
 21
91.000000
  0
LINE
  8
0
  6
CENTER
 62
     2
 10
-122.142853
 20
87.500000
 11
-117.857140
 21
87.500000
  0
LINE
  8
0
  6
CENTER
 62
     2
 10
-122.142853
 20
32.500000
 11
-117.857140
 21
32.500000
  0
LINE
  8
0
  6
CENTER
 62
     2
 10
82.500000
 20
95.309738
 11
82.500000
 21
23.084980
  0
LINE
  8
0
 10
70.000000
 20
90.285736
 11
70.000000
 21
85.800003
  0
LINE
  8
0
 10
95.000000
 20
90.285736
 11
95.000000
 21
85.800018
  0
LINE
  8
0
 10
70.714264
 20
91.000015
 11
80.899963
 21
91.000015
  0
LINE
  8
0
  6
CENTER
 62
     2
 10
68.214157
 20
74.000031
 11
97.284958
 21
74.000031
  0
LINE
  8
0
  6
CENTER
 62
     2
 10
66.792908
 20
60.000000
 11
98.964615
 21
60.000000
  0
LINE
  8
0
  6
CENTER
 62
     2
 10
68.214157
 20
46.000023
 11
97.543381
 21
46.000023
  0
LINE
  8
0
 10
70.000000
 20
62.599991
 11
70.000000
 21
29.714293
  0
LINE
  8
0
 10
95.000000
 20
62.600014
 11
95.000000
 21
29.714293
  0
LINE
  8
0
 10
84.099991
 20
91.000015
 11
94.285721
 21
91.000015
  0
LINE
  8
0
 10
70.714294
 20
29.000008
 11
94.285721
 21
29.000008
  0
LINE
  8
0
 10
70.714279
 20
91.000046
 11
69.999985
 21
90.285751
  0
LINE
  8
0
 10
94.285614
 20
90.999954
 11
94.999893
 21
90.285660
  0
LINE
  8
0
 10
69.999985
 20
29.714283
 11
70.714272
 21
28.999996
  0
LINE
  8
0
 10
94.999992
 20
29.714314
 11
94.285698
 21
29.000019
  0
LINE
  8
0
 10
69.999954
 20
65.799995
 11
70.499985
 21
65.799995
  0
LINE
  8
0
 10
69.999954
 20
62.599991
 11
70.499710
 21
62.599991
  0
LINE
  8
0
 10
70.499954
 20
65.799957
 11
70.999977
 21
66.299980
  0
LINE
  8
0
 10
70.999939
 20
66.300011
 11
72.599930
 21
66.300011
  0
LINE
  8
0
 10
70.999939
 20
62.100006
 11
72.599930
 21
62.100006
  0
LINE
  8
0
 10
70.499832
 20
62.599834
 11
70.999855
 21
62.099812
  0
LINE
  8
0
 10
93.999969
 20
62.100006
 11
92.399979
 21
62.100006
  0
LINE
  8
0
 10
94.500046
 20
62.599960
 11
94.000053
 21
62.099968
  0
LINE
  8
0
 10
94.499817
 20
65.799828
 11
93.999825
 21
66.299820
  0
LINE
  8
0
 10
93.999664
 20
66.300011
 11
92.399979
 21
66.300011
  0
LINE
  8
0
 10
95.000000
 20
65.800018
 11
94.499969
 21
65.800018
  0
LINE
  8
0
 10
94.999939
 20
62.600014
 11
94.499969
 21
62.600014
  0
LINE
  8
0
 10
84.600006
 20
89.983276
 11
84.600006
 21
88.383575
  0
LINE
  8
0
 10
84.099838
 20
90.483414
 11
84.599831
 21
89.983421
  0
LINE
  8
0
 10
80.400009
 20
89.983582
 11
80.400009
 21
88.383575
  0
LINE
  8
0
 10
80.400002
 20
89.983528
 11
80.899956
 21
90.483490
  0
LINE
  8
0
 10
80.899963
 20
91.000015
 11
80.899963
 21
90.483597
  0
LINE
  8
0
 10
84.099991
 20
91.000015
 11
84.099991
 21
90.483582
  0
LINE
  8
0
  6
CENTER
 62
     2
 10
66.792908
 20
64.200005
 11
98.964615
 21
64.200005
  0
LINE
  8
0
  6
CENTER
 62
     2
 10
66.792908
 20
84.199997
 11
98.964615
 21
84.199997
  0
LINE
  8
0
 10
93.999969
 20
82.100006
 11
92.399979
 21
82.100006
  0
LINE
  8
0
 10
94.999939
 20
82.600006
 11
94.499969
 21
82.600006
  0
LINE
  8
0
 10
94.500046
 20
82.599960
 11
94.000053
 21
82.099968
  0
LINE
  8
0
 10
94.499825
 20
85.799858
 11
93.999832
 21
86.299843
  0
LINE
  8
0
 10
93.999969
 20
86.300003
 11
92.399979
 21
86.300003
  0
LINE
  8
0
 10
94.999939
 20
85.800018
 11
94.499969
 21
85.800018
  0
LINE
  8
0
 10
95.000000
 20
82.600006
 11
95.000000
 21
65.800018
  0
LINE
  8
0
 10
70.000000
 20
82.599991
 11
70.000000
 21
65.800003
  0
LINE
  8
0
 10
70.000000
 20
82.600006
 11
70.499985
 21
82.600006
  0
LINE
  8
0
 10
70.000000
 20
85.800003
 11
70.499725
 21
85.800003
  0
LINE
  8
0
 10
70.499939
 20
82.599998
 11
70.999931
 21
82.100014
  0
LINE
  8
0
 10
71.000046
 20
82.100006
 11
72.600006
 21
82.100006
  0
LINE
  8
0
 10
71.000046
 20
86.299988
 11
72.600006
 21
86.299988
  0
LINE
  8
0
 10
70.499794
 20
85.800117
 11
70.999817
 21
86.300140
  0
LINE
  8
0
  6
CENTER
 62
     2
 10
92.857147
 20
87.500000
 11
97.142868
 21
87.500000
  0
LINE
  8
0
  6
CENTER
 62
     2
 10
92.857147
 20
32.500000
 11
97.142868
 21
32.500000
  0
LINE
  8
0
 10
27.999924
 20
8.285725
 11
27.999924
 21
-15.285706
  0
LINE
  8
0
  6
CENTER
 62
     2
 10
-63.134312
 20
-3.499992
 11
31.435417
 21
-3.499992
  0
LINE
  8
0
 10
-39.285774
 20
9.000008
 11
27.285645
 21
9.000008
  0
LINE
  8
0
 10
-39.285774
 20
-15.999992
 11
27.285667
 21
-15.999992
  0
LINE
  8
0
  6
CENTER
 62
     2
 10
-15.000061
 20
0.873047
 11
-15.000061
 21
-7.783852
  0
LINE
  8
0
  6
CENTER
 62
     2
 10
15.999916
 20
0.488281
 11
15.999916
 21
-7.591484
  0
LINE
  8
0
 10
27.285646
 20
9.000006
 11
27.999929
 21
8.285725
  0
LINE
  8
0
 10
27.999847
 20
-15.285640
 11
27.285582
 21
-15.999916
  0
LINE
  8
0
 10
-40.000038
 20
8.285732
 11
-40.000038
 21
-15.285706
  0
LINE
  8
0
 10
-49.000042
 20
-8.499992
 11
-49.000042
 21
-12.999985
  0
LINE
  8
0
  6
CENTER
 62
     2
 10
-51.981720
 20
-9.499992
 11
-34.082668
 21
-9.499992
  0
LINE
  8
0
 10
-48.711369
 20
-13.499992
 11
-45.500046
 21
-13.499992
  0
LINE
  8
0
 10
-45.500046
 20
-8.499992
 11
-45.500046
 21
-13.499992
  0
LINE
  8
0
 10
-42.480049
 20
-8.499992
 11
-42.480049
 21
-12.999985
  0
LINE
  8
0
 10
-49.000069
 20
-13.000014
 11
-48.711395
 21
-13.500011
  0
LINE
  8
0
 10
-42.480091
 20
-13.000017
 11
-42.191418
 21
-13.500014
  0
LINE
  8
0
 10
-40.000111
 20
-12.999976
 11
-40.288780
 21
-13.499974
  0
LINE
  8
0
 10
-42.191376
 20
-13.499992
 11
-40.288712
 21
-13.499992
  0
LINE
  8
0
 10
-45.500046
 20
-11.999992
 11
-42.480049
 21
-11.999992
  0
LINE
  8
0
 62
     2
 10
-45.500046
 20
-11.594994
 11
-42.480049
 21
-11.594994
  0
LINE
  8
0
 10
-50.000038
 20
-7.599983
 11
-50.000038
 21
-15.499985
  0
LINE
  8
0
 10
-60.000038
 20
8.500011
 11
-60.000038
 21
-15.499985
  0
LINE
  8
0
 10
-49.000042
 20
-7.599983
 11
-49.000042
 21
-13.499992
  0
LINE
  8
0
 10
-50.000038
 20
8.500011
 11
-50.000038
 21
0.600021
  0
LINE
  8
0
 10
-50.000038
 20
-13.499992
 11
-49.000042
 21
-13.499992
  0
LINE
  8
0
 10
-60.000038
 20
-15.499985
 11
-50.000038
 21
-15.499985
  0
LINE
  8
0
 10
-60.000038
 20
8.500008
 11
-50.000038
 21
8.500008
  0
LINE
  8
0
 10
-48.000046
 20
-8.499992
 11
-40.000038
 21
-8.499992
  0
LINE
  8
0
 10
-48.000046
 20
1.500008
 11
-40.000038
 21
1.500008
  0
LINE
  8
0
 10
-51.000057
 20
0.600021
 11
-51.000057
 21
-7.599983
  0
LINE
  8
0
 10
-51.000053
 20
-7.599983
 11
-48.000046
 21
-7.599983
  0
LINE
  8
0
 10
-51.000053
 20
0.600021
 11
-48.000046
 21
0.600021
  0
LINE
  8
0
 10
-48.000046
 20
1.500008
 11
-48.000046
 21
0.600021
  0
LINE
  8
0
 10
-48.000046
 20
-7.599983
 11
-48.000046
 21
-8.499992
  0
LINE
  8
0
 10
-39.285786
 20
9.000030
 11
-40.000057
 21
8.285760
  0
LINE
  8
0
 10
-40.000027
 20
-15.285713
 11
-39.285744
 21
-15.999995
  0
LINE
  8
0
 10
-6.936558
 20
3.000011
 11
-3.063557
 21
3.000011
  0
LINE
  8
0
  6
CENTER
 62
     2
 10
-25.000038
 20
-13.857132
 11
-25.000038
 21
-18.142853
  0
LINE
  8
0
  6
CENTER
 62
     2
 10
-5.000038
 20
-13.857132
 11
-5.000038
 21
-18.142853
  0
LINE
  8
0
  6
CENTER
 62
     2
 10
4.999962
 20
-13.857132
 11
4.999962
 21
-18.142853
  0
LINE
  8
0
  6
PHANTOM
 62
     3
 10
-10.000050
 20
19.000008
 11
-10.000050
 21
-21.999004
  0
LINE
  8
0
  6
PHANTOM
 62
     3
 10
-0.000038
 20
19.000008
 11
-0.000038
 21
-21.999004
  0
LINE
  8
0
  6
PHANTOM
 62
     3
 10
-15.000050
 20
19.000008
 11
-10.000050
 21
19.000008
  0
LINE
  8
0
 10
-6.936558
 20
9.000008
 11
-6.936558
 21
3.000011
  0
LINE
  8
0
 10
-3.063557
 20
9.000008
 11
-3.063557
 21
3.000011
  0
LINE
  8
0
 10
-6.936558
 20
-15.999992
 11
-6.936558
 21
-9.999996
  0
LINE
  8
0
 10
-6.936558
 20
-9.999996
 11
-3.063557
 21
-9.999996
  0
LINE
  8
0
 10
-3.063557
 20
-15.999992
 11
-3.063557
 21
-9.999996
  0
LINE
  8
0
  6
CENTER
 62
     1
 10
-75.096390
 20
-105.502808
 11
-75.096390
 21
-111.741425
  0
LINE
  8
0
 62
     4
 10
-76.346390
 20
-105.809525
 11
-76.346390
 21
-106.309525
  0
LINE
  8
0
 62
     1
 10
-76.121399
 20
-105.809525
 11
-76.121399
 21
-106.309525
  0
LINE
  8
0
 62
     1
 10
-74.071396
 20
-105.809525
 11
-74.071396
 21
-106.309525
  0
LINE
  8
0
 62
     4
 10
-73.846390
 20
-105.809525
 11
-73.846390
 21
-106.309525
  0
LINE
  8
0
 62
     4
 10
-76.346390
 20
-105.809525
 11
-73.846390
 21
-105.809525
  0
LINE
  8
0
  6
CENTER
 62
     1
 10
-121.639130
 20
-104.256554
 11
-121.639130
 21
-112.969315
  0
LINE
  8
0
 62
     4
 10
-123.689117
 20
-107.309525
 11
-123.689117
 21
-108.859520
  0
LINE
  8
0
 62
     4
 10
-123.689186
 20
-107.309479
 11
-123.139183
 21
-106.759476
  0
LINE
  8
0
 62
     4
 10
-123.139130
 20
-106.309525
 11
-123.139130
 21
-106.759521
  0
LINE
  8
0
 62
     4
 10
-123.139130
 20
-106.309525
 11
-120.139130
 21
-106.309525
  0
LINE
  8
0
 62
     4
 10
-120.139130
 20
-106.309525
 11
-120.139130
 21
-106.759521
  0
LINE
  8
0
 62
     4
 10
-119.589142
 20
-107.309479
 11
-120.139137
 21
-106.759483
  0
LINE
  8
0
 62
     4
 10
-119.589127
 20
-107.309525
 11
-119.589127
 21
-108.859520
  0
LINE
  8
0
 62
     4
 10
-123.689117
 20
-108.109520
 11
-119.589127
 21
-108.109520
  0
LINE
  8
0
 62
     4
 10
-123.689133
 20
-108.908707
 11
-119.589127
 21
-108.908707
  0
LINE
  8
0
 62
     4
 10
-122.664139
 20
-110.309525
 11
-120.614136
 21
-110.309525
  0
LINE
  8
0
 62
     4
 10
-120.613686
 20
-110.309975
 11
-120.388680
 21
-110.084969
  0
LINE
  8
0
 62
     4
 10
-122.664131
 20
-110.309570
 11
-122.889130
 21
-110.084579
  0
LINE
  8
0
 62
     4
 10
-122.889130
 20
-108.908707
 11
-122.889130
 21
-110.084526
  0
LINE
  8
0
 62
     1
 10
-122.664139
 20
-108.908707
 11
-122.664139
 21
-110.309525
  0
LINE
  8
0
 62
     1
 10
-120.614136
 20
-108.908707
 11
-120.614136
 21
-110.309525
  0
LINE
  8
0
 62
     4
 10
-120.389130
 20
-108.908707
 11
-120.389130
 21
-110.084518
  0
LINE
  8
0
 62
     4
 10
-122.889130
 20
-110.084526
 11
-120.389130
 21
-110.084526
  0
LINE
  8
0
 62
     4
 10
-122.889130
 20
-105.809525
 11
-122.889130
 21
-106.309525
  0
LINE
  8
0
 62
     1
 10
-122.664139
 20
-105.809525
 11
-122.664139
 21
-106.309525
  0
LINE
  8
0
 62
     1
 10
-120.614136
 20
-105.809525
 11
-120.614136
 21
-106.309525
  0
LINE
  8
0
 62
     4
 10
-120.389130
 20
-105.809525
 11
-120.389130
 21
-106.309525
  0
LINE
  8
0
 62
     4
 10
-122.889130
 20
-105.809525
 11
-120.389130
 21
-105.809525
  0
LINE
  8
0
  6
CENTER
 62
     1
 10
-79.896942
 20
-63.759521
 11
-49.688889
 21
-63.759521
  0
LINE
  8
0
 62
     4
 10
-77.096405
 20
-65.259521
 11
-55.096405
 21
-65.259521
  0
LINE
  8
0
 62
     4
 10
-77.096405
 20
-62.259521
 11
-55.096405
 21
-62.259521
  0
LINE
  8
0
  6
CENTER
 62
     1
 10
-75.096390
 20
-60.923019
 11
-75.096390
 21
-66.512344
  0
LINE
  8
0
 62
     1
 10
-54.007172
 20
-61.594421
 11
-51.507172
 21
-65.924545
  0
LINE
  8
0
 62
     4
 10
-55.096405
 20
-62.459518
 11
-53.507751
 21
-62.459518
  0
LINE
  8
0
 62
     4
 10
-55.096405
 20
-65.059525
 11
-52.006622
 21
-65.059525
  0
LINE
  8
0
 62
     4
 10
-76.105858
 20
-64.486168
 11
-74.360855
 21
-62.741169
  0
LINE
  8
0
 62
     4
 10
-75.823036
 20
-64.768990
 11
-74.078041
 21
-63.023987
  0
LINE
  8
0
 62
     4
 10
-77.096405
 20
-62.159523
 11
-77.096405
 21
-65.359520
  0
LINE
  8
0
 62
     4
 10
-55.096405
 20
-62.159523
 11
-55.096405
 21
-65.359520
  0
LINE
  8
0
 62
     4
 10
81.714737
 20
-99.409523
 11
81.714737
 21
-106.309525
  0
LINE
  8
0
  6
CENTER
 62
     1
 10
61.714737
 20
-105.579269
 11
61.714737
 21
-111.482193
  0
LINE
  8
0
 62
     4
 10
75.814713
 20
-99.409523
 11
75.814713
 21
-106.309525
  0
LINE
  8
0
 62
     4
 10
75.814743
 20
-99.409523
 11
81.714737
 21
-99.409523
  0
LINE
  8
0
 62
     4
 10
75.814713
 20
-105.159508
 11
81.714737
 21
-105.159508
  0
LINE
  8
0
 62
     4
 10
75.814713
 20
-105.909508
 11
81.714737
 21
-105.909508
  0
LINE
  8
0
 62
     4
 10
75.814713
 20
-100.909523
 11
81.714737
 21
-100.909523
  0
LINE
  8
0
 62
     4
 10
77.822098
 20
-90.909485
 11
80.422073
 21
-90.909485
  0
LINE
  8
0
  6
CENTER
 62
     1
 10
78.672012
 20
-92.632416
 11
78.672012
 21
-80.700333
  0
LINE
  8
0
  6
CENTER
 62
     1
 10
79.572006
 20
-92.582123
 11
79.572006
 21
-80.658478
  0
LINE
  8
0
 62
     4
 10
78.422012
 20
-80.909485
 11
78.922012
 21
-80.909485
  0
LINE
  8
0
 62
     4
 10
79.322006
 20
-80.909485
 11
79.822006
 21
-80.909485
  0
LINE
  8
0
 62
     4
 10
78.222000
 20
-83.909485
 11
80.022018
 21
-83.909485
  0
LINE
  8
0
 62
     4
 10
80.022018
 20
-90.909485
 11
80.022018
 21
-86.903938
  0
LINE
  8
0
 62
     4
 10
79.121994
 20
-90.909485
 11
79.121994
 21
-87.423553
  0
LINE
  8
0
 62
     4
 10
79.121994
 20
-85.923553
 11
79.121994
 21
-83.909485
  0
LINE
  8
0
 62
     4
 10
80.022018
 20
-85.403938
 11
80.022018
 21
-83.909485
  0
LINE
  8
0
 62
     4
 10
78.222000
 20
-90.909485
 11
78.222000
 21
-87.943176
  0
LINE
  8
0
 62
     4
 10
78.222000
 20
-86.443176
 11
78.222000
 21
-83.909485
  0
LINE
  8
0
 62
     4
 10
78.422012
 20
-83.909485
 11
78.422012
 21
-80.909485
  0
LINE
  8
0
 62
     4
 10
78.922012
 20
-83.909485
 11
78.922012
 21
-80.909485
  0
LINE
  8
0
 62
     4
 10
79.322006
 20
-83.909485
 11
79.322006
 21
-80.909485
  0
LINE
  8
0
 62
     4
 10
79.822006
 20
-83.909485
 11
79.822006
 21
-80.909485
  0
LINE
  8
0
 62
     1
 10
76.957130
 20
-87.173637
 11
81.287277
 21
-84.673622
  0
LINE
  8
0
  6
CENTER
 62
     1
 10
79.122086
 20
-100.723892
 11
79.122086
 21
-90.909485
  0
LINE
  8
0
 62
     1
 10
76.957047
 20
-88.673637
 11
81.287193
 21
-86.173622
  0
LINE
  8
0
 62
     1
 10
76.957024
 20
-96.154343
 11
81.287155
 21
-93.654343
  0
LINE
  8
0
 62
     1
 10
76.957069
 20
-97.654335
 11
81.287193
 21
-95.154343
  0
LINE
  8
0
 62
     4
 10
60.464737
 20
-105.809525
 11
60.464737
 21
-106.309525
  0
LINE
  8
0
 62
     1
 10
60.689713
 20
-105.809525
 11
60.689713
 21
-106.309525
  0
LINE
  8
0
 62
     1
 10
62.739731
 20
-105.809525
 11
62.739731
 21
-106.309525
  0
LINE
  8
0
 62
     4
 10
62.964737
 20
-105.809525
 11
62.964737
 21
-106.309525
  0
LINE
  8
0
 62
     4
 10
60.464737
 20
-105.809525
 11
62.964737
 21
-105.809525
  0
LINE
  8
0
 62
     4
 10
80.422073
 20
-99.409523
 11
80.422073
 21
-95.653687
  0
LINE
  8
0
 62
     4
 10
77.822098
 20
-99.409523
 11
77.822098
 21
-97.154778
  0
LINE
  8
0
 62
     4
 10
77.822098
 20
-95.654793
 11
77.822098
 21
-90.909485
  0
LINE
  8
0
 62
     4
 10
80.422073
 20
-94.153694
 11
80.422073
 21
-90.909485
  0
LINE
  8
0
 62
     4
 10
14.422012
 20
-100.909523
 11
18.922012
 21
-100.909523
  0
LINE
  8
0
 62
     4
 10
14.422012
 20
-99.409523
 11
14.422012
 21
-105.159523
  0
LINE
  8
0
 62
     4
 10
15.171959
 20
-105.909492
 11
14.421996
 21
-105.159531
  0
LINE
  8
0
 62
     4
 10
15.172012
 20
-106.759521
 11
15.172012
 21
-105.909523
  0
LINE
  8
0
 62
     4
 10
14.621996
 20
-107.309479
 11
15.172006
 21
-106.759468
  0
LINE
  8
0
 62
     4
 10
14.621994
 20
-107.309525
 11
14.621994
 21
-108.859520
  0
LINE
  8
0
 62
     4
 10
18.722000
 20
-107.309525
 11
18.722000
 21
-108.859520
  0
LINE
  8
0
 62
     4
 10
18.721992
 20
-107.309563
 11
18.171982
 21
-106.759552
  0
LINE
  8
0
 62
     4
 10
18.172012
 20
-106.759521
 11
18.172012
 21
-105.909523
  0
LINE
  8
0
 62
     4
 10
18.172070
 20
-105.909622
 11
18.922064
 21
-105.159630
  0
LINE
  8
0
 62
     4
 10
18.922012
 20
-99.409523
 11
18.922012
 21
-105.159523
  0
LINE
  8
0
  6
CENTER
 62
     1
 10
16.672012
 20
-93.748566
 11
16.672012
 21
-112.376190
  0
LINE
  8
0
 62
     4
 10
15.172012
 20
-106.309525
 11
18.172012
 21
-106.309525
  0
LINE
  8
0
 62
     4
 10
14.621994
 20
-108.109520
 11
18.722000
 21
-108.109520
  0
LINE
  8
0
 62
     4
 10
14.621994
 20
-108.911972
 11
18.722000
 21
-108.911972
  0
LINE
  8
0
 62
     4
 10
14.422012
 20
-99.409523
 11
18.922012
 21
-99.409523
  0
LINE
  8
0
 62
     1
 10
14.507029
 20
-97.654343
 11
18.837156
 21
-95.154343
  0
LINE
  8
0
 62
     4
 10
15.646988
 20
-110.309525
 11
17.697006
 21
-110.309525
  0
LINE
  8
0
 62
     4
 10
17.697531
 20
-110.310066
 11
17.922522
 21
-110.085068
  0
LINE
  8
0
 62
     4
 10
15.647057
 20
-110.309456
 11
15.422050
 21
-110.084450
  0
LINE
  8
0
 62
     4
 10
15.422012
 20
-108.911972
 11
15.422012
 21
-110.084526
  0
LINE
  8
0
 62
     1
 10
15.646988
 20
-108.911972
 11
15.646988
 21
-110.309525
  0
LINE
  8
0
 62
     1
 10
17.697006
 20
-108.911972
 11
17.697006
 21
-110.309525
  0
LINE
  8
0
 62
     4
 10
17.922012
 20
-108.911972
 11
17.922012
 21
-110.084518
  0
LINE
  8
0
 62
     4
 10
15.422012
 20
-110.084526
 11
17.922012
 21
-110.084526
  0
LINE
  8
0
 62
     4
 10
15.422012
 20
-105.809525
 11
15.422012
 21
-106.309525
  0
LINE
  8
0
 62
     1
 10
15.646988
 20
-105.809525
 11
15.646988
 21
-106.309525
  0
LINE
  8
0
 62
     1
 10
17.697006
 20
-105.809525
 11
17.697006
 21
-106.309525
  0
LINE
  8
0
 62
     4
 10
17.922012
 20
-105.809525
 11
17.922012
 21
-106.309525
  0
LINE
  8
0
 62
     4
 10
15.422012
 20
-105.809525
 11
17.922012
 21
-105.809525
  0
LINE
  8
0
 62
     4
 10
15.372025
 20
-97.154800
 11
15.372025
 21
-99.409523
  0
LINE
  8
0
 62
     4
 10
17.972000
 20
-95.653702
 11
17.972000
 21
-99.409523
  0
LINE
  8
0
  6
CENTER
 62
     1
 10
58.385544
 20
-58.709511
 11
83.294724
 21
-58.709511
  0
LINE
  8
0
 62
     4
 10
59.714737
 20
-60.209511
 11
76.275345
 21
-60.209511
  0
LINE
  8
0
 62
     4
 10
59.714737
 20
-57.209511
 11
76.275345
 21
-57.209511
  0
LINE
  8
0
 62
     4
 10
59.714737
 20
-57.109512
 11
59.714737
 21
-60.309509
  0
LINE
  8
0
  6
CENTER
 62
     1
 10
61.714737
 20
-55.873001
 11
61.714737
 21
-61.462326
  0
LINE
  8
0
 62
     4
 10
76.800705
 20
-56.459511
 11
81.714737
 21
-56.459511
  0
LINE
  8
0
 62
     4
 10
76.800705
 20
-60.959511
 11
81.714737
 21
-60.959511
  0
LINE
  8
0
 62
     4
 10
81.714737
 20
-56.459503
 11
81.714737
 21
-60.959503
  0
LINE
  8
0
 62
     4
 10
60.705273
 20
-59.436157
 11
62.450275
 21
-57.691158
  0
LINE
  8
0
 62
     4
 10
60.988091
 20
-59.718975
 11
62.733093
 21
-57.973976
  0
CIRCLE
  8
0
 10
-5.000000
 20
87.500000
 40
2.250000
  0
CIRCLE
  8
0
 10
4.999977
 20
60.000000
 40
2.250000
  0
CIRCLE
  8
0
 10
-5.000000
 20
32.500000
 40
2.250000
  0
CIRCLE
  8
0
 10
-25.000023
 20
60.000000
 40
2.250000
  0
CIRCLE
  8
0
 62
     2
 10
-55.000000
 20
81.999969
 40
2.000000
  0
CIRCLE
  8
0
 62
     2
 10
-55.000000
 20
37.999992
 40
2.000000
  0
CIRCLE
  8
0
 10
-55.000000
 20
81.999969
 40
1.595000
  0
CIRCLE
  8
0
 10
-55.000000
 20
37.999992
 40
1.595000
  0
ARC
  8
0
 10
-42.453766
 20
56.535889
 40
2.453748
 50
331.927612
 51
28.072313
  0
ARC
  8
0
 10
-42.453766
 20
63.464073
 40
2.453748
 50
331.927612
 51
28.072393
  0
ARC
  8
0
 10
-49.381977
 20
59.999977
 40
9.381963
 50
345.750000
 51
14.249941
  0
ARC
  8
0
 10
-46.546261
 20
63.464073
 40
2.453748
 50
151.927612
 51
208.072388
  0
ARC
  8
0
 10
-39.618050
 20
59.999977
 40
9.381962
 50
165.750015
 51
194.249908
  0
ARC
  8
0
 10
-46.546261
 20
56.535889
 40
2.453748
 50
151.927612
 51
208.072388
  0
ARC
  8
0
 10
-40.026268
 20
63.464073
 40
2.453748
 50
151.927612
 51
208.072388
  0
ARC
  8
0
 10
-33.098034
 20
59.999977
 40
9.381962
 50
165.750015
 51
194.249908
  0
ARC
  8
0
 10
-40.026268
 20
56.535889
 40
2.453748
 50
151.927612
 51
208.072388
  0
CIRCLE
  8
0
 10
-25.000023
 20
60.000000
 40
4.000000
  0
ARC
  8
0
 10
-5.000000
 20
87.500000
 40
4.000000
 50
118.954575
 51
61.045429
  0
CIRCLE
  8
0
 10
4.999977
 20
60.000000
 40
4.000000
  0
ARC
  8
0
 10
-5.000000
 20
32.500000
 40
4.000000
 50
298.955231
 51
241.044724
  0
CIRCLE
  8
0
 10
-107.500000
 20
74.000031
 40
5.500000
  0
CIRCLE
  8
0
 10
-107.500000
 20
46.000023
 40
5.500000
  0
CIRCLE
  8
0
 62
     2
 10
-107.500000
 20
87.500000
 40
2.000000
  0
CIRCLE
  8
0
 62
     2
 10
-107.500000
 20
32.500000
 40
2.000000
  0
CIRCLE
  8
0
 10
-107.500000
 20
87.500000
 40
1.620000
  0
CIRCLE
  8
0
 10
-107.500000
 20
32.500000
 40
1.620000
  0
CIRCLE
  8
0
 10
-107.500000
 20
74.000031
 40
5.000000
  0
CIRCLE
  8
0
 10
-107.500000
 20
46.000023
 40
5.000000
  0
CIRCLE
  8
0
 10
-107.500000
 20
46.000023
 40
4.500000
  0
CIRCLE
  8
0
 10
-107.500000
 20
74.000031
 40
4.500000
  0
CIRCLE
  8
0
 10
82.500000
 20
74.000031
 40
11.500001
  0
CIRCLE
  8
0
 10
82.500000
 20
46.000023
 40
11.500001
  0
ARC
  8
0
 10
72.599976
 20
64.200005
 40
2.099998
 50
270.000000
 51
90.000000
  0
ARC
  8
0
 10
92.399994
 20
64.200005
 40
2.099998
 50
90.000000
 51
270.000000
  0
ARC
  8
0
 10
82.500000
 20
88.383575
 40
2.099998
 50
180.000000
 51
0.000000
  0
ARC
  8
0
 10
92.399994
 20
84.199997
 40
2.099998
 50
90.000000
 51
270.000000
  0
ARC
  8
0
 10
72.599991
 20
84.199982
 40
2.099998
 50
270.000000
 51
90.000000
  0
CIRCLE
  8
0
 62
     2
 10
-15.000061
 20
-3.499992
 40
2.500000
  0
CIRCLE
  8
0
 62
     2
 10
15.999916
 20
-3.499992
 40
2.500000
  0
CIRCLE
  8
0
 10
-15.000061
 20
-3.499992
 40
2.094999
  0
CIRCLE
  8
0
 10
15.999916
 20
-3.499992
 40
2.094999
  0
ARC
  8
0
 10
-47.072598
 20
-11.499977
 40
7.072560
 50
343.573639
 51
16.426323
  0
ARC
  8
0
 10
-47.072598
 20
-7.499992
 40
7.072560
 50
343.573639
 51
351.871613
  0
ARC
  8
0
 10
-41.927486
 20
-7.499992
 40
7.072560
 50
188.128403
 51
196.426361
  0
ARC
  8
0
 10
-41.927486
 20
-11.499977
 40
7.072560
 50
163.573639
 51
196.426300
  0
ARC
  8
0
 10
-35.407490
 20
-7.499992
 40
7.072560
 50
188.128403
 51
196.426361
  0
ARC
  8
0
 10
-35.407490
 20
-11.499977
 40
7.072560
 50
163.573639
 51
196.426300
  0
ARC
  8
0
 62
     4
 10
-121.639130
 20
-108.859520
 40
2.050003
 50
180.000000
 51
270.000000
  0
ARC
  8
0
 62
     4
 10
-121.639130
 20
-108.859520
 40
2.050003
 50
270.000000
 51
0.000000
  0
CIRCLE
  8
0
 62
     1
 10
-75.096390
 20
-63.765808
 40
1.000000
  0
CIRCLE
  8
0
 62
     4
 10
-75.096390
 20
-63.765808
 40
1.250000
  0
ARC
  8
0
 62
     4
 10
16.672012
 20
-108.859520
 40
2.050000
 50
180.000000
 51
270.000000
  0
ARC
  8
0
 62
     4
 10
16.672012
 20
-108.859520
 40
2.050003
 50
271.259949
 51
0.000000
  0
ARC
  8
0
 62
     4
 10
79.214737
 20
-58.709511
 40
3.300002
 50
137.014145
 51
222.985855
  0
CIRCLE
  8
0
 62
     4
 10
79.122086
 20
-58.709511
 40
1.300000
  0
CIRCLE
  8
0
 62
     4
 10
79.443893
 20
-59.050514
 40
0.450000
  0
CIRCLE
  8
0
 62
     4
 10
78.832016
 20
-58.391357
 40
0.450000
  0
CIRCLE
  8
0
 62
     4
 10
79.443893
 20
-59.050514
 40
0.250000
  0
CIRCLE
  8
0
 62
     4
 10
78.832016
 20
-58.391357
 40
0.250000
  0
CIRCLE
  8
0
 62
     1
 10
61.714737
 20
-58.715797
 40
1.000000
  0
CIRCLE
  8
0
 62
     4
 10
61.714737
 20
-58.715797
 40
1.250000
  0
TEXT
  8
0
 10
115.907150
 20
122.050003
 40
4.500000
  1
DATE : APR ,1994
 50
0.000000
 41
1.052631
 51
0.000000
  7
STANDARD
  0
TEXT
  8
0
 10
113.700279
 20
-130.669998
 40
6.300000
  1
KOGANEI CORP.
 50
0.000000
 41
1.052632
 51
0.000000
  7
STANDARD
  0
TEXT
  8
0
 10
-190.392654
 20
122.050003
 40
4.500000
  1
TWIN ROD CYLINDER
 50
0.000000
 41
1.052632
 51
0.000000
  7
STANDARD
  0
TEXT
  8
0
 10
-186.892654
 20
104.550003
 40
4.500000
  1
MODEL:TBSA20*ST(10)
 50
0.000000
 41
1.052632
 51
0.000000
  7
STANDARD
  0
TEXT
  8
0
 62
     3
 10
-3.032074
 20
97.809914
 40
3.200000
  1
STRETCH LINE B
 50
0.000000
 41
1.052632
 51
0.000000
  7
STANDARD
  0
TEXT
  8
0
 62
     3
 10
-18.285784
 20
104.419708
 40
3.200000
  1
STRETCH LINE A
 50
0.000000
 41
1.052632
 51
0.000000
  7
STANDARD
  0
TEXT
  8
0
 10
95.668526
 20
1.563622
 40
3.200000
  1
STROKE
 50
0.000000
 41
1.052632
 51
0.000000
  7
STANDARD
  0
TEXT
  8
0
 10
121.068527
 20
7.563622
 40
3.200000
  1
STRETCH LIST
 50
0.000000
 41
1.052632
 51
0.000000
  7
STANDARD
  0
TEXT
  8
0
 10
179.568527
 20
-4.436378
 40
3.200000
  1
60
 50
0.000000
 41
1.052632
 51
0.000000
  7
STANDARD
  0
TEXT
  8
0
 10
167.568527
 20
-4.436378
 40
3.200000
  1
50
 50
0.000000
 41
1.052632
 51
0.000000
  7
STANDARD
  0
TEXT
  8
0
 10
155.568527
 20
-4.436378
 40
3.200000
  1
40
 50
0.000000
 41
1.052632
 51
0.000000
  7
STANDARD
  0
TEXT
  8
0
 10
143.568527
 20
-4.436378
 40
3.200000
  1
30
 50
0.000000
 41
1.052632
 51
0.000000
  7
STANDARD
  0
TEXT
  8
0
 10
131.568527
 20
-4.436378
 40
3.200000
  1
20
 50
0.000000
 41
1.052632
 51
0.000000
  7
STANDARD
  0
TEXT
  8
0
 10
119.568527
 20
-4.436378
 40
3.200000
  1
10
 50
0.000000
 41
1.052632
 51
0.000000
  7
STANDARD
  0
TEXT
  8
0
 10
179.568527
 20
-16.436378
 40
3.200000
  1
25
 50
0.000000
 41
1.052632
 51
0.000000
  7
STANDARD
  0
TEXT
  8
0
 10
167.568527
 20
-16.436378
 40
3.200000
  1
20
 50
0.000000
 41
1.052632
 51
0.000000
  7
STANDARD
  0
TEXT
  8
0
 10
155.568527
 20
-16.436378
 40
3.200000
  1
15
 50
0.000000
 41
1.052632
 51
0.000000
  7
STANDARD
  0
TEXT
  8
0
 10
145.168518
 20
-16.436377
 40
3.200000
  1
5
 50
0.000000
 41
1.052632
 51
0.000000
  7
STANDARD
  0
TEXT
  8
0
 10
121.168526
 20
-16.436377
 40
3.200000
  1
0
 50
0.000000
 41
1.052632
 51
0.000000
  7
STANDARD
  0
TEXT
  8
0
 10
176.368530
 20
7.563622
 40
3.200000
  1
(mm)
 50
0.000000
 41
1.052632
 51
0.000000
  7
STANDARD
  0
TEXT
  8
0
 10
92.465004
 20
-5.056375
 40
3.200000
  1
STRETCH
 50
0.000000
 41
1.052632
 51
0.000000
  7
STANDARD
  0
TEXT
  8
0
 10
92.465004
 20
-9.856375
 40
3.200000
  1
  PLACE
 50
0.000000
 41
1.052632
 51
0.000000
  7
STANDARD
  0
TEXT
  8
0
 10
102.668526
 20
-16.436377
 40
3.200000
  1
A
 50
0.000000
 41
1.052632
 51
0.000000
  7
STANDARD
  0
TEXT
  8
0
 10
102.668526
 20
-22.436380
 40
3.200000
  1
B
 50
0.000000
 41
1.052632
 51
0.000000
  7
STANDARD
  0
TEXT
  8
0
 10
167.568527
 20
-22.436378
 40
3.200000
  1
30
 50
0.000000
 41
1.052632
 51
0.000000
  7
STANDARD
  0
TEXT
  8
0
 10
155.568527
 20
-22.436378
 40
3.200000
  1
25
 50
0.000000
 41
1.052632
 51
0.000000
  7
STANDARD
  0
TEXT
  8
0
 10
143.568527
 20
-22.436378
 40
3.200000
  1
15
 50
0.000000
 41
1.052632
 51
0.000000
  7
STANDARD
  0
TEXT
  8
0
 10
131.568527
 20
-22.436378
 40
3.200000
  1
10
 50
0.000000
 41
1.052632
 51
0.000000
  7
STANDARD
  0
TEXT
  8
0
 10
121.168526
 20
-22.436377
 40
3.200000
  1
0
 50
0.000000
 41
1.052632
 51
0.000000
  7
STANDARD
  0
TEXT
  8
0
 10
179.568527
 20
-22.436378
 40
3.200000
  1
35
 50
0.000000
 41
1.052632
 51
0.000000
  7
STANDARD
  0
TEXT
  8
0
 10
133.168518
 20
-16.436377
 40
3.200000
  1
0
 50
0.000000
 41
1.052632
 51
0.000000
  7
STANDARD
  0
TEXT
  8
0
 10
-130.789764
 20
-71.912018
 40
4.500000
  1
ZE102
 50
0.000000
 41
1.052632
 51
0.000000
  7
STANDARD
  0
TEXT
  8
0
 10
-166.789764
 20
-46.562019
 40
4.500000
  1
SENSOR
 50
0.000000
 41
1.052632
 51
0.000000
  7
STANDARD
  0
TEXT
  8
0
 10
-166.789764
 20
-53.312019
 40
4.500000
  1
 SWITCH:ZE135
 50
0.000000
 41
1.052632
 51
0.000000
  7
STANDARD
  0
TEXT
  8
0
 10
-130.789764
 20
-59.912018
 40
4.500000
  1
ZE155
 50
0.000000
 41
1.052632
 51
0.000000
  7
STANDARD
  0
TEXT
  8
0
 10
-130.789764
 20
-65.912018
 40
4.500000
  1
ZE101
 50
0.000000
 41
1.052632
 51
0.000000
  7
STANDARD
  0
TEXT
  8
0
 10
-29.789761
 20
-46.562019
 40
4.500000
  1
SENSOR
 50
0.000000
 41
1.052632
 51
0.000000
  7
STANDARD
  0
TEXT
  8
0
 10
-29.789762
 20
-53.312019
 40
4.500000
  1
 SWITCH:ZE235
 50
0.000000
 41
1.052632
 51
0.000000
  7
STANDARD
  0
TEXT
  8
0
 10
6.210238
 20
-59.912018
 40
4.500000
  1
ZE255
 50
0.000000
 41
1.052632
 51
0.000000
  7
STANDARD
  0
TEXT
  8
0
 10
6.210238
 20
-65.912018
 40
4.500000
  1
ZE201
 50
0.000000
 41
1.052632
 51
0.000000
  7
STANDARD
  0
TEXT
  8
0
 10
6.210238
 20
-71.912018
 40
4.500000
  1
ZE202
 50
0.000000
 41
1.052632
 51
0.000000
  7
STANDARD
  0
ENDSEC
  0
EOF
