  0
SECTION
  2
HEADER
  0
ENDSEC
  0
SECTION
  2
TABLES
  0
TABLE
  2
LTYPE
 70
     4
  0
LTYPE
  2
CONTINUOUS
 70
    64
  3
Solid line
 72
    65
 73
     0
 40
0.000000
  0
LTYPE
  2
DASHED
 70
    64
  3
__ __ __ __ __ __ __ __ __ __ __ __ __ __ __
 72
    65
 73
     2
 40
3.500000
 49
2.000000
 49
-1.500000
  0
LTYPE
  2
CENTER
 70
    64
  3
____ _ ____ _ ____ _ ____ _ ____ _ ____ _ ____
 72
    65
 73
     4
 40
17.500000
 49
13.000000
 49
-1.500000
 49
1.500000
 49
-1.500000
  0
LTYPE
  2
PHANTOM
 70
    64
  3
_____ _ _ _____ _ _ _____ _ _ _____ _ _ ____  
 72
    65
 73
     6
 40
15.500000
 49
8.000000
 49
-1.500000
 49
1.500000
 49
-1.500000
 49
1.500000
 49
-1.500000
  0
ENDTAB
  0
TABLE
  2
LAYER
 70
     1
  0
LAYER
  2
0
 70
     0
 62
     7
  6
CONTINUOUS
  0
ENDTAB
  0
TABLE
  2
STYLE
 70
     1
  0
STYLE
  2
STANDARD
 70
     0
 40
0.000000
 41
1.000000
 50
0.000000
 71
     0
 42
0.200000
  3
txt
  4
BIGFONT
  0
ENDTAB
  0
TABLE
  2
VIEW
 70
     0
  0
ENDTAB
  0
ENDSEC
  0
SECTION
  2
BLOCKS
  0
ENDSEC
  0
SECTION
  2
ENTITIES
  0
LINE
  8
0
  6
CONTINUOUS
 62
7
 10
-281.250000
 20
195.500000
 11
282.100006
 21
195.500000
  0
LINE
  8
0
  6
CONTINUOUS
 62
7
 10
-281.250000
 20
195.500000
 11
-281.250000
 21
-195.000000
  0
LINE
  8
0
  6
CONTINUOUS
 62
7
 10
282.100006
 20
195.500000
 11
282.100006
 21
-195.000000
  0
LINE
  8
0
  6
CONTINUOUS
 62
7
 10
-281.250000
 20
-195.000000
 11
282.100006
 21
-195.000000
  0
LINE
  8
0
  6
CONTINUOUS
 62
7
 10
162.100006
 20
-175.000000
 11
162.100006
 21
-195.000000
  0
LINE
  8
0
  6
CONTINUOUS
 62
7
 10
162.100006
 20
-175.000000
 11
282.100006
 21
-175.000000
  0
LINE
  8
0
  6
CONTINUOUS
 62
7
 10
162.100006
 20
175.500000
 11
282.100006
 21
175.500000
  0
LINE
  8
0
  6
CONTINUOUS
 62
7
 10
-281.250000
 20
175.500000
 11
-161.250000
 21
175.500000
  0
LINE
  8
0
  6
CONTINUOUS
 62
7
 10
162.100006
 20
195.500000
 11
162.100006
 21
175.500000
  0
LINE
  8
0
  6
CONTINUOUS
 62
7
 10
-161.250000
 20
195.500000
 11
-161.250000
 21
175.500000
  0
LINE
  8
0
  6
CONTINUOUS
 62
7
 10
-271.250000
 20
-133.000000
 11
-271.250000
 21
-185.000000
  0
LINE
  8
0
  6
CONTINUOUS
 62
7
 10
-271.250000
 20
-185.000000
 11
-6.250000
 21
-185.000000
  0
LINE
  8
0
  6
CONTINUOUS
 62
7
 10
-271.250000
 20
-155.000000
 11
-6.250000
 21
-155.000000
  0
LINE
  8
0
  6
CONTINUOUS
 62
7
 10
-271.250000
 20
-133.000000
 11
-6.250000
 21
-133.000000
  0
LINE
  8
0
  6
CONTINUOUS
 62
7
 10
-226.250000
 20
-133.000000
 11
-226.250000
 21
-185.000000
  0
LINE
  8
0
  6
CONTINUOUS
 62
7
 10
-204.250000
 20
-133.000000
 11
-204.250000
 21
-185.000000
  0
LINE
  8
0
  6
CONTINUOUS
 62
7
 10
-182.250000
 20
-133.000000
 11
-182.250000
 21
-185.000000
  0
LINE
  8
0
  6
CONTINUOUS
 62
7
 10
-160.250000
 20
-133.000000
 11
-160.250000
 21
-185.000000
  0
LINE
  8
0
  6
CONTINUOUS
 62
7
 10
-138.250000
 20
-133.000000
 11
-138.250000
 21
-185.000000
  0
LINE
  8
0
  6
CONTINUOUS
 62
7
 10
-116.250000
 20
-133.000000
 11
-116.250000
 21
-185.000000
  0
LINE
  8
0
  6
CONTINUOUS
 62
7
 10
-94.250000
 20
-133.000000
 11
-94.250000
 21
-185.000000
  0
LINE
  8
0
  6
CONTINUOUS
 62
7
 10
-6.250000
 20
-133.000000
 11
-6.250000
 21
-185.000000
  0
LINE
  8
0
  6
CONTINUOUS
 62
7
 10
-271.250000
 20
-175.000000
 11
-6.250000
 21
-175.000000
  0
LINE
  8
0
  6
CONTINUOUS
 62
7
 10
-271.250000
 20
-165.000000
 11
-6.250000
 21
-165.000000
  0
LINE
  8
0
  6
CONTINUOUS
 62
7
 10
-271.250000
 20
-141.000000
 11
-234.516998
 21
-141.000000
  0
LINE
  8
0
  6
CONTINUOUS
 62
7
 10
-234.518005
 20
-141.000000
 11
-226.250000
 21
-155.000000
  0
LINE
  8
0
  6
CONTINUOUS
 62
7
 10
-72.250000
 20
-133.000000
 11
-72.250000
 21
-185.000000
  0
LINE
  8
0
  6
CONTINUOUS
 62
7
 10
-50.250000
 20
-133.000000
 11
-50.250000
 21
-185.000000
  0
LINE
  8
0
  6
CONTINUOUS
 62
7
 10
-28.250000
 20
-133.000000
 11
-28.250000
 21
-185.000000
  0
LINE
  8
0
  6
CENTER
 62
2
 10
-158.000000
 20
142.929001
 11
-158.000000
 21
34.814301
  0
LINE
  8
0
  6
CENTER
 62
2
 10
-180.143005
 20
90.000000
 11
-136.235992
 21
90.000000
  0
LINE
  8
0
  6
CONTINUOUS
 62
7
 10
-139.000000
 20
137.000000
 11
-139.000000
 21
43.000000
  0
LINE
  8
0
  6
CONTINUOUS
 62
7
 10
-177.000000
 20
137.000000
 11
-177.000000
 21
43.000000
  0
LINE
  8
0
  6
CONTINUOUS
 62
7
 10
-177.000000
 20
43.000000
 11
-139.000000
 21
43.000000
  0
LINE
  8
0
  6
CONTINUOUS
 62
7
 10
-177.000000
 20
137.000000
 11
-139.000000
 21
137.000000
  0
LINE
  8
0
  6
CENTER
 62
2
 10
-163.500000
 20
131.500000
 11
-152.500000
 21
131.500000
  0
LINE
  8
0
  6
CENTER
 62
2
 10
-169.000000
 20
111.000000
 11
-147.000000
 21
111.000000
  0
LINE
  8
0
  6
CENTER
 62
2
 10
-169.000000
 20
69.000000
 11
-147.000000
 21
69.000000
  0
LINE
  8
0
  6
CENTER
 62
2
 10
-163.500000
 20
48.500099
 11
-152.500000
 21
48.500099
  0
LINE
  8
0
  6
CONTINUOUS
 62
7
 10
-139.000000
 20
138.000000
 11
-138.000000
 21
137.000000
  0
LINE
  8
0
  6
CONTINUOUS
 62
7
 10
-139.000000
 20
138.000000
 11
-156.399994
 21
138.000000
  0
LINE
  8
0
  6
CONTINUOUS
 62
7
 10
-159.600006
 20
138.000000
 11
-177.000000
 21
138.000000
  0
LINE
  8
0
  6
CONTINUOUS
 62
7
 10
-178.000000
 20
137.000000
 11
-177.000000
 21
138.000000
  0
LINE
  8
0
  6
CONTINUOUS
 62
7
 10
-178.000000
 20
137.000000
 11
-178.000000
 21
129.500000
  0
LINE
  8
0
  6
CONTINUOUS
 62
7
 10
-138.000000
 20
137.000000
 11
-138.000000
 21
129.500000
  0
LINE
  8
0
  6
CONTINUOUS
 62
7
 10
-138.000000
 20
92.300003
 11
-138.000000
 21
43.000000
  0
LINE
  8
0
  6
CONTINUOUS
 62
7
 10
-178.000000
 20
92.300003
 11
-178.000000
 21
43.000000
  0
LINE
  8
0
  6
CONTINUOUS
 62
7
 10
-139.000000
 20
42.000000
 11
-177.000000
 21
42.000000
  0
LINE
  8
0
  6
CONTINUOUS
 62
7
 10
-178.000000
 20
43.000099
 11
-177.000000
 21
42.000099
  0
LINE
  8
0
  6
CONTINUOUS
 62
7
 10
-138.000000
 20
43.000000
 11
-139.000000
 21
42.000000
  0
LINE
  8
0
  6
CONTINUOUS
 62
7
 10
-158.000000
 20
115.619003
 11
-154.000000
 21
113.308998
  0
LINE
  8
0
  6
CONTINUOUS
 62
7
 10
-162.000000
 20
113.309998
 11
-158.000000
 21
115.619003
  0
LINE
  8
0
  6
CONTINUOUS
 62
7
 10
-162.000000
 20
108.691002
 11
-162.000000
 21
113.308998
  0
LINE
  8
0
  6
CONTINUOUS
 62
7
 10
-158.000000
 20
106.380997
 11
-162.000000
 21
108.691002
  0
LINE
  8
0
  6
CONTINUOUS
 62
7
 10
-154.000000
 20
108.691002
 11
-158.000000
 21
106.380997
  0
LINE
  8
0
  6
CONTINUOUS
 62
7
 10
-154.000000
 20
113.308998
 11
-154.000000
 21
108.691002
  0
LINE
  8
0
  6
CONTINUOUS
 62
7
 10
-162.000000
 20
66.690598
 11
-158.000000
 21
64.381203
  0
LINE
  8
0
  6
CONTINUOUS
 62
7
 10
-162.000000
 20
71.309402
 11
-162.000000
 21
66.690598
  0
LINE
  8
0
  6
CONTINUOUS
 62
7
 10
-158.000000
 20
73.618797
 11
-162.000000
 21
71.309402
  0
LINE
  8
0
  6
CONTINUOUS
 62
7
 10
-154.000000
 20
71.309502
 11
-158.000000
 21
73.618896
  0
LINE
  8
0
  6
CONTINUOUS
 62
7
 10
-158.000000
 20
64.381203
 11
-154.000000
 21
66.690697
  0
LINE
  8
0
  6
CONTINUOUS
 62
7
 10
-154.000000
 20
66.690697
 11
-154.000000
 21
71.309502
  0
LINE
  8
0
  6
CONTINUOUS
 62
7
 10
-138.500000
 20
92.300003
 11
-139.000000
 21
91.800003
  0
LINE
  8
0
  6
CONTINUOUS
 62
7
 10
-138.000000
 20
95.500000
 11
-138.470001
 21
95.500000
  0
LINE
  8
0
  6
CONTINUOUS
 62
7
 10
-138.000000
 20
92.300003
 11
-138.470001
 21
92.300003
  0
LINE
  8
0
  6
CONTINUOUS
 62
7
 10
-138.500000
 20
95.500099
 11
-139.000000
 21
95.999901
  0
LINE
  8
0
  6
CONTINUOUS
 62
7
 10
-138.500000
 20
92.300003
 11
-139.000000
 21
91.800003
  0
LINE
  8
0
  6
CONTINUOUS
 62
7
 10
-138.000000
 20
95.500000
 11
-138.500000
 21
95.500000
  0
LINE
  8
0
  6
CONTINUOUS
 62
7
 10
-138.000000
 20
92.300003
 11
-138.500000
 21
92.300003
  0
LINE
  8
0
  6
CONTINUOUS
 62
7
 10
-160.084000
 20
137.000000
 11
-159.600006
 21
137.483994
  0
LINE
  8
0
  6
CONTINUOUS
 62
7
 10
-159.600006
 20
138.000000
 11
-159.600006
 21
137.483994
  0
LINE
  8
0
  6
CONTINUOUS
 62
7
 10
-156.399994
 20
138.000000
 11
-156.399994
 21
137.483994
  0
LINE
  8
0
  6
CONTINUOUS
 62
7
 10
-156.399994
 20
137.483002
 11
-155.917007
 21
137.000000
  0
LINE
  8
0
  6
CONTINUOUS
 62
7
 10
-177.483002
 20
95.499901
 11
-177.000000
 21
95.983299
  0
LINE
  8
0
  6
CONTINUOUS
 62
7
 10
-177.000000
 20
91.816498
 11
-177.483994
 21
92.300003
  0
LINE
  8
0
  6
CONTINUOUS
 62
7
 10
-178.000000
 20
92.300003
 11
-177.483994
 21
92.300003
  0
LINE
  8
0
  6
CONTINUOUS
 62
7
 10
-178.000000
 20
95.500000
 11
-177.483994
 21
95.500000
  0
LINE
  8
0
  6
CONTINUOUS
 62
7
 10
-178.000000
 20
126.300003
 11
-177.483994
 21
126.300003
  0
LINE
  8
0
  6
CONTINUOUS
 62
7
 10
-177.000000
 20
125.817001
 11
-177.483994
 21
126.300003
  0
LINE
  8
0
  6
CONTINUOUS
 62
7
 10
-178.000000
 20
129.500000
 11
-177.483994
 21
129.500000
  0
LINE
  8
0
  6
CONTINUOUS
 62
7
 10
-177.483002
 20
129.500000
 11
-177.000000
 21
129.983002
  0
LINE
  8
0
  6
CONTINUOUS
 62
7
 10
-178.000000
 20
126.300003
 11
-178.000000
 21
95.500000
  0
LINE
  8
0
  6
CONTINUOUS
 62
7
 10
-138.500000
 20
129.500000
 11
-139.000000
 21
130.000000
  0
LINE
  8
0
  6
CONTINUOUS
 62
7
 10
-138.500000
 20
126.300003
 11
-139.000000
 21
125.800003
  0
LINE
  8
0
  6
CONTINUOUS
 62
7
 10
-138.000000
 20
129.500000
 11
-138.470001
 21
129.500000
  0
LINE
  8
0
  6
CONTINUOUS
 62
7
 10
-138.000000
 20
126.300003
 11
-138.470001
 21
126.300003
  0
LINE
  8
0
  6
CONTINUOUS
 62
7
 10
-138.500000
 20
129.500000
 11
-139.000000
 21
130.000000
  0
LINE
  8
0
  6
CONTINUOUS
 62
7
 10
-138.500000
 20
126.300003
 11
-139.000000
 21
125.800003
  0
LINE
  8
0
  6
CONTINUOUS
 62
7
 10
-138.000000
 20
129.500000
 11
-138.500000
 21
129.500000
  0
LINE
  8
0
  6
CONTINUOUS
 62
7
 10
-138.000000
 20
126.300003
 11
-138.500000
 21
126.300003
  0
LINE
  8
0
  6
CONTINUOUS
 62
7
 10
-138.000000
 20
126.300003
 11
-138.000000
 21
95.500000
  0
LINE
  8
0
  6
PHANTOM
 62
3
 10
-43.500000
 20
168.000000
 11
-43.500000
 21
31.500000
  0
LINE
  8
0
  6
PHANTOM
 62
3
 10
36.500000
 20
148.000000
 11
36.500000
 21
31.500000
  0
LINE
  8
0
  6
PHANTOM
 62
3
 10
8.500000
 20
158.000000
 11
8.500000
 21
31.500000
  0
LINE
  8
0
  6
CONTINUOUS
 62
7
 10
70.000000
 20
137.000000
 11
70.000000
 21
43.000000
  0
LINE
  8
0
  6
CONTINUOUS
 62
7
 10
-51.000000
 20
137.000000
 11
-51.000000
 21
43.000000
  0
LINE
  8
0
  6
CONTINUOUS
 62
7
 10
-68.000000
 20
137.000000
 11
-68.000000
 21
43.000000
  0
LINE
  8
0
  6
CONTINUOUS
 62
7
 10
-27.000000
 20
138.000000
 11
69.000000
 21
138.000000
  0
LINE
  8
0
  6
CONTINUOUS
 62
7
 10
-27.000000
 20
42.000000
 11
69.000000
 21
42.000000
  0
LINE
  8
0
  6
CONTINUOUS
 62
7
 10
-28.000000
 20
137.000000
 11
-27.000000
 21
138.000000
  0
LINE
  8
0
  6
CONTINUOUS
 62
7
 10
70.000000
 20
137.000000
 11
69.000000
 21
138.000000
  0
LINE
  8
0
  6
CONTINUOUS
 62
7
 10
70.000099
 20
43.000000
 11
69.000099
 21
42.000000
  0
LINE
  8
0
  6
CONTINUOUS
 62
7
 10
-28.000000
 20
43.000000
 11
-26.999901
 21
42.000000
  0
LINE
  8
0
  6
CONTINUOUS
 62
7
 10
-68.000000
 20
137.000000
 11
-51.000000
 21
137.000000
  0
LINE
  8
0
  6
CONTINUOUS
 62
7
 10
-68.000000
 20
43.000000
 11
-51.000000
 21
43.000000
  0
LINE
  8
0
  6
CENTER
 62
2
 10
-72.658302
 20
90.000000
 11
74.043404
 21
90.000000
  0
LINE
  8
0
  6
CENTER
 62
2
 10
-72.714203
 20
111.000000
 11
-22.435200
 21
111.000000
  0
LINE
  8
0
  6
CENTER
 62
2
 10
-72.714203
 20
69.000000
 11
-22.149700
 21
69.000000
  0
LINE
  8
0
  6
CONTINUOUS
 62
7
 10
-51.000000
 20
103.000000
 11
-28.000000
 21
103.000000
  0
LINE
  8
0
  6
CONTINUOUS
 62
7
 10
-51.000000
 20
119.000000
 11
-28.000000
 21
119.000000
  0
LINE
  8
0
  6
CONTINUOUS
 62
7
 10
-51.000000
 20
61.000000
 11
-28.000000
 21
61.000000
  0
LINE
  8
0
  6
CONTINUOUS
 62
7
 10
-51.000000
 20
77.000000
 11
-28.000000
 21
77.000000
  0
LINE
  8
0
  6
CENTER
 62
2
 10
20.500000
 20
131.500000
 11
33.500000
 21
131.500000
  0
LINE
  8
0
  6
CENTER
 62
2
 10
20.500000
 20
48.500000
 11
33.500000
 21
48.500000
  0
LINE
  8
0
  6
CENTER
 62
2
 10
-11.000000
 20
96.500000
 11
-11.000000
 21
83.500000
  0
LINE
  8
0
  6
CENTER
 62
2
 10
27.000000
 20
138.000000
 11
27.000000
 21
125.000000
  0
LINE
  8
0
  6
CENTER
 62
2
 10
27.000000
 20
55.000000
 11
27.000000
 21
42.000000
  0
LINE
  8
0
  6
CENTER
 62
2
 10
44.000000
 20
96.500000
 11
44.000000
 21
83.500000
  0
LINE
  8
0
  6
CONTINUOUS
 62
7
 10
-50.000000
 20
95.000000
 11
-50.000000
 21
85.000000
  0
LINE
  8
0
  6
CONTINUOUS
 62
7
 10
-51.000000
 20
95.000000
 11
-50.000000
 21
95.000000
  0
LINE
  8
0
  6
CONTINUOUS
 62
7
 10
-51.000000
 20
85.000000
 11
-50.000000
 21
85.000000
  0
LINE
  8
0
  6
CONTINUOUS
 62
7
 10
-39.553398
 20
95.773499
 11
-36.000000
 21
95.773499
  0
LINE
  8
0
  6
CONTINUOUS
 62
7
 10
-40.000000
 20
95.000000
 11
-39.553398
 21
95.773499
  0
LINE
  8
0
  6
CONTINUOUS
 62
7
 10
-40.000000
 20
95.000000
 11
-40.000000
 21
85.000000
  0
LINE
  8
0
  6
CONTINUOUS
 62
7
 10
-39.553398
 20
92.886703
 11
-36.000000
 21
92.886703
  0
LINE
  8
0
  6
CONTINUOUS
 62
7
 10
-39.553398
 20
87.113197
 11
-36.000000
 21
87.113197
  0
LINE
  8
0
  6
CONTINUOUS
 62
7
 10
-39.999901
 20
85.000000
 11
-39.553398
 21
84.226501
  0
LINE
  8
0
  6
CONTINUOUS
 62
7
 10
-39.553398
 20
84.226501
 11
-36.000000
 21
84.226501
  0
LINE
  8
0
  6
CONTINUOUS
 62
7
 10
-36.000000
 20
95.773499
 11
-36.000000
 21
84.226501
  0
LINE
  8
0
  6
CONTINUOUS
 62
7
 10
-36.000000
 20
93.000000
 11
-32.000000
 21
93.000000
  0
LINE
  8
0
  6
CONTINUOUS
 62
7
 10
-36.000000
 20
87.000000
 11
-32.000000
 21
87.000000
  0
LINE
  8
0
  6
CENTER
 62
2
 10
-65.500000
 20
126.000000
 11
-53.247101
 21
126.000000
  0
LINE
  8
0
  6
CENTER
 62
2
 10
-65.500000
 20
54.000000
 11
-53.389900
 21
54.000000
  0
LINE
  8
0
  6
CENTER
 62
2
 10
-59.500000
 20
132.362000
 11
-59.500000
 21
119.042999
  0
LINE
  8
0
  6
CENTER
 62
2
 10
-59.500000
 20
61.396500
 11
-59.500000
 21
47.697201
  0
LINE
  8
0
  6
CONTINUOUS
 62
7
 10
-31.553400
 20
95.773499
 11
-28.446600
 21
95.773499
  0
LINE
  8
0
  6
CONTINUOUS
 62
7
 10
-32.000000
 20
95.000000
 11
-31.553400
 21
95.773499
  0
LINE
  8
0
  6
CONTINUOUS
 62
7
 10
-32.000000
 20
95.000000
 11
-32.000000
 21
85.000000
  0
LINE
  8
0
  6
CONTINUOUS
 62
7
 10
-31.553400
 20
92.886703
 11
-28.446600
 21
92.886703
  0
LINE
  8
0
  6
CONTINUOUS
 62
7
 10
-31.553400
 20
87.113197
 11
-28.446600
 21
87.113197
  0
LINE
  8
0
  6
CONTINUOUS
 62
7
 10
-31.553400
 20
84.226501
 11
-28.446600
 21
84.226501
  0
LINE
  8
0
  6
CONTINUOUS
 62
7
 10
-31.999901
 20
85.000000
 11
-31.553400
 21
84.226501
  0
LINE
  8
0
  6
CONTINUOUS
 62
7
 10
-28.000000
 20
85.000000
 11
-28.446501
 21
84.226501
  0
LINE
  8
0
  6
CONTINUOUS
 62
7
 10
-27.999901
 20
95.000000
 11
-28.446501
 21
95.773499
  0
LINE
  8
0
  6
CONTINUOUS
 62
7
 10
-28.000000
 20
137.000000
 11
-28.000000
 21
43.000000
  0
LINE
  8
0
  6
CONTINUOUS
 62
2
 10
-36.000000
 20
92.250000
 11
-32.000000
 21
92.250000
  0
LINE
  8
0
  6
CONTINUOUS
 62
2
 10
-36.000000
 20
87.750000
 11
-32.000000
 21
87.750000
  0
LINE
  8
0
  6
CONTINUOUS
 62
7
 10
-49.000000
 20
114.441002
 11
-49.000000
 21
107.558998
  0
LINE
  8
0
  6
CONTINUOUS
 62
7
 10
-51.000000
 20
114.441002
 11
-49.000000
 21
114.441002
  0
LINE
  8
0
  6
CONTINUOUS
 62
7
 10
-51.000000
 20
107.558998
 11
-49.000000
 21
107.558998
  0
LINE
  8
0
  6
CONTINUOUS
 62
7
 10
-51.000000
 20
65.559097
 11
-49.000000
 21
65.559097
  0
LINE
  8
0
  6
CONTINUOUS
 62
7
 10
-51.000000
 20
72.440903
 11
-49.000000
 21
72.440903
  0
LINE
  8
0
  6
CONTINUOUS
 62
7
 10
-49.000000
 20
72.440903
 11
-49.000000
 21
65.559097
  0
LINE
  8
0
  6
CONTINUOUS
 62
7
 10
-28.000000
 20
95.500000
 11
70.000000
 21
95.500000
  0
LINE
  8
0
  6
CONTINUOUS
 62
7
 10
-28.000000
 20
92.300003
 11
-14.867800
 21
92.300003
  0
LINE
  8
0
  6
CONTINUOUS
 62
7
 10
-28.000000
 20
129.500000
 11
22.968901
 21
129.500000
  0
LINE
  8
0
  6
CONTINUOUS
 62
7
 10
-28.000000
 20
126.300003
 11
70.000000
 21
126.300003
  0
LINE
  8
0
  6
CONTINUOUS
 62
7
 10
31.031200
 20
129.500000
 11
70.000000
 21
129.500000
  0
LINE
  8
0
  6
CONTINUOUS
 62
7
 10
47.867802
 20
92.300003
 11
70.000000
 21
92.300003
  0
LINE
  8
0
  6
CONTINUOUS
 62
7
 10
-7.132180
 20
92.300003
 11
40.132198
 21
92.300003
  0
LINE
  8
0
  6
CONTINUOUS
 62
2
 10
-49.000000
 20
114.441002
 11
-51.000000
 21
107.558998
  0
LINE
  8
0
  6
CONTINUOUS
 62
2
 10
-49.000000
 20
107.558998
 11
-51.000000
 21
114.441002
  0
LINE
  8
0
  6
CONTINUOUS
 62
2
 10
-49.000000
 20
72.440903
 11
-51.000000
 21
65.559097
  0
LINE
  8
0
  6
CONTINUOUS
 62
2
 10
-49.000000
 20
65.559097
 11
-51.000000
 21
72.440903
  0
LINE
  8
0
  6
CONTINUOUS
 62
7
 10
179.000000
 20
137.000000
 11
179.000000
 21
129.500000
  0
LINE
  8
0
  6
CONTINUOUS
 62
7
 10
139.000000
 20
137.000000
 11
139.000000
 21
129.500000
  0
LINE
  8
0
  6
CENTER
 62
2
 10
159.000000
 20
143.557007
 11
159.000000
 21
34.814201
  0
LINE
  8
0
  6
CONTINUOUS
 62
7
 10
140.000000
 20
138.000000
 11
157.399994
 21
138.000000
  0
LINE
  8
0
  6
CONTINUOUS
 62
7
 10
140.000000
 20
41.999901
 11
178.000000
 21
41.999901
  0
LINE
  8
0
  6
CONTINUOUS
 62
7
 10
140.000000
 20
138.000000
 11
139.000000
 21
137.000000
  0
LINE
  8
0
  6
CONTINUOUS
 62
7
 10
179.000000
 20
137.000000
 11
178.000000
 21
138.000000
  0
LINE
  8
0
  6
CONTINUOUS
 62
7
 10
179.000000
 20
42.999901
 11
178.000000
 21
41.999901
  0
LINE
  8
0
  6
CONTINUOUS
 62
7
 10
139.000000
 20
43.000000
 11
140.000000
 21
42.000000
  0
LINE
  8
0
  6
CENTER
 62
2
 10
133.429001
 20
89.999901
 11
183.714005
 21
89.999901
  0
LINE
  8
0
  6
CENTER
 62
2
 10
133.429001
 20
68.999901
 11
183.714005
 21
68.999901
  0
LINE
  8
0
  6
CENTER
 62
2
 10
133.429001
 20
111.000000
 11
183.714005
 21
111.000000
  0
LINE
  8
0
  6
CONTINUOUS
 62
7
 10
160.600006
 20
138.000000
 11
178.000000
 21
138.000000
  0
LINE
  8
0
  6
CONTINUOUS
 62
7
 10
139.000000
 20
92.299896
 11
139.000000
 21
42.999901
  0
LINE
  8
0
  6
CONTINUOUS
 62
7
 10
179.000000
 20
92.299896
 11
179.000000
 21
42.999901
  0
LINE
  8
0
  6
CONTINUOUS
 62
7
 10
178.000000
 20
91.799896
 11
176.399994
 21
91.799896
  0
LINE
  8
0
  6
CONTINUOUS
 62
7
 10
178.500000
 20
92.299896
 11
178.000000
 21
91.799896
  0
LINE
  8
0
  6
CONTINUOUS
 62
7
 10
178.500000
 20
95.499702
 11
178.000000
 21
95.999702
  0
LINE
  8
0
  6
CONTINUOUS
 62
7
 10
178.000000
 20
95.999901
 11
176.399994
 21
95.999901
  0
LINE
  8
0
  6
CONTINUOUS
 62
7
 10
179.000000
 20
95.499901
 11
178.500000
 21
95.499901
  0
LINE
  8
0
  6
CONTINUOUS
 62
7
 10
179.000000
 20
92.299896
 11
178.500000
 21
92.299896
  0
LINE
  8
0
  6
CONTINUOUS
 62
7
 10
140.000000
 20
91.799896
 11
141.570007
 21
91.799896
  0
LINE
  8
0
  6
CONTINUOUS
 62
7
 10
139.000000
 20
92.299896
 11
139.500000
 21
92.299896
  0
LINE
  8
0
  6
CONTINUOUS
 62
7
 10
139.000000
 20
95.499901
 11
139.500000
 21
95.499901
  0
LINE
  8
0
  6
CONTINUOUS
 62
7
 10
139.500000
 20
92.299896
 11
140.000000
 21
91.799896
  0
LINE
  8
0
  6
CONTINUOUS
 62
7
 10
140.000000
 20
91.799896
 11
141.600006
 21
91.799896
  0
LINE
  8
0
  6
CONTINUOUS
 62
7
 10
140.000000
 20
95.999901
 11
141.600006
 21
95.999901
  0
LINE
  8
0
  6
CONTINUOUS
 62
7
 10
139.500000
 20
95.500099
 11
140.000000
 21
96.000099
  0
LINE
  8
0
  6
CONTINUOUS
 62
7
 10
156.899994
 20
136.983002
 11
156.899994
 21
135.382996
  0
LINE
  8
0
  6
CONTINUOUS
 62
7
 10
156.899994
 20
136.983002
 11
157.399994
 21
137.483002
  0
LINE
  8
0
  6
CONTINUOUS
 62
7
 10
157.399994
 20
138.000000
 11
157.399994
 21
137.483002
  0
LINE
  8
0
  6
CONTINUOUS
 62
7
 10
160.600006
 20
138.000000
 11
160.600006
 21
137.483002
  0
LINE
  8
0
  6
CONTINUOUS
 62
7
 10
160.600006
 20
137.483002
 11
161.100006
 21
136.983002
  0
LINE
  8
0
  6
CONTINUOUS
 62
7
 10
178.000000
 20
91.799896
 11
176.399994
 21
91.799896
  0
LINE
  8
0
  6
CONTINUOUS
 62
7
 10
178.500000
 20
92.299896
 11
178.000000
 21
91.799896
  0
LINE
  8
0
  6
CONTINUOUS
 62
7
 10
178.500000
 20
95.499702
 11
178.000000
 21
95.999702
  0
LINE
  8
0
  6
CONTINUOUS
 62
7
 10
178.000000
 20
95.999901
 11
176.399994
 21
95.999901
  0
LINE
  8
0
  6
CONTINUOUS
 62
7
 10
179.000000
 20
95.499901
 11
178.500000
 21
95.499901
  0
LINE
  8
0
  6
CONTINUOUS
 62
7
 10
179.000000
 20
92.299896
 11
178.500000
 21
92.299896
  0
LINE
  8
0
  6
CONTINUOUS
 62
7
 10
140.000000
 20
91.799896
 11
141.570007
 21
91.799896
  0
LINE
  8
0
  6
CONTINUOUS
 62
7
 10
139.000000
 20
92.299896
 11
139.470001
 21
92.299896
  0
LINE
  8
0
  6
CONTINUOUS
 62
7
 10
139.000000
 20
95.499901
 11
139.470001
 21
95.499901
  0
LINE
  8
0
  6
CONTINUOUS
 62
7
 10
139.500000
 20
92.299896
 11
140.000000
 21
91.799896
  0
LINE
  8
0
  6
CONTINUOUS
 62
7
 10
140.000000
 20
91.799896
 11
141.600006
 21
91.799896
  0
LINE
  8
0
  6
CONTINUOUS
 62
7
 10
140.000000
 20
95.999901
 11
141.600006
 21
95.999901
  0
LINE
  8
0
  6
CONTINUOUS
 62
7
 10
139.500000
 20
95.500099
 11
140.000000
 21
96.000099
  0
LINE
  8
0
  6
CONTINUOUS
 62
7
 10
156.899994
 20
136.983002
 11
156.899994
 21
135.382996
  0
LINE
  8
0
  6
CONTINUOUS
 62
7
 10
156.899994
 20
136.983002
 11
157.399994
 21
137.483002
  0
LINE
  8
0
  6
CONTINUOUS
 62
7
 10
157.399994
 20
137.983002
 11
157.399994
 21
137.483002
  0
LINE
  8
0
  6
CONTINUOUS
 62
7
 10
160.600006
 20
138.000000
 11
160.600006
 21
137.483002
  0
LINE
  8
0
  6
CONTINUOUS
 62
7
 10
161.100006
 20
136.983002
 11
161.100006
 21
135.382996
  0
LINE
  8
0
  6
CONTINUOUS
 62
7
 10
160.600006
 20
137.483002
 11
161.100006
 21
136.983002
  0
LINE
  8
0
  6
CENTER
 62
2
 10
135.667007
 20
93.899902
 11
181.380997
 21
93.899902
  0
LINE
  8
0
  6
CENTER
 62
2
 10
133.975998
 20
127.900002
 11
181.380997
 21
127.900002
  0
LINE
  8
0
  6
CONTINUOUS
 62
7
 10
139.000000
 20
129.500000
 11
139.000000
 21
129.699997
  0
LINE
  8
0
  6
CONTINUOUS
 62
7
 10
140.000000
 20
125.800003
 11
141.570007
 21
125.800003
  0
LINE
  8
0
  6
CONTINUOUS
 62
7
 10
139.000000
 20
126.300003
 11
139.500000
 21
126.300003
  0
LINE
  8
0
  6
CONTINUOUS
 62
7
 10
139.000000
 20
129.500000
 11
139.500000
 21
129.500000
  0
LINE
  8
0
  6
CONTINUOUS
 62
7
 10
139.500000
 20
126.300003
 11
140.000000
 21
125.800003
  0
LINE
  8
0
  6
CONTINUOUS
 62
7
 10
140.000000
 20
125.800003
 11
141.600006
 21
125.800003
  0
LINE
  8
0
  6
CONTINUOUS
 62
7
 10
140.000000
 20
130.000000
 11
141.600006
 21
130.000000
  0
LINE
  8
0
  6
CONTINUOUS
 62
7
 10
139.500000
 20
129.500000
 11
140.000000
 21
130.000000
  0
LINE
  8
0
  6
CONTINUOUS
 62
7
 10
139.000000
 20
129.500000
 11
139.000000
 21
129.699997
  0
LINE
  8
0
  6
CONTINUOUS
 62
7
 10
140.000000
 20
125.800003
 11
141.570007
 21
125.800003
  0
LINE
  8
0
  6
CONTINUOUS
 62
7
 10
139.000000
 20
126.300003
 11
139.470001
 21
126.300003
  0
LINE
  8
0
  6
CONTINUOUS
 62
7
 10
139.000000
 20
129.500000
 11
139.470001
 21
129.500000
  0
LINE
  8
0
  6
CONTINUOUS
 62
7
 10
139.500000
 20
126.300003
 11
140.000000
 21
125.800003
  0
LINE
  8
0
  6
CONTINUOUS
 62
7
 10
140.000000
 20
125.800003
 11
141.600006
 21
125.800003
  0
LINE
  8
0
  6
CONTINUOUS
 62
7
 10
140.000000
 20
130.000000
 11
141.600006
 21
130.000000
  0
LINE
  8
0
  6
CONTINUOUS
 62
7
 10
139.500000
 20
129.500000
 11
140.000000
 21
130.000000
  0
LINE
  8
0
  6
CONTINUOUS
 62
7
 10
178.000000
 20
125.800003
 11
176.399994
 21
125.800003
  0
LINE
  8
0
  6
CONTINUOUS
 62
7
 10
178.500000
 20
126.300003
 11
178.000000
 21
125.800003
  0
LINE
  8
0
  6
CONTINUOUS
 62
7
 10
178.500000
 20
129.500000
 11
178.000000
 21
130.000000
  0
LINE
  8
0
  6
CONTINUOUS
 62
7
 10
178.000000
 20
130.000000
 11
176.399994
 21
130.000000
  0
LINE
  8
0
  6
CONTINUOUS
 62
7
 10
179.000000
 20
129.500000
 11
178.500000
 21
129.500000
  0
LINE
  8
0
  6
CONTINUOUS
 62
7
 10
179.000000
 20
126.300003
 11
178.500000
 21
126.300003
  0
LINE
  8
0
  6
CONTINUOUS
 62
7
 10
179.000000
 20
126.300003
 11
178.500000
 21
126.300003
  0
LINE
  8
0
  6
CONTINUOUS
 62
7
 10
178.000000
 20
125.800003
 11
176.399994
 21
125.800003
  0
LINE
  8
0
  6
CONTINUOUS
 62
7
 10
178.500000
 20
126.300003
 11
178.000000
 21
125.800003
  0
LINE
  8
0
  6
CONTINUOUS
 62
7
 10
178.500000
 20
129.500000
 11
178.000000
 21
130.000000
  0
LINE
  8
0
  6
CONTINUOUS
 62
7
 10
178.000000
 20
130.000000
 11
176.399994
 21
130.000000
  0
LINE
  8
0
  6
CONTINUOUS
 62
7
 10
179.000000
 20
129.500000
 11
178.500000
 21
129.500000
  0
LINE
  8
0
  6
CONTINUOUS
 62
7
 10
179.000000
 20
126.300003
 11
179.000000
 21
95.499901
  0
LINE
  8
0
  6
CONTINUOUS
 62
7
 10
139.000000
 20
126.300003
 11
139.000000
 21
95.499901
  0
LINE
  8
0
  6
PHANTOM
 62
3
 10
8.500000
 20
31.500000
 11
30.000000
 21
31.500000
  0
LINE
  8
0
  6
PHANTOM
 62
3
 10
30.000000
 20
31.500000
 11
30.000000
 21
-26.500000
  0
LINE
  8
0
  6
PHANTOM
 62
3
 10
-43.500000
 20
31.500000
 11
-43.500000
 21
-26.500000
  0
LINE
  8
0
  6
PHANTOM
 62
3
 10
36.500000
 20
31.500000
 11
36.500000
 21
-26.500000
  0
LINE
  8
0
  6
CONTINUOUS
 62
7
 10
-27.000000
 20
21.500000
 11
69.000000
 21
21.500000
  0
LINE
  8
0
  6
CONTINUOUS
 62
7
 10
-27.000000
 20
-18.500000
 11
69.000000
 21
-18.500000
  0
LINE
  8
0
  6
CONTINUOUS
 62
7
 10
70.000000
 20
20.500000
 11
70.000000
 21
-17.500000
  0
LINE
  8
0
  6
CENTER
 62
2
 10
-75.798698
 20
1.500020
 11
76.028603
 21
1.500020
  0
LINE
  8
0
  6
CONTINUOUS
 62
7
 10
-28.000000
 20
20.500000
 11
-27.000000
 21
21.500000
  0
LINE
  8
0
  6
CONTINUOUS
 62
7
 10
70.000000
 20
20.500000
 11
69.000000
 21
21.500000
  0
LINE
  8
0
  6
CONTINUOUS
 62
7
 10
-28.000000
 20
-17.500000
 11
-27.000000
 21
-18.500000
  0
LINE
  8
0
  6
CONTINUOUS
 62
7
 10
70.000099
 20
-17.500099
 11
69.000099
 21
-18.500099
  0
LINE
  8
0
  6
CONTINUOUS
 62
7
 10
-68.000000
 20
20.500000
 11
-68.000000
 21
-17.500000
  0
LINE
  8
0
  6
CONTINUOUS
 62
7
 10
-51.000000
 20
20.500000
 11
-51.000000
 21
8.500000
  0
LINE
  8
0
  6
CONTINUOUS
 62
7
 10
-68.000000
 20
-17.500000
 11
-51.000000
 21
-17.500000
  0
LINE
  8
0
  6
CONTINUOUS
 62
7
 10
-68.000000
 20
20.500000
 11
-51.000000
 21
20.500000
  0
LINE
  8
0
  6
CONTINUOUS
 62
7
 10
-49.000000
 20
9.500030
 11
-28.000000
 21
9.500030
  0
LINE
  8
0
  6
CENTER
 62
2
 10
18.000000
 20
8.000020
 11
18.000000
 21
-4.999980
  0
LINE
  8
0
  6
CENTER
 62
2
 10
55.000000
 20
8.000020
 11
55.000000
 21
-4.999980
  0
LINE
  8
0
  6
CONTINUOUS
 62
7
 10
-50.000000
 20
-5.500000
 11
-50.000000
 21
-11.500000
  0
LINE
  8
0
  6
CONTINUOUS
 62
7
 10
-40.000000
 20
-6.500000
 11
-40.000000
 21
-11.500000
  0
LINE
  8
0
  6
CONTINUOUS
 62
7
 10
-40.000000
 20
-11.500000
 11
-36.000000
 21
-11.500000
  0
LINE
  8
0
  6
CONTINUOUS
 62
7
 10
-36.000000
 20
-6.500000
 11
-36.000000
 21
-11.500000
  0
LINE
  8
0
  6
CONTINUOUS
 62
7
 10
-36.000000
 20
-9.499970
 11
-32.000000
 21
-9.499970
  0
LINE
  8
0
  6
CONTINUOUS
 62
7
 10
-51.000000
 20
-11.500000
 11
-50.000000
 21
-11.500000
  0
LINE
  8
0
  6
CONTINUOUS
 62
7
 10
-32.000000
 20
-6.500000
 11
-32.000000
 21
-11.500000
  0
LINE
  8
0
  6
CONTINUOUS
 62
7
 10
-32.000000
 20
-11.500000
 11
-28.000000
 21
-11.500000
  0
LINE
  8
0
  6
CONTINUOUS
 62
7
 10
-28.000000
 20
20.500000
 11
-28.000000
 21
-17.500000
  0
LINE
  8
0
  6
CONTINUOUS
 62
7
 10
-49.000000
 20
-6.500000
 11
-28.000000
 21
-6.500000
  0
LINE
  8
0
  6
CONTINUOUS
 62
2
 10
-36.000000
 20
-8.750000
 11
-32.000000
 21
-8.750000
  0
LINE
  8
0
  6
CONTINUOUS
 62
7
 10
-53.000000
 20
8.500000
 11
-49.000000
 21
8.500000
  0
LINE
  8
0
  6
CONTINUOUS
 62
7
 10
-53.000000
 20
-5.500000
 11
-49.000000
 21
-5.500000
  0
LINE
  8
0
  6
CONTINUOUS
 62
7
 10
-49.000000
 20
9.500030
 11
-49.000000
 21
8.500000
  0
LINE
  8
0
  6
CONTINUOUS
 62
7
 10
-49.000000
 20
-5.500000
 11
-49.000000
 21
-6.500000
  0
LINE
  8
0
  6
CONTINUOUS
 62
7
 10
-53.000000
 20
8.500000
 11
-53.000000
 21
-5.500000
  0
LINE
  8
0
  6
CONTINUOUS
 62
7
 10
-51.000000
 20
-5.500000
 11
-51.000000
 21
-17.500000
  0
LINE
  8
0
  6
CENTER
 62
1
 10
93.385300
 20
-60.709499
 11
118.294998
 21
-60.709499
  0
LINE
  8
0
  6
CONTINUOUS
 62
4
 10
94.714500
 20
-62.209499
 11
111.275002
 21
-62.209499
  0
LINE
  8
0
  6
CONTINUOUS
 62
4
 10
94.714500
 20
-59.209499
 11
111.275002
 21
-59.209499
  0
LINE
  8
0
  6
CONTINUOUS
 62
4
 10
94.714500
 20
-62.759499
 11
111.628998
 21
-62.759499
  0
LINE
  8
0
  6
CONTINUOUS
 62
4
 10
94.714500
 20
-58.659500
 11
111.628998
 21
-58.659500
  0
LINE
  8
0
  6
CONTINUOUS
 62
4
 10
94.714500
 20
-58.659500
 11
94.714500
 21
-62.759499
  0
LINE
  8
0
  6
CENTER
 62
1
 10
96.714500
 20
-57.873001
 11
96.714500
 21
-63.462299
  0
LINE
  8
0
  6
CONTINUOUS
 62
4
 10
111.801003
 20
-58.459499
 11
116.714996
 21
-58.459499
  0
LINE
  8
0
  6
CONTINUOUS
 62
4
 10
111.801003
 20
-62.959499
 11
116.714996
 21
-62.959499
  0
LINE
  8
0
  6
CONTINUOUS
 62
4
 10
116.714996
 20
-58.459499
 11
116.714996
 21
-62.959499
  0
LINE
  8
0
  6
CONTINUOUS
 62
4
 10
96.068802
 20
-61.779900
 11
97.784897
 21
-60.063702
  0
LINE
  8
0
  6
CONTINUOUS
 62
4
 10
95.644501
 20
-61.355499
 11
97.360603
 21
-59.639400
  0
LINE
  8
0
  6
CONTINUOUS
 62
4
 10
112.821999
 20
-95.654800
 11
112.821999
 21
-90.909500
  0
LINE
  8
0
  6
CONTINUOUS
 62
4
 10
112.821999
 20
-99.409500
 11
112.821999
 21
-97.154800
  0
LINE
  8
0
  6
CONTINUOUS
 62
4
 10
115.421997
 20
-94.153702
 11
115.421997
 21
-90.909500
  0
LINE
  8
0
  6
CONTINUOUS
 62
4
 10
94.714500
 20
-106.309998
 11
110.815002
 21
-106.309998
  0
LINE
  8
0
  6
CONTINUOUS
 62
4
 10
99.414497
 20
-110.910004
 11
116.714996
 21
-110.910004
  0
LINE
  8
0
  6
CONTINUOUS
 62
4
 10
116.714996
 20
-99.409500
 11
116.714996
 21
-110.910004
  0
LINE
  8
0
  6
CONTINUOUS
 62
4
 10
94.714500
 20
-108.910004
 11
94.714500
 21
-106.309998
  0
LINE
  8
0
  6
CONTINUOUS
 62
4
 10
99.414497
 20
-109.292000
 11
99.414497
 21
-110.910004
  0
LINE
  8
0
  6
CENTER
 62
1
 10
96.714500
 20
-105.579002
 11
96.714500
 21
-111.482002
  0
LINE
  8
0
  6
CONTINUOUS
 62
4
 10
110.815002
 20
-99.409500
 11
110.815002
 21
-106.309998
  0
LINE
  8
0
  6
CONTINUOUS
 62
4
 10
94.714500
 20
-108.110001
 11
98.988297
 21
-108.110001
  0
LINE
  8
0
  6
CONTINUOUS
 62
4
 10
94.714500
 20
-108.910004
 11
98.714500
 21
-108.910004
  0
LINE
  8
0
  6
CONTINUOUS
 62
4
 10
98.714500
 20
-108.110001
 11
98.714500
 21
-108.910004
  0
LINE
  8
0
  6
CONTINUOUS
 62
4
 10
110.815002
 20
-99.409500
 11
116.714996
 21
-99.409500
  0
LINE
  8
0
  6
CONTINUOUS
 62
4
 10
98.914497
 20
-110.110001
 11
99.414497
 21
-110.110001
  0
LINE
  8
0
  6
CONTINUOUS
 62
4
 10
98.914497
 20
-108.110001
 11
98.914497
 21
-110.110001
  0
LINE
  8
0
  6
CONTINUOUS
 62
4
 10
98.988297
 20
-109.292000
 11
99.414497
 21
-109.292000
  0
LINE
  8
0
  6
CONTINUOUS
 62
4
 10
98.988297
 20
-108.110001
 11
98.988297
 21
-109.292000
  0
LINE
  8
0
  6
CONTINUOUS
 62
4
 10
94.714500
 20
-107.309998
 11
116.714996
 21
-107.309998
  0
LINE
  8
0
  6
CONTINUOUS
 62
4
 10
94.714500
 20
-106.760002
 11
116.714996
 21
-106.760002
  0
LINE
  8
0
  6
CONTINUOUS
 62
4
 10
110.815002
 20
-105.160004
 11
116.714996
 21
-105.160004
  0
LINE
  8
0
  6
CONTINUOUS
 62
4
 10
110.815002
 20
-105.910004
 11
116.714996
 21
-105.910004
  0
LINE
  8
0
  6
CONTINUOUS
 62
4
 10
110.815002
 20
-100.910004
 11
116.714996
 21
-100.910004
  0
LINE
  8
0
  6
CONTINUOUS
 62
4
 10
112.821999
 20
-90.909500
 11
115.421997
 21
-90.909500
  0
LINE
  8
0
  6
CENTER
 62
1
 10
113.671997
 20
-92.632401
 11
113.671997
 21
-80.700302
  0
LINE
  8
0
  6
CENTER
 62
1
 10
114.571999
 20
-92.582100
 11
114.571999
 21
-80.658501
  0
LINE
  8
0
  6
CONTINUOUS
 62
4
 10
113.421997
 20
-80.909500
 11
113.921997
 21
-80.909500
  0
LINE
  8
0
  6
CONTINUOUS
 62
4
 10
114.321999
 20
-80.909500
 11
114.821999
 21
-80.909500
  0
LINE
  8
0
  6
CONTINUOUS
 62
4
 10
113.222000
 20
-83.909500
 11
115.022003
 21
-83.909500
  0
LINE
  8
0
  6
CONTINUOUS
 62
4
 10
115.022003
 20
-90.909500
 11
115.022003
 21
-86.903900
  0
LINE
  8
0
  6
CONTINUOUS
 62
4
 10
114.122002
 20
-90.909500
 11
114.122002
 21
-87.423599
  0
LINE
  8
0
  6
CONTINUOUS
 62
4
 10
114.122002
 20
-85.923599
 11
114.122002
 21
-83.909500
  0
LINE
  8
0
  6
CONTINUOUS
 62
4
 10
115.022003
 20
-85.403900
 11
115.022003
 21
-83.909500
  0
LINE
  8
0
  6
CONTINUOUS
 62
4
 10
113.222000
 20
-90.909500
 11
113.222000
 21
-87.943199
  0
LINE
  8
0
  6
CONTINUOUS
 62
4
 10
113.222000
 20
-86.443199
 11
113.222000
 21
-83.909500
  0
LINE
  8
0
  6
CONTINUOUS
 62
4
 10
113.421997
 20
-83.909500
 11
113.421997
 21
-80.909500
  0
LINE
  8
0
  6
CONTINUOUS
 62
4
 10
113.921997
 20
-83.909500
 11
113.921997
 21
-80.909500
  0
LINE
  8
0
  6
CONTINUOUS
 62
4
 10
114.321999
 20
-83.909500
 11
114.321999
 21
-80.909500
  0
LINE
  8
0
  6
CONTINUOUS
 62
4
 10
114.821999
 20
-83.909500
 11
114.821999
 21
-80.909500
  0
LINE
  8
0
  6
CONTINUOUS
 62
1
 10
111.957001
 20
-87.173698
 11
116.287003
 21
-84.673698
  0
LINE
  8
0
  6
CENTER
 62
1
 10
114.122002
 20
-100.723999
 11
114.122002
 21
-90.909500
  0
LINE
  8
0
  6
CONTINUOUS
 62
1
 10
111.957001
 20
-88.673698
 11
116.287003
 21
-86.173599
  0
LINE
  8
0
  6
CONTINUOUS
 62
1
 10
111.957001
 20
-96.154404
 11
116.287003
 21
-93.654404
  0
LINE
  8
0
  6
CONTINUOUS
 62
1
 10
111.957001
 20
-97.654404
 11
116.287003
 21
-95.154404
  0
LINE
  8
0
  6
CONTINUOUS
 62
4
 10
95.689499
 20
-110.309998
 11
97.739502
 21
-110.309998
  0
LINE
  8
0
  6
CONTINUOUS
 62
4
 10
97.740097
 20
-110.309998
 11
97.965103
 21
-110.084999
  0
LINE
  8
0
  6
CONTINUOUS
 62
4
 10
95.689598
 20
-110.308998
 11
95.464600
 21
-110.084000
  0
LINE
  8
0
  6
CONTINUOUS
 62
4
 10
95.464500
 20
-108.910004
 11
95.464500
 21
-110.084999
  0
LINE
  8
0
  6
CONTINUOUS
 62
1
 10
95.689499
 20
-108.910004
 11
95.689499
 21
-110.309998
  0
LINE
  8
0
  6
CONTINUOUS
 62
1
 10
97.739502
 20
-108.910004
 11
97.739502
 21
-110.309998
  0
LINE
  8
0
  6
CONTINUOUS
 62
4
 10
97.964500
 20
-108.910004
 11
97.964500
 21
-110.084999
  0
LINE
  8
0
  6
CONTINUOUS
 62
4
 10
95.464500
 20
-110.084999
 11
97.964500
 21
-110.084999
  0
LINE
  8
0
  6
CONTINUOUS
 62
4
 10
95.464500
 20
-105.809998
 11
95.464500
 21
-106.309998
  0
LINE
  8
0
  6
CONTINUOUS
 62
1
 10
95.689499
 20
-105.809998
 11
95.689499
 21
-106.309998
  0
LINE
  8
0
  6
CONTINUOUS
 62
1
 10
97.739502
 20
-105.809998
 11
97.739502
 21
-106.309998
  0
LINE
  8
0
  6
CONTINUOUS
 62
4
 10
97.964500
 20
-105.809998
 11
97.964500
 21
-106.309998
  0
LINE
  8
0
  6
CONTINUOUS
 62
4
 10
95.464500
 20
-105.809998
 11
97.964500
 21
-105.809998
  0
LINE
  8
0
  6
CONTINUOUS
 62
4
 10
115.421997
 20
-99.409500
 11
115.421997
 21
-95.653702
  0
LINE
  8
0
  6
CONTINUOUS
 62
4
 10
52.971802
 20
-95.653702
 11
52.971802
 21
-99.409500
  0
LINE
  8
0
  6
CONTINUOUS
 62
4
 10
49.421799
 20
-100.910004
 11
53.921799
 21
-100.910004
  0
LINE
  8
0
  6
CONTINUOUS
 62
4
 10
49.421799
 20
-99.409500
 11
49.421799
 21
-105.160004
  0
LINE
  8
0
  6
CONTINUOUS
 62
4
 10
50.171799
 20
-105.908997
 11
49.421799
 21
-105.160004
  0
LINE
  8
0
  6
CONTINUOUS
 62
4
 10
50.171799
 20
-106.760002
 11
50.171799
 21
-105.910004
  0
LINE
  8
0
  6
CONTINUOUS
 62
4
 10
49.621799
 20
-107.308998
 11
50.171799
 21
-106.759003
  0
LINE
  8
0
  6
CONTINUOUS
 62
4
 10
49.621799
 20
-107.309998
 11
49.621799
 21
-108.860001
  0
LINE
  8
0
  6
CONTINUOUS
 62
4
 10
53.721802
 20
-107.309998
 11
53.721802
 21
-108.860001
  0
LINE
  8
0
  6
CONTINUOUS
 62
4
 10
53.721802
 20
-107.309998
 11
53.171799
 21
-106.760002
  0
LINE
  8
0
  6
CONTINUOUS
 62
4
 10
53.171799
 20
-106.760002
 11
53.171799
 21
-105.910004
  0
LINE
  8
0
  6
CONTINUOUS
 62
4
 10
53.171902
 20
-105.910004
 11
53.921902
 21
-105.160004
  0
LINE
  8
0
  6
CONTINUOUS
 62
4
 10
53.921799
 20
-99.409500
 11
53.921799
 21
-105.160004
  0
LINE
  8
0
  6
CENTER
 62
1
 10
51.671799
 20
-93.748596
 11
51.671799
 21
-112.375999
  0
LINE
  8
0
  6
CONTINUOUS
 62
4
 10
50.171799
 20
-106.309998
 11
53.171799
 21
-106.309998
  0
LINE
  8
0
  6
CONTINUOUS
 62
4
 10
49.621799
 20
-108.110001
 11
53.721802
 21
-108.110001
  0
LINE
  8
0
  6
CONTINUOUS
 62
4
 10
49.621799
 20
-108.912003
 11
53.721802
 21
-108.912003
  0
LINE
  8
0
  6
CONTINUOUS
 62
4
 10
49.421799
 20
-99.409500
 11
53.921799
 21
-99.409500
  0
LINE
  8
0
  6
CONTINUOUS
 62
1
 10
49.506802
 20
-97.654404
 11
53.837002
 21
-95.154404
  0
LINE
  8
0
  6
CONTINUOUS
 62
4
 10
50.646801
 20
-110.309998
 11
52.696800
 21
-110.309998
  0
LINE
  8
0
  6
CONTINUOUS
 62
4
 10
52.697300
 20
-110.309998
 11
52.922298
 21
-110.084999
  0
LINE
  8
0
  6
CONTINUOUS
 62
4
 10
50.646900
 20
-110.308998
 11
50.421902
 21
-110.084000
  0
LINE
  8
0
  6
CONTINUOUS
 62
4
 10
50.421799
 20
-108.912003
 11
50.421799
 21
-110.084999
  0
LINE
  8
0
  6
CONTINUOUS
 62
1
 10
50.646801
 20
-108.912003
 11
50.646801
 21
-110.309998
  0
LINE
  8
0
  6
CONTINUOUS
 62
1
 10
52.696800
 20
-108.912003
 11
52.696800
 21
-110.309998
  0
LINE
  8
0
  6
CONTINUOUS
 62
4
 10
52.921799
 20
-108.912003
 11
52.921799
 21
-110.084999
  0
LINE
  8
0
  6
CONTINUOUS
 62
4
 10
50.421799
 20
-110.084999
 11
52.921799
 21
-110.084999
  0
LINE
  8
0
  6
CONTINUOUS
 62
4
 10
50.421799
 20
-105.809998
 11
50.421799
 21
-106.309998
  0
LINE
  8
0
  6
CONTINUOUS
 62
1
 10
50.646801
 20
-105.809998
 11
50.646801
 21
-106.309998
  0
LINE
  8
0
  6
CONTINUOUS
 62
1
 10
52.696800
 20
-105.809998
 11
52.696800
 21
-106.309998
  0
LINE
  8
0
  6
CONTINUOUS
 62
4
 10
52.921799
 20
-105.809998
 11
52.921799
 21
-106.309998
  0
LINE
  8
0
  6
CONTINUOUS
 62
4
 10
50.421799
 20
-105.809998
 11
52.921799
 21
-105.809998
  0
LINE
  8
0
  6
CONTINUOUS
 62
4
 10
50.371799
 20
-97.154800
 11
50.371799
 21
-99.409500
  0
LINE
  8
0
  6
CENTER
 62
1
 10
-65.896896
 20
-65.759499
 11
-35.688900
 21
-65.759499
  0
LINE
  8
0
  6
CONTINUOUS
 62
4
 10
-63.096401
 20
-67.259499
 11
-41.096401
 21
-67.259499
  0
LINE
  8
0
  6
CONTINUOUS
 62
4
 10
-63.096401
 20
-64.259499
 11
-41.096401
 21
-64.259499
  0
LINE
  8
0
  6
CONTINUOUS
 62
4
 10
-63.096401
 20
-67.809502
 11
-41.096401
 21
-67.809502
  0
LINE
  8
0
  6
CONTINUOUS
 62
4
 10
-63.096401
 20
-63.709499
 11
-41.096401
 21
-63.709499
  0
LINE
  8
0
  6
CONTINUOUS
 62
4
 10
-63.096401
 20
-63.709499
 11
-63.096401
 21
-67.809502
  0
LINE
  8
0
  6
CONTINUOUS
 62
4
 10
-41.096401
 20
-63.709499
 11
-41.096401
 21
-67.809502
  0
LINE
  8
0
  6
CENTER
 62
1
 10
-61.096401
 20
-62.923000
 11
-61.096401
 21
-68.512299
  0
LINE
  8
0
  6
CONTINUOUS
 62
4
 10
-62.141701
 20
-66.472603
 11
-60.408298
 21
-64.739304
  0
LINE
  8
0
  6
CONTINUOUS
 62
4
 10
-61.788101
 20
-66.826202
 11
-60.154800
 21
-65.192902
  0
LINE
  8
0
  6
CONTINUOUS
 62
1
 10
-40.007198
 20
-63.594398
 11
-37.507198
 21
-67.924599
  0
LINE
  8
0
  6
CONTINUOUS
 62
4
 10
-41.096401
 20
-64.459503
 11
-39.507801
 21
-64.459503
  0
LINE
  8
0
  6
CONTINUOUS
 62
4
 10
-41.096401
 20
-67.059502
 11
-38.006599
 21
-67.059502
  0
LINE
  8
0
  6
CONTINUOUS
 62
4
 10
-37.341702
 20
-107.309998
 11
-32.596401
 21
-107.309998
  0
LINE
  8
0
  6
CONTINUOUS
 62
4
 10
-41.096401
 20
-109.910004
 11
-37.340599
 21
-109.910004
  0
LINE
  8
0
  6
CONTINUOUS
 62
4
 10
-35.840599
 20
-109.910004
 11
-32.596401
 21
-109.910004
  0
LINE
  8
0
  6
CONTINUOUS
 62
4
 10
-63.096401
 20
-106.309998
 11
-41.096401
 21
-106.309998
  0
LINE
  8
0
  6
CONTINUOUS
 62
4
 10
-58.396400
 20
-110.910004
 11
-41.096401
 21
-110.910004
  0
LINE
  8
0
  6
CONTINUOUS
 62
4
 10
-41.096401
 20
-106.309998
 11
-41.096401
 21
-110.910004
  0
LINE
  8
0
  6
CONTINUOUS
 62
4
 10
-63.096401
 20
-108.110001
 11
-63.096401
 21
-106.309998
  0
LINE
  8
0
  6
CONTINUOUS
 62
4
 10
-58.396400
 20
-109.350998
 11
-58.396400
 21
-110.910004
  0
LINE
  8
0
  6
CONTINUOUS
 62
4
 10
-63.096401
 20
-108.110001
 11
-58.846401
 21
-108.110001
  0
LINE
  8
0
  6
CENTER
 62
1
 10
-61.096401
 20
-105.502998
 11
-61.096401
 21
-111.740997
  0
LINE
  8
0
  6
CONTINUOUS
 62
4
 10
-58.846401
 20
-108.110001
 11
-58.846401
 21
-109.350998
  0
LINE
  8
0
  6
CONTINUOUS
 62
4
 10
-59.096401
 20
-108.110001
 11
-59.096401
 21
-108.910004
  0
LINE
  8
0
  6
CONTINUOUS
 62
4
 10
-63.096401
 20
-108.110001
 11
-63.096401
 21
-108.910004
  0
LINE
  8
0
  6
CONTINUOUS
 62
4
 10
-63.096401
 20
-108.910004
 11
-59.096401
 21
-108.910004
  0
LINE
  8
0
  6
CONTINUOUS
 62
4
 10
-58.896400
 20
-108.110001
 11
-58.896400
 21
-110.110001
  0
LINE
  8
0
  6
CONTINUOUS
 62
4
 10
-58.896400
 20
-110.110001
 11
-58.396400
 21
-110.110001
  0
LINE
  8
0
  6
CONTINUOUS
 62
4
 10
-58.846401
 20
-109.350998
 11
-58.396400
 21
-109.350998
  0
LINE
  8
0
  6
CONTINUOUS
 62
4
 10
-32.596401
 20
-107.309998
 11
-32.596401
 21
-109.910004
  0
LINE
  8
0
  6
CENTER
 62
1
 10
-34.319302
 20
-108.158997
 11
-22.387199
 21
-108.158997
  0
LINE
  8
0
  6
CENTER
 62
1
 10
-34.269001
 20
-109.058998
 11
-22.345301
 21
-109.058998
  0
LINE
  8
0
  6
CONTINUOUS
 62
4
 10
-22.596399
 20
-107.908997
 11
-22.596399
 21
-108.408997
  0
LINE
  8
0
  6
CONTINUOUS
 62
4
 10
-22.596399
 20
-108.808998
 11
-22.596399
 21
-109.308998
  0
LINE
  8
0
  6
CONTINUOUS
 62
4
 10
-25.596399
 20
-107.709000
 11
-25.596399
 21
-109.509003
  0
LINE
  8
0
  6
CONTINUOUS
 62
4
 10
-32.596401
 20
-109.509003
 11
-28.590799
 21
-109.509003
  0
LINE
  8
0
  6
CONTINUOUS
 62
4
 10
-32.596401
 20
-108.609001
 11
-29.110399
 21
-108.609001
  0
LINE
  8
0
  6
CONTINUOUS
 62
4
 10
-27.610399
 20
-108.609001
 11
-25.596399
 21
-108.609001
  0
LINE
  8
0
  6
CONTINUOUS
 62
4
 10
-27.090799
 20
-109.509003
 11
-25.596399
 21
-109.509003
  0
LINE
  8
0
  6
CONTINUOUS
 62
4
 10
-32.596401
 20
-107.709000
 11
-29.630100
 21
-107.709000
  0
LINE
  8
0
  6
CONTINUOUS
 62
4
 10
-28.130100
 20
-107.709000
 11
-25.596399
 21
-107.709000
  0
LINE
  8
0
  6
CONTINUOUS
 62
4
 10
-25.596399
 20
-107.908997
 11
-22.596399
 21
-107.908997
  0
LINE
  8
0
  6
CONTINUOUS
 62
4
 10
-25.596399
 20
-108.408997
 11
-22.596399
 21
-108.408997
  0
LINE
  8
0
  6
CONTINUOUS
 62
4
 10
-25.596399
 20
-108.808998
 11
-22.596399
 21
-108.808998
  0
LINE
  8
0
  6
CONTINUOUS
 62
4
 10
-25.596399
 20
-109.308998
 11
-22.596399
 21
-109.308998
  0
LINE
  8
0
  6
CONTINUOUS
 62
1
 10
-28.860399
 20
-106.445000
 11
-26.360399
 21
-110.775002
  0
LINE
  8
0
  6
CENTER
 62
1
 10
-42.410801
 20
-108.610001
 11
-32.596401
 21
-108.610001
  0
LINE
  8
0
  6
CONTINUOUS
 62
1
 10
-30.360500
 20
-106.444000
 11
-27.860500
 21
-110.775002
  0
LINE
  8
0
  6
CONTINUOUS
 62
1
 10
-37.841099
 20
-106.444000
 11
-35.341099
 21
-110.775002
  0
LINE
  8
0
  6
CONTINUOUS
 62
1
 10
-39.341099
 20
-106.445000
 11
-36.841099
 21
-110.775002
  0
LINE
  8
0
  6
CONTINUOUS
 62
4
 10
-62.121399
 20
-110.309998
 11
-60.071400
 21
-110.309998
  0
LINE
  8
0
  6
CONTINUOUS
 62
4
 10
-60.070999
 20
-110.309998
 11
-59.846001
 21
-110.084999
  0
LINE
  8
0
  6
CONTINUOUS
 62
4
 10
-62.121399
 20
-110.309998
 11
-62.346298
 21
-110.084999
  0
LINE
  8
0
  6
CONTINUOUS
 62
4
 10
-62.346401
 20
-108.908997
 11
-62.346401
 21
-110.084999
  0
LINE
  8
0
  6
CONTINUOUS
 62
1
 10
-62.121399
 20
-108.908997
 11
-62.121399
 21
-110.309998
  0
LINE
  8
0
  6
CONTINUOUS
 62
1
 10
-60.071400
 20
-108.908997
 11
-60.071400
 21
-110.309998
  0
LINE
  8
0
  6
CONTINUOUS
 62
4
 10
-59.846401
 20
-108.908997
 11
-59.846401
 21
-110.084999
  0
LINE
  8
0
  6
CONTINUOUS
 62
4
 10
-62.346401
 20
-110.084999
 11
-59.846401
 21
-110.084999
  0
LINE
  8
0
  6
CONTINUOUS
 62
4
 10
-62.346401
 20
-105.809998
 11
-62.346401
 21
-106.309998
  0
LINE
  8
0
  6
CONTINUOUS
 62
1
 10
-62.121399
 20
-105.809998
 11
-62.121399
 21
-106.309998
  0
LINE
  8
0
  6
CONTINUOUS
 62
1
 10
-60.071400
 20
-105.809998
 11
-60.071400
 21
-106.309998
  0
LINE
  8
0
  6
CONTINUOUS
 62
4
 10
-59.846401
 20
-105.809998
 11
-59.846401
 21
-106.309998
  0
LINE
  8
0
  6
CONTINUOUS
 62
4
 10
-62.346401
 20
-105.809998
 11
-59.846401
 21
-105.809998
  0
LINE
  8
0
  6
CONTINUOUS
 62
4
 10
-63.096401
 20
-107.309998
 11
-41.096401
 21
-107.309998
  0
LINE
  8
0
  6
CONTINUOUS
 62
4
 10
-63.096401
 20
-106.760002
 11
-41.096401
 21
-106.760002
  0
LINE
  8
0
  6
CONTINUOUS
 62
4
 10
-41.096401
 20
-107.309998
 11
-38.841702
 21
-107.309998
  0
LINE
  8
0
  6
CONTINUOUS
 62
4
 10
-108.889000
 20
-105.809998
 11
-106.389000
 21
-105.809998
  0
LINE
  8
0
  6
CENTER
 62
1
 10
-107.639000
 20
-104.257004
 11
-107.639000
 21
-112.969002
  0
LINE
  8
0
  6
CONTINUOUS
 62
4
 10
-109.689003
 20
-107.309998
 11
-109.689003
 21
-108.860001
  0
LINE
  8
0
  6
CONTINUOUS
 62
4
 10
-109.689003
 20
-107.309998
 11
-109.139000
 21
-106.759003
  0
LINE
  8
0
  6
CONTINUOUS
 62
4
 10
-109.139000
 20
-106.309998
 11
-109.139000
 21
-106.760002
  0
LINE
  8
0
  6
CONTINUOUS
 62
4
 10
-109.139000
 20
-106.309998
 11
-106.139000
 21
-106.309998
  0
LINE
  8
0
  6
CONTINUOUS
 62
4
 10
-106.139000
 20
-106.309998
 11
-106.139000
 21
-106.760002
  0
LINE
  8
0
  6
CONTINUOUS
 62
4
 10
-105.588997
 20
-107.308998
 11
-106.139000
 21
-106.759003
  0
LINE
  8
0
  6
CONTINUOUS
 62
4
 10
-105.588997
 20
-107.309998
 11
-105.588997
 21
-108.860001
  0
LINE
  8
0
  6
CONTINUOUS
 62
4
 10
-109.689003
 20
-108.110001
 11
-105.588997
 21
-108.110001
  0
LINE
  8
0
  6
CONTINUOUS
 62
4
 10
-109.689003
 20
-108.908997
 11
-105.588997
 21
-108.908997
  0
LINE
  8
0
  6
CONTINUOUS
 62
4
 10
-108.664001
 20
-110.309998
 11
-106.613998
 21
-110.309998
  0
LINE
  8
0
  6
CONTINUOUS
 62
4
 10
-106.613998
 20
-110.309998
 11
-106.389000
 21
-110.084999
  0
LINE
  8
0
  6
CONTINUOUS
 62
4
 10
-108.664001
 20
-110.309998
 11
-108.889000
 21
-110.084999
  0
LINE
  8
0
  6
CONTINUOUS
 62
4
 10
-108.889000
 20
-108.908997
 11
-108.889000
 21
-110.084999
  0
LINE
  8
0
  6
CONTINUOUS
 62
1
 10
-108.664001
 20
-108.908997
 11
-108.664001
 21
-110.309998
  0
LINE
  8
0
  6
CONTINUOUS
 62
1
 10
-106.613998
 20
-108.908997
 11
-106.613998
 21
-110.309998
  0
LINE
  8
0
  6
CONTINUOUS
 62
4
 10
-106.389000
 20
-108.908997
 11
-106.389000
 21
-110.084999
  0
LINE
  8
0
  6
CONTINUOUS
 62
4
 10
-108.889000
 20
-110.084999
 11
-106.389000
 21
-110.084999
  0
LINE
  8
0
  6
CONTINUOUS
 62
4
 10
-108.889000
 20
-105.809998
 11
-108.889000
 21
-106.309998
  0
LINE
  8
0
  6
CONTINUOUS
 62
1
 10
-108.664001
 20
-105.809998
 11
-108.664001
 21
-106.309998
  0
LINE
  8
0
  6
CONTINUOUS
 62
1
 10
-106.613998
 20
-105.809998
 11
-106.613998
 21
-106.309998
  0
LINE
  8
0
  6
CONTINUOUS
 62
4
 10
-106.389000
 20
-105.809998
 11
-106.389000
 21
-106.309998
  0
CIRCLE
  8
0
  6
CONTINUOUS
 62
7
 10
-158.000000
 20
69.000000
 40
7.250000
  0
CIRCLE
  8
0
  6
CONTINUOUS
 62
2
 10
-158.000000
 20
131.500000
 40
3.000000
  0
CIRCLE
  8
0
  6
CONTINUOUS
 62
2
 10
-158.000000
 20
48.500099
 40
3.000000
  0
CIRCLE
  8
0
  6
CONTINUOUS
 62
7
 10
-158.000000
 20
111.000000
 40
8.000000
  0
CIRCLE
  8
0
  6
CONTINUOUS
 62
7
 10
-158.000000
 20
111.000000
 40
7.250000
  0
CIRCLE
  8
0
  6
CONTINUOUS
 62
7
 10
-158.000000
 20
111.000000
 40
8.750000
  0
CIRCLE
  8
0
  6
CONTINUOUS
 62
7
 10
-158.000000
 20
69.000000
 40
8.750000
  0
CIRCLE
  8
0
  6
CONTINUOUS
 62
7
 10
-158.000000
 20
69.000000
 40
8.000000
  0
CIRCLE
  8
0
  6
CONTINUOUS
 62
7
 10
-158.000000
 20
131.500000
 40
2.500000
  0
CIRCLE
  8
0
  6
CONTINUOUS
 62
7
 10
-158.000000
 20
48.500099
 40
2.500000
  0
ARC
  8
0
  6
CONTINUOUS
 62
7
 10
-30.555799
 20
85.669899
 40
2.555820
 50
334.384003
 51
34.384201
  0
ARC
  8
0
  6
CONTINUOUS
 62
7
 10
-37.553398
 20
90.000000
 40
9.553420
 50
342.411987
 51
17.587900
  0
ARC
  8
0
  6
CONTINUOUS
 62
7
 10
-29.444201
 20
85.669899
 40
2.555820
 50
145.615997
 51
205.615997
  0
ARC
  8
0
  6
CONTINUOUS
 62
7
 10
-30.555799
 20
94.330101
 40
2.555820
 50
325.615997
 51
25.615700
  0
CIRCLE
  8
0
  6
CONTINUOUS
 62
7
 10
27.000000
 20
48.500000
 40
4.500000
  0
CIRCLE
  8
0
  6
CONTINUOUS
 62
7
 10
44.000000
 20
90.000000
 40
4.500000
  0
CIRCLE
  8
0
  6
CONTINUOUS
 62
7
 10
-11.000000
 20
90.000000
 40
4.500000
  0
CIRCLE
  8
0
  6
CONTINUOUS
 62
7
 10
27.000000
 20
131.500000
 40
4.500000
  0
CIRCLE
  8
0
  6
CONTINUOUS
 62
7
 10
-11.000000
 20
90.000000
 40
2.750000
  0
CIRCLE
  8
0
  6
CONTINUOUS
 62
7
 10
27.000000
 20
131.500000
 40
2.750000
  0
CIRCLE
  8
0
  6
CONTINUOUS
 62
7
 10
44.000000
 20
90.000000
 40
2.750000
  0
CIRCLE
  8
0
  6
CONTINUOUS
 62
7
 10
27.000000
 20
48.500000
 40
2.750000
  0
ARC
  8
0
  6
CONTINUOUS
 62
7
 10
-37.444099
 20
94.330101
 40
2.555820
 50
154.384003
 51
214.384003
  0
ARC
  8
0
  6
CONTINUOUS
 62
7
 10
-30.446600
 20
90.000000
 40
9.553410
 50
162.412003
 51
197.587997
  0
ARC
  8
0
  6
CONTINUOUS
 62
7
 10
-37.444099
 20
85.669899
 40
2.555820
 50
145.615997
 51
205.615005
  0
CIRCLE
  8
0
  6
CONTINUOUS
 62
2
 10
-59.500000
 20
126.000000
 40
4.000000
  0
CIRCLE
  8
0
  6
CONTINUOUS
 62
2
 10
-59.500000
 20
54.000000
 40
4.000000
  0
ARC
  8
0
  6
CONTINUOUS
 62
7
 10
-29.444201
 20
94.330101
 40
2.555820
 50
154.384003
 51
214.384003
  0
ARC
  8
0
  6
CONTINUOUS
 62
7
 10
-22.446501
 20
90.000000
 40
9.553420
 50
162.412003
 51
197.587997
  0
CIRCLE
  8
0
  6
CONTINUOUS
 62
7
 10
-59.500000
 20
126.000000
 40
3.375000
  0
CIRCLE
  8
0
  6
CONTINUOUS
 62
7
 10
-59.500000
 20
54.000000
 40
3.375000
  0
ARC
  8
0
  6
CONTINUOUS
 62
7
 10
176.399994
 20
127.900002
 40
2.100010
 50
90.000000
 51
270.000000
  0
ARC
  8
0
  6
CONTINUOUS
 62
7
 10
176.399994
 20
127.900002
 40
2.100010
 50
90.000000
 51
270.000000
  0
ARC
  8
0
  6
CONTINUOUS
 62
7
 10
141.600006
 20
127.900002
 40
2.100000
 50
270.000000
 51
90.000000
  0
CIRCLE
  8
0
  6
CONTINUOUS
 62
7
 10
159.000000
 20
111.000000
 40
17.500000
  0
CIRCLE
  8
0
  6
CONTINUOUS
 62
7
 10
159.000000
 20
68.999901
 40
17.500000
  0
ARC
  8
0
  6
CONTINUOUS
 62
7
 10
176.399994
 20
93.899902
 40
2.100000
 50
90.000000
 51
270.000000
  0
ARC
  8
0
  6
CONTINUOUS
 62
7
 10
141.600006
 20
93.899902
 40
2.100000
 50
270.000000
 51
90.000000
  0
ARC
  8
0
  6
CONTINUOUS
 62
7
 10
159.000000
 20
135.382996
 40
2.100010
 50
180.000000
 51
0.000000
  0
ARC
  8
0
  6
CONTINUOUS
 62
7
 10
176.399994
 20
93.899902
 40
2.100000
 50
90.000000
 51
270.000000
  0
ARC
  8
0
  6
CONTINUOUS
 62
7
 10
141.600006
 20
93.899902
 40
2.100000
 50
270.000000
 51
90.000000
  0
ARC
  8
0
  6
CONTINUOUS
 62
7
 10
159.000000
 20
135.382996
 40
2.100010
 50
180.000000
 51
0.000000
  0
ARC
  8
0
  6
CONTINUOUS
 62
7
 10
141.600006
 20
127.900002
 40
2.100000
 50
270.000000
 51
90.000000
  0
ARC
  8
0
  6
CONTINUOUS
 62
7
 10
-32.779099
 20
-9.000000
 40
7.220880
 50
159.744003
 51
200.255997
  0
ARC
  8
0
  6
CONTINUOUS
 62
7
 10
-24.779100
 20
-9.000000
 40
7.220890
 50
159.744003
 51
200.255997
  0
ARC
  8
0
  6
CONTINUOUS
 62
7
 10
-35.220901
 20
-9.000000
 40
7.220890
 50
339.743988
 51
20.256100
  0
CIRCLE
  8
0
  6
CONTINUOUS
 62
7
 10
18.000000
 20
1.500020
 40
3.250000
  0
CIRCLE
  8
0
  6
CONTINUOUS
 62
7
 10
55.000000
 20
1.500020
 40
3.250000
  0
CIRCLE
  8
0
  6
CONTINUOUS
 62
2
 10
18.000000
 20
1.500020
 40
5.250000
  0
CIRCLE
  8
0
  6
CONTINUOUS
 62
2
 10
55.000000
 20
1.500020
 40
5.250000
  0
CIRCLE
  8
0
  6
CONTINUOUS
 62
4
 10
114.444000
 20
-61.050499
 40
0.250000
  0
CIRCLE
  8
0
  6
CONTINUOUS
 62
4
 10
113.832001
 20
-60.391399
 40
0.450000
  0
CIRCLE
  8
0
  6
CONTINUOUS
 62
4
 10
113.832001
 20
-60.391399
 40
0.250000
  0
ARC
  8
0
  6
CONTINUOUS
 62
4
 10
114.214996
 20
-60.709499
 40
3.300000
 50
137.014008
 51
222.985992
  0
CIRCLE
  8
0
  6
CONTINUOUS
 62
4
 10
96.714500
 20
-60.709499
 40
1.250000
  0
CIRCLE
  8
0
  6
CONTINUOUS
 62
4
 10
96.714500
 20
-60.709499
 40
1.400000
  0
CIRCLE
  8
0
  6
CONTINUOUS
 62
4
 10
114.122002
 20
-60.709499
 40
1.300000
  0
CIRCLE
  8
0
  6
CONTINUOUS
 62
4
 10
114.444000
 20
-61.050499
 40
0.450000
  0
ARC
  8
0
  6
CONTINUOUS
 62
4
 10
51.671799
 20
-108.860001
 40
2.050000
 50
180.000000
 51
270.000000
  0
ARC
  8
0
  6
CONTINUOUS
 62
4
 10
51.671799
 20
-108.860001
 40
2.050000
 50
271.260010
 51
0.000000
  0
CIRCLE
  8
0
  6
CONTINUOUS
 62
4
 10
-61.096401
 20
-65.759499
 40
1.250000
  0
CIRCLE
  8
0
  6
CONTINUOUS
 62
4
 10
-61.096401
 20
-65.759499
 40
1.400000
  0
ARC
  8
0
  6
CONTINUOUS
 62
4
 10
-107.639000
 20
-108.860001
 40
2.050000
 50
180.000000
 51
270.000000
  0
ARC
  8
0
  6
CONTINUOUS
 62
4
 10
-107.639000
 20
-108.860001
 40
2.050000
 50
270.000000
 51
0.000000
  0
TEXT
  8
0
 62
7
 10
199.780289
 20
183.925003
 40
6.300000
  1
Ver. 1.0
 50
0.000000
 41
0.958102
 51
0.000000
  7
STANDARD
  0
TEXT
  8
0
 62
7
 10
172.714691
 20
-187.250000
 40
9.000000
  1
KOGANEI CORP.
 50
0.000000
 41
0.771524
 51
0.000000
  7
STANDARD
  0
TEXT
  8
0
 62
7
 10
-271.919739
 20
183.925003
 40
6.300000
  1
TWIN ROD CYLINDER
 50
0.000000
 41
0.756933
 51
0.000000
  7
STANDARD
  0
TEXT
  8
0
 62
7
 10
-257.734283
 20
-152.625000
 40
4.500000
  1
PLACE
 50
0.000000
 41
0.821532
 51
0.000000
  7
STANDARD
  0
TEXT
  8
0
 62
7
 10
-217.692657
 20
-145.125000
 40
4.500000
  1
10
 50
0.000000
 41
1.714501
 51
0.000000
  7
STANDARD
  0
TEXT
  8
0
 62
7
 10
-163.692657
 20
-129.125000
 40
4.500000
  1
STRETCH LIST
 50
0.000000
 41
0.776883
 51
0.000000
  7
STANDARD
  0
TEXT
  8
0
 62
7
 10
-269.400391
 20
158.925003
 40
6.300000
  1
MODEL:TBDAM32*ST(10)
 50
0.000000
 41
0.800099
 51
0.000000
  7
STANDARD
  0
TEXT
  8
0
 62
7
 10
-24.192656
 20
-130.125000
 40
4.500000
  1
(mm)
 50
0.000000
 41
0.964407
 51
0.000000
  7
STANDARD
  0
TEXT
  8
0
 62
7
 10
-266.734283
 20
-138.125000
 40
4.500000
  1
STROKE
 50
0.000000
 41
0.800101
 51
0.000000
  7
STANDARD
  0
TEXT
  8
0
 62
7
 10
-266.734283
 20
-146.625000
 40
4.500000
  1
STRETCH
 50
0.000000
 41
0.785813
 51
0.000000
  7
STANDARD
  0
TEXT
  8
0
 62
7
 10
-251.150299
 20
-161.199997
 40
4.800000
  1
A
 50
0.000000
 41
0.820000
 51
0.000000
  7
STANDARD
  0
TEXT
  8
0
 62
7
 10
-251.150299
 20
-171.199997
 40
4.800000
  1
B
 50
0.000000
 41
0.820000
 51
0.000000
  7
STANDARD
  0
TEXT
  8
0
 62
7
 10
-251.150299
 20
-181.199997
 40
4.800000
  1
C
 50
0.000000
 41
0.820000
 51
0.000000
  7
STANDARD
  0
TEXT
  8
0
 62
7
 10
-195.692856
 20
-145.125000
 40
4.500000
  1
20
 50
0.000000
 41
1.142859
 51
0.000000
  7
STANDARD
  0
TEXT
  8
0
 62
7
 10
-173.692856
 20
-145.125000
 40
4.500000
  1
30
 50
0.000000
 41
1.142859
 51
0.000000
  7
STANDARD
  0
TEXT
  8
0
 62
7
 10
-151.692856
 20
-145.125000
 40
4.500000
  1
40
 50
0.000000
 41
1.142859
 51
0.000000
  7
STANDARD
  0
TEXT
  8
0
 62
7
 10
-129.692856
 20
-145.125000
 40
4.500000
  1
50
 50
0.000000
 41
1.142859
 51
0.000000
  7
STANDARD
  0
TEXT
  8
0
 62
7
 10
-107.692856
 20
-145.125000
 40
4.500000
  1
60
 50
0.000000
 41
1.142859
 51
0.000000
  7
STANDARD
  0
TEXT
  8
0
 62
7
 10
-21.942856
 20
-145.125000
 40
4.500000
  1
100
 50
0.000000
 41
1.238097
 51
0.000000
  7
STANDARD
  0
TEXT
  8
0
 62
7
 10
-19.692856
 20
-181.125000
 40
4.500000
  1
90
 50
0.000000
 41
1.142859
 51
0.000000
  7
STANDARD
  0
TEXT
  8
0
 62
7
 10
-215.442856
 20
-161.125000
 40
4.500000
  1
0
 50
0.000000
 41
0.820000
 51
0.000000
  7
STANDARD
  0
TEXT
  8
0
 62
7
 10
-215.442856
 20
-171.125000
 40
4.500000
  1
0
 50
0.000000
 41
0.820000
 51
0.000000
  7
STANDARD
  0
TEXT
  8
0
 62
7
 10
-215.442856
 20
-181.125000
 40
4.500000
  1
0
 50
0.000000
 41
0.820000
 51
0.000000
  7
STANDARD
  0
TEXT
  8
0
 62
7
 10
-195.692856
 20
-181.125000
 40
4.500000
  1
10
 50
0.000000
 41
1.714288
 51
0.000000
  7
STANDARD
  0
TEXT
  8
0
 62
7
 10
-173.692856
 20
-181.125000
 40
4.500000
  1
20
 50
0.000000
 41
1.142859
 51
0.000000
  7
STANDARD
  0
TEXT
  8
0
 62
7
 10
-151.692856
 20
-181.125000
 40
4.500000
  1
30
 50
0.000000
 41
1.142859
 51
0.000000
  7
STANDARD
  0
TEXT
  8
0
 62
7
 10
-129.692856
 20
-181.125000
 40
4.500000
  1
40
 50
0.000000
 41
1.142859
 51
0.000000
  7
STANDARD
  0
TEXT
  8
0
 62
7
 10
-107.692856
 20
-181.125000
 40
4.500000
  1
50
 50
0.000000
 41
1.142859
 51
0.000000
  7
STANDARD
  0
TEXT
  8
0
 62
3
 10
-55.469902
 20
170.677994
 40
4.500000
  1
STRETCH LINE C
 50
0.000000
 41
0.766918
 51
0.000000
  7
STANDARD
  0
TEXT
  8
0
 62
3
 10
-3.469873
 20
160.677994
 40
4.500000
  1
STRETCH LINE A
 50
0.000000
 41
0.766918
 51
0.000000
  7
STANDARD
  0
TEXT
  8
0
 62
3
 10
24.530098
 20
150.677994
 40
4.500000
  1
STRETCH LINE B
 50
0.000000
 41
0.766918
 51
0.000000
  7
STANDARD
  0
TEXT
  8
0
 62
7
 10
-85.692856
 20
-181.125000
 40
4.500000
  1
60
 50
0.000000
 41
1.142859
 51
0.000000
  7
STANDARD
  0
TEXT
  8
0
 62
7
 10
-85.692856
 20
-145.125000
 40
4.500000
  1
70
 50
0.000000
 41
1.142859
 51
0.000000
  7
STANDARD
  0
TEXT
  8
0
 62
7
 10
-63.692856
 20
-181.125000
 40
4.500000
  1
70
 50
0.000000
 41
1.142859
 51
0.000000
  7
STANDARD
  0
TEXT
  8
0
 62
7
 10
-63.692856
 20
-145.125000
 40
4.500000
  1
80
 50
0.000000
 41
1.142859
 51
0.000000
  7
STANDARD
  0
TEXT
  8
0
 62
7
 10
-41.692856
 20
-181.125000
 40
4.500000
  1
80
 50
0.000000
 41
1.142859
 51
0.000000
  7
STANDARD
  0
TEXT
  8
0
 62
7
 10
-41.692856
 20
-145.125000
 40
4.500000
  1
90
 50
0.000000
 41
1.142859
 51
0.000000
  7
STANDARD
  0
TEXT
  8
0
 62
7
 10
-193.442856
 20
-161.125000
 40
4.500000
  1
5
 50
0.000000
 41
0.820000
 51
0.000000
  7
STANDARD
  0
TEXT
  8
0
 62
7
 10
-193.442856
 20
-171.125000
 40
4.500000
  1
5
 50
0.000000
 41
0.820000
 51
0.000000
  7
STANDARD
  0
TEXT
  8
0
 62
7
 10
-173.692856
 20
-171.125000
 40
4.500000
  1
10
 50
0.000000
 41
1.714288
 51
0.000000
  7
STANDARD
  0
TEXT
  8
0
 62
7
 10
-151.692856
 20
-171.125000
 40
4.500000
  1
15
 50
0.000000
 41
1.714288
 51
0.000000
  7
STANDARD
  0
TEXT
  8
0
 62
7
 10
-129.692856
 20
-171.125000
 40
4.500000
  1
20
 50
0.000000
 41
1.142859
 51
0.000000
  7
STANDARD
  0
TEXT
  8
0
 62
7
 10
-107.692856
 20
-171.125000
 40
4.500000
  1
25
 50
0.000000
 41
1.142859
 51
0.000000
  7
STANDARD
  0
TEXT
  8
0
 62
7
 10
-85.692856
 20
-171.125000
 40
4.500000
  1
30
 50
0.000000
 41
1.142859
 51
0.000000
  7
STANDARD
  0
TEXT
  8
0
 62
7
 10
-63.692856
 20
-171.125000
 40
4.500000
  1
35
 50
0.000000
 41
1.142859
 51
0.000000
  7
STANDARD
  0
TEXT
  8
0
 62
7
 10
-41.692856
 20
-171.125000
 40
4.500000
  1
40
 50
0.000000
 41
1.142859
 51
0.000000
  7
STANDARD
  0
TEXT
  8
0
 62
7
 10
-19.692856
 20
-171.125000
 40
4.500000
  1
45
 50
0.000000
 41
1.142859
 51
0.000000
  7
STANDARD
  0
TEXT
  8
0
 62
7
 10
-173.692856
 20
-161.125000
 40
4.500000
  1
10
 50
0.000000
 41
1.714288
 51
0.000000
  7
STANDARD
  0
TEXT
  8
0
 62
7
 10
-151.692856
 20
-161.125000
 40
4.500000
  1
15
 50
0.000000
 41
1.714288
 51
0.000000
  7
STANDARD
  0
TEXT
  8
0
 62
7
 10
-129.692856
 20
-161.125000
 40
4.500000
  1
20
 50
0.000000
 41
1.142859
 51
0.000000
  7
STANDARD
  0
TEXT
  8
0
 62
7
 10
-107.692856
 20
-161.125000
 40
4.500000
  1
25
 50
0.000000
 41
1.142859
 51
0.000000
  7
STANDARD
  0
TEXT
  8
0
 62
7
 10
-85.692856
 20
-161.125000
 40
4.500000
  1
30
 50
0.000000
 41
1.142859
 51
0.000000
  7
STANDARD
  0
TEXT
  8
0
 62
7
 10
-63.692856
 20
-161.125000
 40
4.500000
  1
35
 50
0.000000
 41
1.142859
 51
0.000000
  7
STANDARD
  0
TEXT
  8
0
 62
7
 10
-41.692856
 20
-161.125000
 40
4.500000
  1
40
 50
0.000000
 41
1.142859
 51
0.000000
  7
STANDARD
  0
TEXT
  8
0
 62
7
 10
-19.692856
 20
-161.125000
 40
4.500000
  1
45
 50
0.000000
 41
1.142859
 51
0.000000
  7
STANDARD
  0
ENDSEC
  0
EOF
