  0
SECTION
  2
HEADER
  0
ENDSEC
  0
SECTION
  2
TABLES
  0
TABLE
  2
LTYPE
 70
     4
  0
LTYPE
  2
CONTINUOUS
 70
    64
  3
Solid line
 72
    65
 73
     0
 40
0.000000
  0
LTYPE
  2
DASHED
 70
    64
  3
__ __ __ __ __ __ __ __ __ __ __ __ __ __ __
 72
    65
 73
     2
 40
3.500000
 49
2.000000
 49
-1.500000
  0
LTYPE
  2
CENTER
 70
    64
  3
____ _ ____ _ ____ _ ____ _ ____ _ ____ _ ____
 72
    65
 73
     4
 40
17.500000
 49
13.000000
 49
-1.500000
 49
1.500000
 49
-1.500000
  0
LTYPE
  2
PHANTOM
 70
    64
  3
_____ _ _ _____ _ _ _____ _ _ _____ _ _ ____  
 72
    65
 73
     6
 40
15.500000
 49
8.000000
 49
-1.500000
 49
1.500000
 49
-1.500000
 49
1.500000
 49
-1.500000
  0
LTYPE
  2
DASHED1
 70
    64
  3
__ __ __ __ __ __ __ __ __ __ __ __ __ __ __
 72
    65
 73
     2
 40
1.500000
 49
1.000000
 49
-0.500000
  0
LTYPE
  2
DASHED2
 70
    64
  3
__ __ __ __ __ __ __ __ __ __ __ __ __ __ __
 72
    65
 73
     2
 40
3.500000
 49
2.500000
 49
-1.000000
  0
LTYPE
  2
DASHED3
 70
    64
  3
__ __ __ __ __ __ __ __ __ __ __ __ __ __ __
 72
    65
 73
     2
 40
6.000000
 49
4.000000
 49
-2.000000
  0
LTYPE
  2
DASHED4
 70
    64
  3
__ __ __ __ __ __ __ __ __ __ __ __ __ __ __
 72
    65
 73
     2
 40
12.000000
 49
10.000000
 49
-2.000000
  0
LTYPE
  2
DASHED5
 70
    64
  3
__ __ __ __ __ __ __ __ __ __ __ __ __ __ __
 72
    65
 73
     2
 40
17.000000
 49
15.000000
 49
-2.000000
  0
LTYPE
  2
DASHED6
 70
    64
  3
__ __ __ __ __ __ __ __ __ __ __ __ __ __ __
 72
    65
 73
     2
 40
29.000000
 49
27.000000
 49
-2.000000
  0
LTYPE
  2
PHANTOM1
 70
    64
  3
_____ _ _ _____ _ _ _____ _ _ _____ _ _ ____  
 72
    65
 73
     6
 40
31.000000
 49
25.000000
 49
-1.500000
 49
1.000000
 49
-1.000000
 49
1.000000
 49
-1.500000
  0
LTYPE
  2
PHANTOM2
 70
    64
  3
_____ _ _ _____ _ _ _____ _ _ _____ _ _ ____  
 72
    65
 73
     6
 40
36.000000
 49
27.000000
 49
-1.500000
 49
2.500000
 49
-1.000000
 49
2.500000
 49
-1.500000
  0
LTYPE
  2
PHANTOM3
 70
    64
  3
_____ _ _ _____ _ _ _____ _ _ _____ _ _ ____  
 72
    65
 73
     6
 40
78.000000
 49
64.000000
 49
-2.000000
 49
4.000000
 49
-2.000000
 49
4.000000
 49
-2.000000
  0
LTYPE
  2
CENTER1
 70
    64
  3
____ _ ____ _ ____ _ ____ _ ____ _ ____ _ ____
 72
    65
 73
     4
 40
19.000000
 49
14.000000
 49
-1.000000
 49
3.000000
 49
-1.000000
  0
LTYPE
  2
CENTER2
 70
    64
  3
____ _ ____ _ ____ _ ____ _ ____ _ ____ _ ____
 72
    65
 73
     4
 40
28.500000
 49
25.000000
 49
-1.000000
 49
1.500000
 49
-1.000000
  0
LTYPE
  2
CENTER3
 70
    64
  3
____ _ ____ _ ____ _ ____ _ ____ _ ____ _ ____
 72
    65
 73
     4
 40
31.500000
 49
27.000000
 49
-1.000000
 49
2.500000
 49
-1.000000
  0
LTYPE
  2
CENTER4
 70
    64
  3
____ _ ____ _ ____ _ ____ _ ____ _ ____ _ ____
 72
    65
 73
     4
 40
50.000000
 49
45.000000
 49
-1.000000
 49
3.000000
 49
-1.000000
  0
LTYPE
  2
CENTER5
 70
    64
  3
____ _ ____ _ ____ _ ____ _ ____ _ ____ _ ____
 72
    65
 73
     4
 40
100.000000
 49
92.000000
 49
-2.000000
 49
4.000000
 49
-2.000000
  0
LTYPE
  2
SBK1
 70
    64
  3
______ _ _ _ ______ _ _ _ ______ _ _ _ _____  
 72
    65
 73
     8
 40
60.500000
 49
45.000000
 49
-2.000000
 49
2.500000
 49
-2.000000
 49
2.500000
 49
-2.000000
 49
2.500000
 49
-2.000000
  0
LTYPE
  2
SBK2
 70
    64
  3
______ _ _ _ ______ _ _ _ ______ _ _ _ _____  
 72
    65
 73
     8
 40
84.000000
 49
64.000000
 49
-2.000000
 49
4.000000
 49
-2.000000
 49
4.000000
 49
-2.000000
 49
4.000000
 49
-2.000000
  0
LTYPE
  2
STCH
 70
    64
  3
__ __ __ __ __ __ __ __ __ __ __ __ __ __ __
 72
    65
 73
     2
 40
3.000000
 49
1.000000
 49
-2.000000
  0
LTYPE
  2
MTCH
 70
    64
  3
_____ _ _ _____ _ _ _____ _ _ _____ _ _ ____  
 72
    65
 73
     6
 40
80.000000
 49
66.000000
 49
-2.000000
 49
4.000000
 49
-2.000000
 49
4.000000
 49
-2.000000
  0
ENDTAB
  0
TABLE
  2
LAYER
 70
     1
  0
LAYER
  2
0
 70
     0
 62
     7
  6
CONTINUOUS
  0
ENDTAB
  0
TABLE
  2
STYLE
 70
     1
  0
STYLE
  2
STANDARD
 70
     0
 40
0.000000
 41
1.000000
 50
0.000000
 71
     0
 42
0.200000
  3
txt
  4
BIGFONT
  0
ENDTAB
  0
TABLE
  2
VIEW
 70
     0
  0
ENDTAB
  0
ENDSEC
  0
SECTION
  2
BLOCKS
  0
ENDSEC
  0
SECTION
  2
ENTITIES
  0
LINE
  8
0
  6
PHANTOM
 62
     3
 10
-39.500000
 20
156.000000
 11
-39.500000
 21
36.500000
  0
LINE
  8
0
  6
PHANTOM
 62
     3
 10
30.000000
 20
136.000000
 11
30.000000
 21
36.500000
  0
LINE
  8
0
  6
PHANTOM
 62
     3
 10
2.500000
 20
146.000000
 11
2.500000
 21
36.500000
  0
LINE
  8
0
 10
-27.999977
 20
125.785706
 11
-27.999977
 21
54.214268
  0
LINE
  8
0
 10
-45.999977
 20
93.999992
 11
-45.999977
 21
86.000008
  0
LINE
  8
0
 10
-46.999985
 20
126.000008
 11
-46.999985
 21
53.999992
  0
LINE
  8
0
 10
-46.999977
 20
101.000008
 11
-27.999977
 21
101.000008
  0
LINE
  8
0
 10
-46.999977
 20
113.000000
 11
-27.999977
 21
113.000000
  0
LINE
  8
0
 10
-46.999977
 20
66.999977
 11
-27.999977
 21
66.999977
  0
LINE
  8
0
 10
-46.999977
 20
78.999992
 11
-27.999977
 21
78.999992
  0
LINE
  8
0
 10
-27.285690
 20
126.499969
 11
53.285736
 21
126.499969
  0
LINE
  8
0
  6
CENTER
 62
     2
 10
-59.399979
 20
106.999977
 11
-23.166645
 21
106.999977
  0
LINE
  8
0
  6
CENTER
 62
     2
 10
-62.364891
 20
89.999985
 11
60.600006
 21
89.999985
  0
LINE
  8
0
 10
-27.285690
 20
53.499981
 11
53.285736
 21
53.499981
  0
LINE
  8
0
 10
-56.999977
 20
125.999985
 11
-46.999977
 21
125.999985
  0
LINE
  8
0
 10
-56.999977
 20
53.999992
 11
-46.999977
 21
53.999992
  0
LINE
  8
0
  6
DASHED
 10
-46.999977
 20
86.000008
 11
-45.999977
 21
86.000008
  0
LINE
  8
0
  6
DASHED
 10
-46.999977
 20
93.999969
 11
-45.999977
 21
93.999969
  0
LINE
  8
0
  6
DASHED
 10
-46.999977
 20
110.160683
 11
-44.999977
 21
110.160683
  0
LINE
  8
0
 10
-46.999977
 20
103.839272
 11
-44.999977
 21
103.839272
  0
LINE
  8
0
 10
-44.999981
 20
110.160706
 11
-44.999981
 21
103.839294
  0
LINE
  8
0
 10
-44.999977
 20
110.160683
 11
-46.999977
 21
110.160683
  0
LINE
  8
0
 10
-44.999981
 20
76.160683
 11
-44.999981
 21
69.839294
  0
LINE
  8
0
 10
-44.999977
 20
69.839294
 11
-46.999977
 21
69.839294
  0
LINE
  8
0
 10
-44.999977
 20
76.160683
 11
-46.999977
 21
76.160683
  0
LINE
  8
0
  6
CENTER
 62
     2
 10
-55.499977
 20
61.999977
 11
-47.833313
 21
61.999977
  0
LINE
  8
0
  6
CENTER
 62
     2
 10
-55.833313
 20
118.000000
 11
-48.499977
 21
118.000000
  0
LINE
  8
0
  6
CENTER
 62
     2
 10
-51.999985
 20
122.166672
 11
-51.999985
 21
113.500008
  0
LINE
  8
0
  6
CENTER
 62
     2
 10
-51.999985
 20
66.833328
 11
-51.999985
 21
57.166649
  0
LINE
  8
0
  6
CENTER
 62
     2
 10
22.000023
 20
127.748993
 11
22.000023
 21
116.499992
  0
LINE
  8
0
  6
CENTER
 62
     2
 10
-12.999977
 20
95.500000
 11
-12.999977
 21
83.833321
  0
LINE
  8
0
  6
CENTER
 62
     2
 10
37.000023
 20
96.499992
 11
37.000023
 21
83.833321
  0
LINE
  8
0
  6
CENTER
 62
     2
 10
16.013023
 20
56.999977
 11
28.166687
 21
56.999977
  0
LINE
  8
0
  6
CENTER
 62
     2
 10
16.500015
 20
123.000000
 11
28.500031
 21
123.000000
  0
LINE
  8
0
  6
CENTER
 62
     2
 10
22.000023
 20
63.234741
 11
22.000023
 21
50.833313
  0
LINE
  8
0
 10
-35.711311
 20
94.618782
 11
-32.499992
 21
94.618782
  0
LINE
  8
0
 10
-35.711311
 20
92.309387
 11
-32.499992
 21
92.309387
  0
LINE
  8
0
 10
-35.711311
 20
87.690590
 11
-32.499992
 21
87.690590
  0
LINE
  8
0
 10
-35.711311
 20
85.381195
 11
-32.499992
 21
85.381195
  0
LINE
  8
0
 10
-32.499992
 20
94.618805
 11
-32.499992
 21
85.381195
  0
LINE
  8
0
 10
-30.479988
 20
94.118790
 11
-30.479988
 21
85.881203
  0
LINE
  8
0
 10
-35.999954
 20
94.118782
 11
-35.711266
 21
94.618805
  0
LINE
  8
0
 10
-35.999989
 20
85.881203
 11
-35.711300
 21
85.381172
  0
LINE
  8
0
 10
-30.191315
 20
94.618782
 11
-28.288673
 21
94.618782
  0
LINE
  8
0
 10
-30.191315
 20
85.381195
 11
-28.288651
 21
85.381195
  0
LINE
  8
0
 10
-27.999989
 20
94.118790
 11
-28.288668
 21
94.618790
  0
LINE
  8
0
 10
-27.999979
 20
85.881172
 11
-28.288658
 21
85.381172
  0
LINE
  8
0
 10
-30.479975
 20
94.118797
 11
-30.191298
 21
94.618790
  0
LINE
  8
0
 10
-30.480013
 20
85.881142
 11
-30.191336
 21
85.381149
  0
LINE
  8
0
 10
-30.191315
 20
87.690590
 11
-28.288651
 21
87.690590
  0
LINE
  8
0
 10
-30.191315
 20
92.309387
 11
-28.288651
 21
92.309387
  0
LINE
  8
0
 10
-32.499992
 20
92.499985
 11
-30.479988
 21
92.499985
  0
LINE
  8
0
 10
-32.499992
 20
87.499985
 11
-30.479988
 21
87.499985
  0
LINE
  8
0
 62
     2
 10
-32.499992
 20
87.904999
 11
-30.479988
 21
87.904999
  0
LINE
  8
0
 62
     2
 10
-32.499992
 20
92.094978
 11
-30.479988
 21
92.094978
  0
LINE
  8
0
  6
CENTER
 62
     2
 10
-58.999977
 20
73.000000
 11
-24.166641
 21
73.000000
  0
LINE
  8
0
 10
-56.999985
 20
126.000008
 11
-56.999985
 21
53.999992
  0
LINE
  8
0
 10
-35.999985
 20
93.999992
 11
-35.999985
 21
86.000008
  0
LINE
  8
0
 10
30.800049
 20
126.499969
 11
32.800041
 21
126.499969
  0
LINE
  8
0
 10
-27.285652
 20
126.499977
 11
-27.999929
 21
125.785690
  0
LINE
  8
0
 10
53.285736
 20
126.500000
 11
54.000019
 21
125.785713
  0
LINE
  8
0
 10
-27.999981
 20
54.214275
 11
-27.285694
 21
53.499989
  0
LINE
  8
0
 10
54.000031
 20
54.214298
 11
53.285744
 21
53.500011
  0
LINE
  8
0
 10
-11.145248
 20
94.099983
 11
35.145294
 21
94.099983
  0
LINE
  8
0
 10
-27.999977
 20
119.799988
 11
18.836182
 21
119.799988
  0
LINE
  8
0
 10
-27.999977
 20
116.599983
 11
54.000015
 21
116.599983
  0
LINE
  8
0
 10
-27.999977
 20
94.099983
 11
-14.854706
 21
94.099983
  0
LINE
  8
0
 10
-27.999977
 20
97.299988
 11
54.000015
 21
97.299988
  0
LINE
  8
0
 10
25.163872
 20
119.799988
 11
54.000015
 21
119.799988
  0
LINE
  8
0
 10
38.854752
 20
94.099983
 11
54.000015
 21
94.099983
  0
LINE
  8
0
 10
54.000015
 20
125.785736
 11
54.000015
 21
54.214268
  0
LINE
  8
0
 10
-46.999985
 20
93.999969
 11
-45.999977
 21
93.999969
  0
LINE
  8
0
 10
-46.999985
 20
86.000008
 11
-45.999977
 21
86.000008
  0
LINE
  8
0
 62
     2
 10
-44.999977
 20
110.160683
 11
-46.999977
 21
103.839272
  0
LINE
  8
0
 62
     2
 10
-44.999977
 20
103.839272
 11
-46.999977
 21
110.160675
  0
LINE
  8
0
 62
     2
 10
-46.999977
 20
76.160683
 11
-44.999977
 21
69.839294
  0
LINE
  8
0
 62
     2
 10
-44.999977
 20
76.160683
 11
-46.999977
 21
69.839294
  0
LINE
  8
0
 10
-157.285797
 20
53.500011
 11
-146.550079
 21
53.500011
  0
LINE
  8
0
 10
-157.285797
 20
126.500000
 11
-144.600098
 21
126.500000
  0
LINE
  8
0
  6
CENTER
 62
     2
 10
-160.259064
 20
90.000015
 11
-125.016586
 21
90.000015
  0
LINE
  8
0
  6
CENTER
 62
     2
 10
-149.748138
 20
107.000008
 11
-135.372925
 21
107.000008
  0
LINE
  8
0
  6
CENTER
 62
     2
 10
-150.057281
 20
73.000031
 11
-135.836639
 21
73.000031
  0
LINE
  8
0
 10
-157.500061
 20
126.000015
 11
-128.500061
 21
126.000015
  0
LINE
  8
0
 10
-157.500061
 20
54.000023
 11
-128.500061
 21
54.000023
  0
LINE
  8
0
  6
CENTER
 62
     2
 10
-143.000076
 20
130.062866
 11
-143.000076
 21
49.530701
  0
LINE
  8
0
 10
-128.500061
 20
126.000038
 11
-128.500061
 21
54.000023
  0
LINE
  8
0
 10
-157.500092
 20
126.000038
 11
-157.500092
 21
54.000023
  0
LINE
  8
0
 10
-158.000076
 20
125.785713
 11
-158.000076
 21
119.800018
  0
LINE
  8
0
 10
-128.000076
 20
125.785736
 11
-128.000076
 21
119.800018
  0
LINE
  8
0
  6
CENTER
 62
     2
 10
-146.192978
 20
57.000008
 11
-139.546356
 21
57.000008
  0
LINE
  8
0
 10
-158.000076
 20
94.099991
 11
-158.000076
 21
54.214298
  0
LINE
  8
0
 10
-141.400055
 20
126.500000
 11
-128.714355
 21
126.500000
  0
LINE
  8
0
 10
-128.000076
 20
94.099991
 11
-128.000076
 21
54.214298
  0
LINE
  8
0
 10
-146.550079
 20
53.500011
 11
-128.714355
 21
53.500011
  0
LINE
  8
0
 10
-140.500076
 20
74.443398
 11
-140.500076
 21
71.556656
  0
LINE
  8
0
 10
-145.500076
 20
74.443398
 11
-145.500076
 21
71.556656
  0
LINE
  8
0
 10
-145.500076
 20
74.443428
 11
-143.000061
 21
75.886810
  0
LINE
  8
0
 10
-143.000046
 20
70.113312
 11
-140.500061
 21
71.556679
  0
LINE
  8
0
 10
-143.000076
 20
75.886780
 11
-140.500076
 21
74.443405
  0
LINE
  8
0
 10
-145.500092
 20
71.556664
 11
-143.000092
 21
70.113289
  0
LINE
  8
0
 10
-145.500092
 20
108.443497
 11
-143.000122
 21
109.886848
  0
LINE
  8
0
 10
-145.500076
 20
108.443405
 11
-145.500076
 21
105.556656
  0
LINE
  8
0
 10
-145.500076
 20
105.556656
 11
-143.000076
 21
104.113266
  0
LINE
  8
0
 10
-143.000092
 20
104.113327
 11
-140.500092
 21
105.556702
  0
LINE
  8
0
 10
-140.500076
 20
108.443405
 11
-140.500076
 21
105.556656
  0
LINE
  8
0
 10
-143.000076
 20
109.886787
 11
-140.500092
 21
108.443420
  0
LINE
  8
0
 10
-146.600067
 20
126.000015
 11
-147.600067
 21
126.000015
  0
LINE
  8
0
 10
-135.100067
 20
126.000015
 11
-138.100067
 21
126.000015
  0
LINE
  8
0
  6
CENTER
 62
     2
 10
-146.621140
 20
123.000031
 11
-139.148865
 21
123.000031
  0
LINE
  8
0
 10
-128.000061
 20
82.100021
 11
-128.000061
 21
85.100029
  0
LINE
  8
0
 10
-157.285767
 20
126.499985
 11
-158.000046
 21
125.785683
  0
LINE
  8
0
 10
-128.714401
 20
126.500015
 11
-128.000107
 21
125.785713
  0
LINE
  8
0
 10
-158.000061
 20
54.214325
 11
-157.285782
 21
53.500038
  0
LINE
  8
0
 10
-128.000061
 20
54.214310
 11
-128.714340
 21
53.500023
  0
LINE
  8
0
 10
-128.000076
 20
97.300018
 11
-128.500061
 21
97.300018
  0
LINE
  8
0
 10
-128.000076
 20
94.099991
 11
-128.500061
 21
94.099991
  0
LINE
  8
0
 10
-158.000076
 20
116.599991
 11
-157.500092
 21
116.599991
  0
LINE
  8
0
 10
-158.000076
 20
119.800018
 11
-157.500092
 21
119.800018
  0
LINE
  8
0
 10
-144.600098
 20
126.500000
 11
-144.600098
 21
126.000015
  0
LINE
  8
0
 10
-141.400055
 20
126.500000
 11
-141.400055
 21
126.000015
  0
LINE
  8
0
 10
-158.000076
 20
94.099991
 11
-157.500092
 21
94.099991
  0
LINE
  8
0
 10
-158.000076
 20
97.300018
 11
-157.500092
 21
97.300018
  0
LINE
  8
0
 10
-158.000076
 20
116.599991
 11
-158.000076
 21
97.300018
  0
LINE
  8
0
 10
-128.000092
 20
119.800018
 11
-128.500061
 21
119.800018
  0
LINE
  8
0
 10
-128.000092
 20
116.599991
 11
-128.500061
 21
116.599991
  0
LINE
  8
0
 10
-128.000076
 20
116.599991
 11
-128.000076
 21
97.300018
  0
LINE
  8
0
  6
CENTER
 62
     2
 10
134.000092
 20
129.554901
 11
134.000092
 21
51.298237
  0
LINE
  8
0
 10
119.000092
 20
125.785736
 11
119.000092
 21
119.800018
  0
LINE
  8
0
 10
149.000092
 20
125.785736
 11
149.000092
 21
119.799995
  0
LINE
  8
0
 10
119.714386
 20
53.500011
 11
148.285797
 21
53.500011
  0
LINE
  8
0
 10
119.714386
 20
126.500000
 11
132.400055
 21
126.500000
  0
LINE
  8
0
  6
CENTER
 62
     2
 10
116.885315
 20
90.000015
 11
151.431061
 21
90.000015
  0
LINE
  8
0
  6
CENTER
 62
     2
 10
116.885315
 20
73.000031
 11
150.726044
 21
73.000031
  0
LINE
  8
0
  6
CENTER
 62
     2
 10
117.590363
 20
107.000008
 11
150.867035
 21
107.000008
  0
LINE
  8
0
 10
119.000092
 20
94.099991
 11
119.000092
 21
54.214298
  0
LINE
  8
0
 10
149.000092
 20
94.099968
 11
149.000092
 21
54.214298
  0
LINE
  8
0
 10
135.600098
 20
126.500000
 11
148.285797
 21
126.500000
  0
LINE
  8
0
 10
119.714355
 20
126.500008
 11
119.000069
 21
125.785721
  0
LINE
  8
0
 10
148.285736
 20
126.500031
 11
149.000031
 21
125.785751
  0
LINE
  8
0
 10
119.000076
 20
54.214325
 11
119.714355
 21
53.500034
  0
LINE
  8
0
 10
149.000076
 20
54.214355
 11
148.285767
 21
53.500050
  0
LINE
  8
0
 10
119.000092
 20
97.300018
 11
119.000092
 21
97.500015
  0
LINE
  8
0
 10
120.000244
 20
93.600006
 11
121.570099
 21
93.600006
  0
LINE
  8
0
 10
119.000122
 20
94.100014
 11
119.500122
 21
94.100014
  0
LINE
  8
0
 10
119.000122
 20
97.300018
 11
119.499817
 21
97.300018
  0
LINE
  8
0
 10
119.500031
 20
94.100037
 11
120.000023
 21
93.600044
  0
LINE
  8
0
 10
120.000122
 20
93.600006
 11
121.600098
 21
93.600006
  0
LINE
  8
0
 10
120.000122
 20
97.800003
 11
121.600098
 21
97.800003
  0
LINE
  8
0
 10
119.499916
 20
97.300110
 11
119.999931
 21
97.800125
  0
LINE
  8
0
 10
147.983612
 20
93.599960
 11
146.383636
 21
93.599960
  0
LINE
  8
0
 10
148.483429
 20
94.100189
 11
147.983444
 21
93.600197
  0
LINE
  8
0
 10
147.983643
 20
97.799965
 11
146.383636
 21
97.799965
  0
LINE
  8
0
 10
147.983688
 20
97.800095
 11
148.483658
 21
97.300102
  0
LINE
  8
0
 10
149.000092
 20
97.299995
 11
148.483643
 21
97.299995
  0
LINE
  8
0
 10
149.000092
 20
94.099968
 11
148.483612
 21
94.099968
  0
LINE
  8
0
  6
CENTER
 62
     2
 10
116.885315
 20
95.700005
 11
151.431061
 21
95.700005
  0
LINE
  8
0
  6
CENTER
 62
     2
 10
116.789886
 20
118.200005
 11
151.431061
 21
118.200005
  0
LINE
  8
0
 10
132.400055
 20
126.500000
 11
132.400055
 21
125.983536
  0
LINE
  8
0
 10
135.600098
 20
126.500000
 11
135.600098
 21
125.983536
  0
LINE
  8
0
 10
136.100098
 20
125.483528
 11
136.100098
 21
123.883537
  0
LINE
  8
0
 10
135.599945
 20
125.983376
 11
136.099930
 21
125.483383
  0
LINE
  8
0
 10
131.900085
 20
125.483551
 11
131.900085
 21
123.883537
  0
LINE
  8
0
 10
131.900101
 20
125.483521
 11
132.400085
 21
125.983513
  0
LINE
  8
0
 10
149.000092
 20
119.799995
 11
148.483643
 21
119.799995
  0
LINE
  8
0
 10
149.000092
 20
116.599968
 11
148.483612
 21
116.599968
  0
LINE
  8
0
 10
147.983612
 20
116.099960
 11
146.383636
 21
116.099960
  0
LINE
  8
0
 10
148.483444
 20
116.600159
 11
147.983459
 21
116.100182
  0
LINE
  8
0
 10
147.983643
 20
120.299965
 11
146.383636
 21
120.299965
  0
LINE
  8
0
 10
147.983673
 20
120.300072
 11
148.483658
 21
119.800087
  0
LINE
  8
0
 10
149.000092
 20
116.599968
 11
149.000092
 21
97.299995
  0
LINE
  8
0
 10
119.000092
 20
116.599991
 11
119.000092
 21
97.300018
  0
LINE
  8
0
 10
119.000092
 20
119.800018
 11
119.000092
 21
120.000000
  0
LINE
  8
0
 10
120.000244
 20
116.100006
 11
121.570099
 21
116.100006
  0
LINE
  8
0
 10
119.000122
 20
116.600014
 11
119.500122
 21
116.600014
  0
LINE
  8
0
 10
119.000122
 20
119.800018
 11
119.499817
 21
119.800018
  0
LINE
  8
0
 10
119.500053
 20
116.600029
 11
120.000046
 21
116.100037
  0
LINE
  8
0
 10
120.000122
 20
116.100006
 11
121.600098
 21
116.100006
  0
LINE
  8
0
 10
120.000122
 20
120.300011
 11
121.600098
 21
120.300011
  0
LINE
  8
0
 10
119.499916
 20
119.800110
 11
119.999916
 21
120.300110
  0
LINE
  8
0
  6
PHANTOM
 62
     3
 10
2.500000
 20
36.500000
 11
15.999998
 21
36.500000
  0
LINE
  8
0
  6
PHANTOM
 62
     3
 10
15.999998
 20
36.500000
 11
15.999998
 21
-15.499973
  0
LINE
  8
0
  6
PHANTOM
 62
     3
 10
-39.500000
 20
36.500000
 11
-39.500000
 21
-8.433872
  0
LINE
  8
0
  6
PHANTOM
 62
     3
 10
29.999998
 20
36.500000
 11
29.999998
 21
-15.499973
  0
LINE
  8
0
 10
-47.000008
 20
21.000034
 11
-47.000008
 21
11.600033
  0
LINE
  8
0
 10
-46.000000
 20
1.400036
 11
-46.000000
 21
-4.499973
  0
LINE
  8
0
 10
-28.000002
 20
20.785732
 11
-28.000002
 21
-7.785694
  0
LINE
  8
0
 10
53.999992
 20
20.785732
 11
53.999992
 21
-7.785694
  0
LINE
  8
0
 10
-27.285715
 20
21.500019
 11
53.285728
 21
21.500019
  0
LINE
  8
0
 10
-27.285715
 20
-8.499989
 11
53.285683
 21
-8.499989
  0
LINE
  8
0
  6
CENTER
 62
     2
 10
-59.400002
 20
6.500011
 11
59.817299
 21
6.500011
  0
LINE
  8
0
 10
-57.000000
 20
-7.999973
 11
-47.000000
 21
-7.999973
  0
LINE
  8
0
 10
-57.000000
 20
21.000034
 11
-47.000000
 21
21.000034
  0
LINE
  8
0
 10
-45.000000
 20
12.500011
 11
-28.000002
 21
12.500011
  0
LINE
  8
0
 10
-45.000000
 20
0.500027
 11
-28.000002
 21
0.500027
  0
LINE
  8
0
 10
-48.000000
 20
11.600033
 11
-48.000000
 21
1.400036
  0
LINE
  8
0
 10
-48.000000
 20
1.400036
 11
-45.000000
 21
1.400036
  0
LINE
  8
0
 10
-48.000000
 20
11.600033
 11
-45.000000
 21
11.600033
  0
LINE
  8
0
 10
-45.000008
 20
12.500042
 11
-45.000008
 21
11.600033
  0
LINE
  8
0
 10
-47.000008
 20
1.400036
 11
-47.000008
 21
-7.999973
  0
LINE
  8
0
  6
CENTER
 62
     2
 10
11.999998
 20
10.062695
 11
11.999998
 21
2.380199
  0
LINE
  8
0
  6
CENTER
 62
     2
 10
42.000000
 20
10.302776
 11
42.000000
 21
2.620251
  0
LINE
  8
0
 10
-47.000000
 20
-4.499973
 11
-46.000000
 21
-4.499973
  0
LINE
  8
0
 10
-45.000008
 20
1.400036
 11
-45.000008
 21
0.500027
  0
LINE
  8
0
 10
-36.000008
 20
-0.499973
 11
-36.000008
 21
-3.999958
  0
LINE
  8
0
 10
-35.711334
 20
-4.499973
 11
-32.500015
 21
-4.499973
  0
LINE
  8
0
 10
-32.500015
 20
-0.499973
 11
-32.500015
 21
-4.499973
  0
LINE
  8
0
 10
-30.480013
 20
-0.499973
 11
-30.480013
 21
-3.999958
  0
LINE
  8
0
 10
-35.999989
 20
-3.999964
 11
-35.711315
 21
-4.499961
  0
LINE
  8
0
 10
-30.479988
 20
-3.999976
 11
-30.191322
 21
-4.499959
  0
LINE
  8
0
 10
-28.000019
 20
-3.999960
 11
-28.288691
 21
-4.499958
  0
LINE
  8
0
 10
-30.191339
 20
-4.499973
 11
-28.288675
 21
-4.499973
  0
LINE
  8
0
 10
-32.500015
 20
-2.999973
 11
-30.480013
 21
-2.999973
  0
LINE
  8
0
 62
     2
 10
-32.500015
 20
-2.594990
 11
-30.480013
 21
-2.594990
  0
LINE
  8
0
 10
-36.000008
 20
-0.499973
 11
-36.000008
 21
0.500027
  0
LINE
  8
0
 10
-32.500015
 20
-0.499973
 11
-32.500015
 21
0.500027
  0
LINE
  8
0
 10
-30.480013
 20
-0.499973
 11
-30.480013
 21
0.500027
  0
LINE
  8
0
 10
-35.711334
 20
-0.499973
 11
-32.500015
 21
-0.499973
  0
LINE
  8
0
 10
-30.191339
 20
-0.499973
 11
-28.288675
 21
-0.499973
  0
LINE
  8
0
 10
-57.000008
 20
21.000034
 11
-57.000008
 21
-7.999973
  0
LINE
  8
0
 10
-27.285717
 20
21.500025
 11
-27.999998
 21
20.785744
  0
LINE
  8
0
 10
53.285706
 20
21.500029
 11
53.999996
 21
20.785734
  0
LINE
  8
0
 10
-27.999996
 20
-7.785686
 11
-27.285709
 21
-8.499974
  0
LINE
  8
0
 10
53.999969
 20
-7.785658
 11
53.285686
 21
-8.499944
  0
LINE
  8
0
 10
19.171568
 20
15.500027
 11
24.828436
 21
15.500027
  0
LINE
  8
0
 10
19.171568
 20
-2.499958
 11
24.828436
 21
-2.499958
  0
LINE
  8
0
 10
19.171568
 20
21.500019
 11
19.171568
 21
15.500027
  0
LINE
  8
0
 10
24.828436
 20
21.500019
 11
24.828436
 21
15.500027
  0
LINE
  8
0
 10
19.171568
 20
-2.499958
 11
19.171568
 21
-8.499989
  0
LINE
  8
0
 10
24.828436
 20
-2.499958
 11
24.828436
 21
-8.499989
  0
LINE
  8
0
 62
     4
 10
-37.341675
 20
-97.309509
 11
-32.596375
 21
-97.309509
  0
LINE
  8
0
 62
     4
 10
-41.096405
 20
-99.909515
 11
-37.340607
 21
-99.909515
  0
LINE
  8
0
 62
     4
 10
-35.840576
 20
-99.909515
 11
-32.596375
 21
-99.909515
  0
LINE
  8
0
 62
     4
 10
-63.096405
 20
-96.309525
 11
-41.096405
 21
-96.309525
  0
LINE
  8
0
 62
     4
 10
-58.396393
 20
-100.909523
 11
-41.096405
 21
-100.909523
  0
LINE
  8
0
 62
     4
 10
-41.096405
 20
-96.309525
 11
-41.096405
 21
-100.909523
  0
LINE
  8
0
 62
     4
 10
-63.096405
 20
-98.109520
 11
-63.096405
 21
-96.309525
  0
LINE
  8
0
 62
     4
 10
-58.396393
 20
-99.351486
 11
-58.396393
 21
-100.909523
  0
LINE
  8
0
 62
     4
 10
-63.096405
 20
-98.109520
 11
-58.846390
 21
-98.109520
  0
LINE
  8
0
  6
CENTER
 62
     1
 10
-61.096390
 20
-95.502808
 11
-61.096390
 21
-101.741425
  0
LINE
  8
0
 62
     4
 10
-58.846390
 20
-98.109520
 11
-58.846390
 21
-99.351486
  0
LINE
  8
0
 62
     4
 10
-59.096390
 20
-98.109520
 11
-59.096390
 21
-98.909523
  0
LINE
  8
0
 62
     4
 10
-63.096405
 20
-98.109520
 11
-63.096405
 21
-98.909523
  0
LINE
  8
0
 62
     4
 10
-63.096405
 20
-98.909523
 11
-59.096390
 21
-98.909523
  0
LINE
  8
0
 62
     4
 10
-58.896393
 20
-98.109520
 11
-58.896393
 21
-100.109520
  0
LINE
  8
0
 62
     4
 10
-58.896393
 20
-100.109520
 11
-58.396393
 21
-100.109520
  0
LINE
  8
0
 62
     4
 10
-58.846390
 20
-99.351486
 11
-58.396393
 21
-99.351486
  0
LINE
  8
0
 62
     4
 10
-32.596375
 20
-97.309509
 11
-32.596375
 21
-99.909515
  0
LINE
  8
0
  6
CENTER
 62
     1
 10
-34.319275
 20
-98.159439
 11
-22.387207
 21
-98.159439
  0
LINE
  8
0
  6
CENTER
 62
     1
 10
-34.268982
 20
-99.059433
 11
-22.345337
 21
-99.059433
  0
LINE
  8
0
 62
     4
 10
-22.596375
 20
-97.909454
 11
-22.596375
 21
-98.409454
  0
LINE
  8
0
 62
     4
 10
-22.596375
 20
-98.809448
 11
-22.596375
 21
-99.309448
  0
LINE
  8
0
 62
     4
 10
-25.596375
 20
-97.709442
 11
-25.596375
 21
-99.509460
  0
LINE
  8
0
 62
     4
 10
-32.596375
 20
-99.509445
 11
-28.590820
 21
-99.509445
  0
LINE
  8
0
 62
     4
 10
-32.596375
 20
-98.609421
 11
-29.110413
 21
-98.609421
  0
LINE
  8
0
 62
     4
 10
-27.610413
 20
-98.609421
 11
-25.596375
 21
-98.609421
  0
LINE
  8
0
 62
     4
 10
-27.090820
 20
-99.509445
 11
-25.596375
 21
-99.509445
  0
LINE
  8
0
 62
     4
 10
-32.596375
 20
-97.709427
 11
-29.630066
 21
-97.709427
  0
LINE
  8
0
 62
     4
 10
-28.130066
 20
-97.709427
 11
-25.596375
 21
-97.709427
  0
LINE
  8
0
 62
     4
 10
-25.596375
 20
-97.909439
 11
-22.596375
 21
-97.909439
  0
LINE
  8
0
 62
     4
 10
-25.596375
 20
-98.409439
 11
-22.596375
 21
-98.409439
  0
LINE
  8
0
 62
     4
 10
-25.596375
 20
-98.809433
 11
-22.596375
 21
-98.809433
  0
LINE
  8
0
 62
     4
 10
-25.596375
 20
-99.309433
 11
-22.596375
 21
-99.309433
  0
LINE
  8
0
 62
     1
 10
-28.860390
 20
-96.444504
 11
-26.360388
 21
-100.774628
  0
LINE
  8
0
  6
CENTER
 62
     1
 10
-42.410767
 20
-98.609512
 11
-32.596375
 21
-98.609512
  0
LINE
  8
0
 62
     1
 10
-30.360456
 20
-96.444473
 11
-27.860455
 21
-100.774597
  0
LINE
  8
0
 62
     1
 10
-37.841129
 20
-96.444450
 11
-35.341129
 21
-100.774582
  0
LINE
  8
0
 62
     1
 10
-39.341110
 20
-96.444519
 11
-36.841114
 21
-100.774635
  0
LINE
  8
0
 62
     4
 10
-62.121399
 20
-100.309525
 11
-60.071396
 21
-100.309525
  0
LINE
  8
0
 62
     4
 10
-60.070972
 20
-100.309967
 11
-59.845989
 21
-100.084976
  0
LINE
  8
0
 62
     4
 10
-62.121357
 20
-100.309540
 11
-62.346352
 21
-100.084549
  0
LINE
  8
0
 62
     4
 10
-62.346390
 20
-98.908707
 11
-62.346390
 21
-100.084526
  0
LINE
  8
0
 62
     1
 10
-62.121399
 20
-98.908707
 11
-62.121399
 21
-100.309525
  0
LINE
  8
0
 62
     1
 10
-60.071396
 20
-98.908707
 11
-60.071396
 21
-100.309525
  0
LINE
  8
0
 62
     4
 10
-59.846390
 20
-98.908707
 11
-59.846390
 21
-100.084518
  0
LINE
  8
0
 62
     4
 10
-62.346390
 20
-100.084526
 11
-59.846390
 21
-100.084526
  0
LINE
  8
0
 62
     4
 10
-62.346390
 20
-95.809525
 11
-62.346390
 21
-96.309525
  0
LINE
  8
0
 62
     1
 10
-62.121399
 20
-95.809525
 11
-62.121399
 21
-96.309525
  0
LINE
  8
0
 62
     1
 10
-60.071396
 20
-95.809525
 11
-60.071396
 21
-96.309525
  0
LINE
  8
0
 62
     4
 10
-59.846390
 20
-95.809525
 11
-59.846390
 21
-96.309525
  0
LINE
  8
0
 62
     4
 10
-62.346390
 20
-95.809525
 11
-59.846390
 21
-95.809525
  0
LINE
  8
0
 62
     4
 10
-63.096405
 20
-97.309525
 11
-41.096405
 21
-97.309525
  0
LINE
  8
0
 62
     4
 10
-63.096405
 20
-96.759506
 11
-41.096405
 21
-96.759506
  0
LINE
  8
0
 62
     4
 10
-41.096405
 20
-97.309509
 11
-38.841705
 21
-97.309509
  0
LINE
  8
0
 62
     4
 10
-108.889130
 20
-95.809525
 11
-106.389130
 21
-95.809525
  0
LINE
  8
0
  6
CENTER
 62
     1
 10
-107.639130
 20
-94.256554
 11
-107.639130
 21
-102.969315
  0
LINE
  8
0
 62
     4
 10
-109.689117
 20
-97.309525
 11
-109.689117
 21
-98.859520
  0
LINE
  8
0
 62
     4
 10
-109.689186
 20
-97.309502
 11
-109.139183
 21
-96.759491
  0
LINE
  8
0
 62
     4
 10
-109.139130
 20
-96.309525
 11
-109.139130
 21
-96.759521
  0
LINE
  8
0
 62
     4
 10
-109.139130
 20
-96.309525
 11
-106.139130
 21
-96.309525
  0
LINE
  8
0
 62
     4
 10
-106.139130
 20
-96.309525
 11
-106.139130
 21
-96.759521
  0
LINE
  8
0
 62
     4
 10
-105.589119
 20
-97.309471
 11
-106.139114
 21
-96.759460
  0
LINE
  8
0
 62
     4
 10
-105.589127
 20
-97.309525
 11
-105.589127
 21
-98.859520
  0
LINE
  8
0
 62
     4
 10
-109.689117
 20
-98.109520
 11
-105.589127
 21
-98.109520
  0
LINE
  8
0
 62
     4
 10
-109.689133
 20
-98.908707
 11
-105.589127
 21
-98.908707
  0
LINE
  8
0
 62
     4
 10
-108.664139
 20
-100.309525
 11
-106.614136
 21
-100.309525
  0
LINE
  8
0
 62
     4
 10
-106.613701
 20
-100.309998
 11
-106.388702
 21
-100.084984
  0
LINE
  8
0
 62
     4
 10
-108.664116
 20
-100.309563
 11
-108.889114
 21
-100.084564
  0
LINE
  8
0
 62
     4
 10
-108.889130
 20
-98.908707
 11
-108.889130
 21
-100.084526
  0
LINE
  8
0
 62
     1
 10
-108.664139
 20
-98.908707
 11
-108.664139
 21
-100.309525
  0
LINE
  8
0
 62
     1
 10
-106.614136
 20
-98.908707
 11
-106.614136
 21
-100.309525
  0
LINE
  8
0
 62
     4
 10
-106.389130
 20
-98.908707
 11
-106.389130
 21
-100.084518
  0
LINE
  8
0
 62
     4
 10
-108.889130
 20
-100.084526
 11
-106.389130
 21
-100.084526
  0
LINE
  8
0
 62
     4
 10
-108.889130
 20
-95.809525
 11
-108.889130
 21
-96.309525
  0
LINE
  8
0
 62
     1
 10
-108.664139
 20
-95.809525
 11
-108.664139
 21
-96.309525
  0
LINE
  8
0
 62
     1
 10
-106.614136
 20
-95.809525
 11
-106.614136
 21
-96.309525
  0
LINE
  8
0
 62
     4
 10
-106.389130
 20
-95.809525
 11
-106.389130
 21
-96.309525
  0
LINE
  8
0
  6
CENTER
 62
     1
 10
-65.896942
 20
-53.759521
 11
-35.688889
 21
-53.759521
  0
LINE
  8
0
 62
     4
 10
-63.096405
 20
-55.259521
 11
-41.096405
 21
-55.259521
  0
LINE
  8
0
 62
     4
 10
-63.096405
 20
-52.259521
 11
-41.096405
 21
-52.259521
  0
LINE
  8
0
 62
     4
 10
-63.096405
 20
-55.809525
 11
-41.096405
 21
-55.809525
  0
LINE
  8
0
 62
     4
 10
-63.096405
 20
-51.709518
 11
-41.096405
 21
-51.709518
  0
LINE
  8
0
 62
     4
 10
-63.096405
 20
-51.709518
 11
-63.096405
 21
-55.809525
  0
LINE
  8
0
 62
     4
 10
-41.096405
 20
-51.709518
 11
-41.096405
 21
-55.809525
  0
LINE
  8
0
  6
CENTER
 62
     1
 10
-61.096390
 20
-50.923019
 11
-61.096390
 21
-56.512344
  0
LINE
  8
0
 62
     4
 10
-62.141674
 20
-54.472595
 11
-60.408337
 21
-52.739258
  0
LINE
  8
0
 62
     4
 10
-61.788120
 20
-54.826176
 11
-60.154781
 21
-53.192837
  0
LINE
  8
0
 62
     1
 10
-40.007179
 20
-51.594425
 11
-37.507179
 21
-55.924553
  0
LINE
  8
0
 62
     4
 10
-41.096405
 20
-52.459518
 11
-39.507751
 21
-52.459518
  0
LINE
  8
0
 62
     4
 10
-41.096405
 20
-55.059525
 11
-38.006622
 21
-55.059525
  0
LINE
  8
0
 62
     4
 10
112.821899
 20
-85.654793
 11
112.821899
 21
-80.909485
  0
LINE
  8
0
 62
     4
 10
112.821899
 20
-89.409523
 11
112.821899
 21
-87.154778
  0
LINE
  8
0
 62
     4
 10
115.421875
 20
-84.153694
 11
115.421875
 21
-80.909485
  0
LINE
  8
0
 62
     4
 10
94.714539
 20
-96.309525
 11
110.814545
 21
-96.309525
  0
LINE
  8
0
 62
     4
 10
99.414520
 20
-100.909523
 11
116.714539
 21
-100.909523
  0
LINE
  8
0
 62
     4
 10
116.714539
 20
-89.409523
 11
116.714539
 21
-100.909523
  0
LINE
  8
0
 62
     4
 10
94.714539
 20
-98.909523
 11
94.714539
 21
-96.309525
  0
LINE
  8
0
 62
     4
 10
99.414520
 20
-99.291679
 11
99.414520
 21
-100.909523
  0
LINE
  8
0
  6
CENTER
 62
     1
 10
96.714539
 20
-95.579269
 11
96.714539
 21
-101.482193
  0
LINE
  8
0
 62
     4
 10
110.814514
 20
-89.409523
 11
110.814514
 21
-96.309525
  0
LINE
  8
0
 62
     4
 10
94.714539
 20
-98.109528
 11
98.988342
 21
-98.109528
  0
LINE
  8
0
 62
     4
 10
94.714539
 20
-98.909523
 11
98.714539
 21
-98.909523
  0
LINE
  8
0
 62
     4
 10
98.714539
 20
-98.109520
 11
98.714539
 21
-98.909523
  0
LINE
  8
0
 62
     4
 10
110.814545
 20
-89.409523
 11
116.714539
 21
-89.409523
  0
LINE
  8
0
 62
     4
 10
98.914520
 20
-100.109528
 11
99.414520
 21
-100.109528
  0
LINE
  8
0
 62
     4
 10
98.914520
 20
-98.109528
 11
98.914520
 21
-100.109528
  0
LINE
  8
0
 62
     4
 10
98.988342
 20
-99.291679
 11
99.414520
 21
-99.291679
  0
LINE
  8
0
 62
     4
 10
98.988342
 20
-98.109528
 11
98.988342
 21
-99.291679
  0
LINE
  8
0
 62
     4
 10
94.714539
 20
-97.309525
 11
116.714539
 21
-97.309525
  0
LINE
  8
0
 62
     4
 10
94.714539
 20
-96.759521
 11
116.714539
 21
-96.759521
  0
LINE
  8
0
 62
     4
 10
110.814514
 20
-95.159508
 11
116.714539
 21
-95.159508
  0
LINE
  8
0
 62
     4
 10
110.814514
 20
-95.909508
 11
116.714539
 21
-95.909508
  0
LINE
  8
0
 62
     4
 10
110.814514
 20
-90.909523
 11
116.714539
 21
-90.909523
  0
LINE
  8
0
 62
     4
 10
112.821899
 20
-80.909485
 11
115.421875
 21
-80.909485
  0
LINE
  8
0
  6
CENTER
 62
     1
 10
113.671814
 20
-82.632416
 11
113.671814
 21
-70.700333
  0
LINE
  8
0
  6
CENTER
 62
     1
 10
114.571808
 20
-82.582123
 11
114.571808
 21
-70.658478
  0
LINE
  8
0
 62
     4
 10
113.421814
 20
-70.909485
 11
113.921814
 21
-70.909485
  0
LINE
  8
0
 62
     4
 10
114.321808
 20
-70.909485
 11
114.821808
 21
-70.909485
  0
LINE
  8
0
 62
     4
 10
113.221802
 20
-73.909485
 11
115.021820
 21
-73.909485
  0
LINE
  8
0
 62
     4
 10
115.021820
 20
-80.909485
 11
115.021820
 21
-76.903938
  0
LINE
  8
0
 62
     4
 10
114.121796
 20
-80.909485
 11
114.121796
 21
-77.423553
  0
LINE
  8
0
 62
     4
 10
114.121796
 20
-75.923553
 11
114.121796
 21
-73.909485
  0
LINE
  8
0
 62
     4
 10
115.021820
 20
-75.403938
 11
115.021820
 21
-73.909485
  0
LINE
  8
0
 62
     4
 10
113.221802
 20
-80.909485
 11
113.221802
 21
-77.943176
  0
LINE
  8
0
 62
     4
 10
113.221802
 20
-76.443176
 11
113.221802
 21
-73.909485
  0
LINE
  8
0
 62
     4
 10
113.421814
 20
-73.909485
 11
113.421814
 21
-70.909485
  0
LINE
  8
0
 62
     4
 10
113.921814
 20
-73.909485
 11
113.921814
 21
-70.909485
  0
LINE
  8
0
 62
     4
 10
114.321808
 20
-73.909485
 11
114.321808
 21
-70.909485
  0
LINE
  8
0
 62
     4
 10
114.821808
 20
-73.909485
 11
114.821808
 21
-70.909485
  0
LINE
  8
0
 62
     1
 10
111.956955
 20
-77.173668
 11
116.287102
 21
-74.673645
  0
LINE
  8
0
  6
CENTER
 62
     1
 10
114.121887
 20
-90.723892
 11
114.121887
 21
-80.909485
  0
LINE
  8
0
 62
     1
 10
111.956856
 20
-78.673660
 11
116.287010
 21
-76.173645
  0
LINE
  8
0
 62
     1
 10
111.956825
 20
-86.154358
 11
116.286949
 21
-83.654350
  0
LINE
  8
0
 62
     1
 10
111.956871
 20
-87.654343
 11
116.286987
 21
-85.154350
  0
LINE
  8
0
 62
     4
 10
95.689514
 20
-100.309525
 11
97.739532
 21
-100.309525
  0
LINE
  8
0
 62
     4
 10
97.740097
 20
-100.310066
 11
97.965088
 21
-100.085068
  0
LINE
  8
0
 62
     4
 10
95.689598
 20
-100.309395
 11
95.464615
 21
-100.084412
  0
LINE
  8
0
 62
     4
 10
95.464539
 20
-98.909523
 11
95.464539
 21
-100.084526
  0
LINE
  8
0
 62
     1
 10
95.689514
 20
-98.909523
 11
95.689514
 21
-100.309525
  0
LINE
  8
0
 62
     1
 10
97.739532
 20
-98.909523
 11
97.739532
 21
-100.309525
  0
LINE
  8
0
 62
     4
 10
97.964539
 20
-98.909523
 11
97.964539
 21
-100.084518
  0
LINE
  8
0
 62
     4
 10
95.464539
 20
-100.084526
 11
97.964539
 21
-100.084526
  0
LINE
  8
0
 62
     4
 10
95.464539
 20
-95.809525
 11
95.464539
 21
-96.309525
  0
LINE
  8
0
 62
     1
 10
95.689514
 20
-95.809525
 11
95.689514
 21
-96.309525
  0
LINE
  8
0
 62
     1
 10
97.739532
 20
-95.809525
 11
97.739532
 21
-96.309525
  0
LINE
  8
0
 62
     4
 10
97.964539
 20
-95.809525
 11
97.964539
 21
-96.309525
  0
LINE
  8
0
 62
     4
 10
95.464539
 20
-95.809525
 11
97.964539
 21
-95.809525
  0
LINE
  8
0
 62
     4
 10
115.421875
 20
-89.409523
 11
115.421875
 21
-85.653687
  0
LINE
  8
0
 62
     4
 10
52.971802
 20
-85.653702
 11
52.971802
 21
-89.409523
  0
LINE
  8
0
 62
     4
 10
49.421814
 20
-90.909523
 11
53.921814
 21
-90.909523
  0
LINE
  8
0
 62
     4
 10
49.421814
 20
-89.409523
 11
49.421814
 21
-95.159523
  0
LINE
  8
0
 62
     4
 10
50.171764
 20
-95.909492
 11
49.421799
 21
-95.159531
  0
LINE
  8
0
 62
     4
 10
50.171814
 20
-96.759521
 11
50.171814
 21
-95.909523
  0
LINE
  8
0
 62
     4
 10
49.621777
 20
-97.309456
 11
50.171787
 21
-96.759445
  0
LINE
  8
0
 62
     4
 10
49.621796
 20
-97.309525
 11
49.621796
 21
-98.859520
  0
LINE
  8
0
 62
     4
 10
53.721802
 20
-97.309525
 11
53.721802
 21
-98.859520
  0
LINE
  8
0
 62
     4
 10
53.721794
 20
-97.309555
 11
53.171791
 21
-96.759552
  0
LINE
  8
0
 62
     4
 10
53.171814
 20
-96.759521
 11
53.171814
 21
-95.909523
  0
LINE
  8
0
 62
     4
 10
53.171894
 20
-95.909630
 11
53.921890
 21
-95.159630
  0
LINE
  8
0
 62
     4
 10
53.921814
 20
-89.409523
 11
53.921814
 21
-95.159523
  0
LINE
  8
0
  6
CENTER
 62
     1
 10
51.671814
 20
-83.748566
 11
51.671814
 21
-102.376190
  0
LINE
  8
0
 62
     4
 10
50.171814
 20
-96.309525
 11
53.171814
 21
-96.309525
  0
LINE
  8
0
 62
     4
 10
49.621796
 20
-98.109520
 11
53.721802
 21
-98.109520
  0
LINE
  8
0
 62
     4
 10
49.621796
 20
-98.911972
 11
53.721802
 21
-98.911972
  0
LINE
  8
0
 62
     4
 10
49.421814
 20
-89.409523
 11
53.921814
 21
-89.409523
  0
LINE
  8
0
 62
     1
 10
49.506836
 20
-87.654343
 11
53.836964
 21
-85.154350
  0
LINE
  8
0
 62
     4
 10
50.646790
 20
-100.309525
 11
52.696808
 21
-100.309525
  0
LINE
  8
0
 62
     4
 10
52.697315
 20
-100.310051
 11
52.922310
 21
-100.085052
  0
LINE
  8
0
 62
     4
 10
50.646858
 20
-100.309448
 11
50.421852
 21
-100.084442
  0
LINE
  8
0
 62
     4
 10
50.421814
 20
-98.911972
 11
50.421814
 21
-100.084526
  0
LINE
  8
0
 62
     1
 10
50.646790
 20
-98.911972
 11
50.646790
 21
-100.309525
  0
LINE
  8
0
 62
     1
 10
52.696808
 20
-98.911972
 11
52.696808
 21
-100.309525
  0
LINE
  8
0
 62
     4
 10
52.921814
 20
-98.911972
 11
52.921814
 21
-100.084518
  0
LINE
  8
0
 62
     4
 10
50.421814
 20
-100.084526
 11
52.921814
 21
-100.084526
  0
LINE
  8
0
 62
     4
 10
50.421814
 20
-95.809525
 11
50.421814
 21
-96.309525
  0
LINE
  8
0
 62
     1
 10
50.646790
 20
-95.809525
 11
50.646790
 21
-96.309525
  0
LINE
  8
0
 62
     1
 10
52.696808
 20
-95.809525
 11
52.696808
 21
-96.309525
  0
LINE
  8
0
 62
     4
 10
52.921814
 20
-95.809525
 11
52.921814
 21
-96.309525
  0
LINE
  8
0
 62
     4
 10
50.421814
 20
-95.809525
 11
52.921814
 21
-95.809525
  0
LINE
  8
0
 62
     4
 10
50.371826
 20
-87.154800
 11
50.371826
 21
-89.409523
  0
LINE
  8
0
  6
CENTER
 62
     1
 10
93.385345
 20
-48.709511
 11
118.294525
 21
-48.709511
  0
LINE
  8
0
 62
     4
 10
94.714539
 20
-50.209511
 11
111.275146
 21
-50.209511
  0
LINE
  8
0
 62
     4
 10
94.714539
 20
-47.209511
 11
111.275146
 21
-47.209511
  0
LINE
  8
0
 62
     4
 10
94.714539
 20
-50.759506
 11
111.628510
 21
-50.759506
  0
LINE
  8
0
 62
     4
 10
94.714539
 20
-46.659508
 11
111.628510
 21
-46.659508
  0
LINE
  8
0
 62
     4
 10
94.714539
 20
-46.659500
 11
94.714539
 21
-50.759506
  0
LINE
  8
0
  6
CENTER
 62
     1
 10
96.714539
 20
-45.873001
 11
96.714539
 21
-51.462326
  0
LINE
  8
0
 62
     4
 10
111.800507
 20
-46.459511
 11
116.714539
 21
-46.459511
  0
LINE
  8
0
 62
     4
 10
111.800507
 20
-50.959511
 11
116.714539
 21
-50.959511
  0
LINE
  8
0
 62
     4
 10
116.714539
 20
-46.459503
 11
116.714539
 21
-50.959503
  0
LINE
  8
0
 62
     4
 10
96.068794
 20
-49.779846
 11
97.784897
 21
-48.063740
  0
LINE
  8
0
 62
     4
 10
95.644516
 20
-49.355518
 11
97.360611
 21
-47.639423
  0
LINE
  8
0
 10
-281.250000
 20
195.500000
 11
282.099976
 21
195.500000
  0
LINE
  8
0
 10
-281.250000
 20
195.500000
 11
-281.250000
 21
-195.000000
  0
LINE
  8
0
 10
282.099976
 20
195.500000
 11
282.099976
 21
-195.000000
  0
LINE
  8
0
 10
-281.250000
 20
-195.000000
 11
282.099976
 21
-195.000000
  0
LINE
  8
0
 10
162.099976
 20
-175.000000
 11
162.099976
 21
-195.000000
  0
LINE
  8
0
 10
162.099976
 20
-175.000000
 11
282.099976
 21
-175.000000
  0
LINE
  8
0
 10
162.099976
 20
175.500000
 11
282.099976
 21
175.500000
  0
LINE
  8
0
 10
-281.250000
 20
175.500000
 11
-161.250000
 21
175.500000
  0
LINE
  8
0
 10
162.099976
 20
195.500000
 11
162.099976
 21
175.500000
  0
LINE
  8
0
 10
-161.250000
 20
195.500000
 11
-161.250000
 21
175.500000
  0
LINE
  8
0
 10
-271.250000
 20
-133.000000
 11
-271.250000
 21
-185.000000
  0
LINE
  8
0
 10
-271.250000
 20
-185.000000
 11
-6.250000
 21
-185.000000
  0
LINE
  8
0
 10
-271.250000
 20
-155.000015
 11
-6.250000
 21
-155.000015
  0
LINE
  8
0
 10
-271.250000
 20
-133.000000
 11
-6.250000
 21
-133.000000
  0
LINE
  8
0
 10
-226.250000
 20
-133.000000
 11
-226.250000
 21
-185.000000
  0
LINE
  8
0
 10
-204.250000
 20
-133.000000
 11
-204.250000
 21
-185.000000
  0
LINE
  8
0
 10
-182.250000
 20
-133.000000
 11
-182.250000
 21
-185.000000
  0
LINE
  8
0
 10
-160.250000
 20
-133.000000
 11
-160.250000
 21
-185.000000
  0
LINE
  8
0
 10
-138.250000
 20
-133.000000
 11
-138.250000
 21
-185.000000
  0
LINE
  8
0
 10
-116.250000
 20
-133.000000
 11
-116.250000
 21
-185.000000
  0
LINE
  8
0
 10
-94.250000
 20
-133.000000
 11
-94.250000
 21
-185.000000
  0
LINE
  8
0
 10
-6.250000
 20
-133.000000
 11
-6.250000
 21
-185.000000
  0
LINE
  8
0
 10
-271.250000
 20
-175.000015
 11
-6.250000
 21
-175.000015
  0
LINE
  8
0
 10
-271.250031
 20
-165.000000
 11
-6.250000
 21
-165.000000
  0
LINE
  8
0
 10
-271.250000
 20
-141.000000
 11
-234.517441
 21
-141.000000
  0
LINE
  8
0
 10
-234.517502
 20
-141.000046
 11
-226.250092
 21
-155.000061
  0
LINE
  8
0
 10
-72.250000
 20
-133.000000
 11
-72.250000
 21
-185.000000
  0
LINE
  8
0
 10
-50.250000
 20
-133.000000
 11
-50.250000
 21
-185.000000
  0
LINE
  8
0
 10
-28.250000
 20
-133.000000
 11
-28.250000
 21
-185.000000
  0
ARC
  8
0
 10
-28.026245
 20
86.535896
 40
2.453748
 50
151.927612
 51
208.072388
  0
ARC
  8
0
 10
22.000023
 20
56.999977
 40
4.500000
 50
308.942535
 51
231.057480
  0
ARC
  8
0
 10
-21.098011
 20
89.999985
 40
9.381963
 50
165.749985
 51
194.249908
  0
CIRCLE
  8
0
 10
37.000023
 20
89.999985
 40
4.500000
  0
CIRCLE
  8
0
 10
-12.999977
 20
89.999985
 40
4.500000
  0
ARC
  8
0
 10
22.000023
 20
123.000000
 40
4.499997
 50
128.943024
 51
51.056984
  0
CIRCLE
  8
0
 62
     2
 10
-51.999985
 20
118.000000
 40
2.500000
  0
CIRCLE
  8
0
 62
     2
 10
-51.999985
 20
61.999977
 40
2.500000
  0
CIRCLE
  8
0
 10
-12.999977
 20
89.999985
 40
2.250000
  0
CIRCLE
  8
0
 10
22.000023
 20
56.999977
 40
2.250000
  0
CIRCLE
  8
0
 10
37.000023
 20
89.999985
 40
2.250000
  0
CIRCLE
  8
0
 10
22.000023
 20
123.000000
 40
2.250000
  0
ARC
  8
0
 10
-30.453720
 20
86.535896
 40
2.453746
 50
331.927582
 51
28.072393
  0
ARC
  8
0
 10
-30.453720
 20
93.464081
 40
2.453746
 50
331.927582
 51
28.072393
  0
ARC
  8
0
 10
-37.381950
 20
89.999985
 40
9.381962
 50
345.750000
 51
14.249960
  0
ARC
  8
0
 10
-33.546242
 20
93.464081
 40
2.453748
 50
151.927612
 51
208.072388
  0
ARC
  8
0
 10
-26.618031
 20
89.999985
 40
9.381963
 50
165.749985
 51
194.249908
  0
ARC
  8
0
 10
-33.546242
 20
86.535896
 40
2.453748
 50
151.927612
 51
208.072388
  0
ARC
  8
0
 10
-28.026245
 20
93.464081
 40
2.453748
 50
151.927612
 51
208.072388
  0
CIRCLE
  8
0
 10
-51.999985
 20
118.000000
 40
2.100000
  0
CIRCLE
  8
0
 10
-51.999985
 20
61.999977
 40
2.100000
  0
CIRCLE
  8
0
 10
-143.000076
 20
107.000008
 40
4.500000
  0
CIRCLE
  8
0
 10
-143.000076
 20
73.000031
 40
5.000000
  0
CIRCLE
  8
0
 10
-143.000076
 20
73.000031
 40
4.500000
  0
CIRCLE
  8
0
 10
-143.000076
 20
107.000008
 40
5.500000
  0
CIRCLE
  8
0
 10
-143.000076
 20
73.000031
 40
5.500000
  0
CIRCLE
  8
0
 62
     2
 10
-143.000076
 20
123.000031
 40
2.000000
  0
CIRCLE
  8
0
 62
     2
 10
-143.000076
 20
57.000008
 40
2.000000
  0
CIRCLE
  8
0
 10
-143.000076
 20
107.000008
 40
5.000000
  0
CIRCLE
  8
0
 10
-143.000076
 20
123.000031
 40
1.650000
  0
CIRCLE
  8
0
 10
-143.000076
 20
57.000008
 40
1.650000
  0
ARC
  8
0
 10
146.383636
 20
118.200005
 40
2.099998
 50
90.000000
 51
270.000000
  0
ARC
  8
0
 10
121.600067
 20
118.200005
 40
2.099998
 50
270.000000
 51
90.000000
  0
ARC
  8
0
 10
134.000092
 20
123.883537
 40
2.100006
 50
180.000000
 51
0.000000
  0
CIRCLE
  8
0
 10
134.000092
 20
107.000008
 40
14.000001
  0
CIRCLE
  8
0
 10
134.000092
 20
73.000031
 40
14.000001
  0
ARC
  8
0
 10
121.600067
 20
95.700005
 40
2.099998
 50
270.000000
 51
90.000000
  0
ARC
  8
0
 10
146.383636
 20
95.700005
 40
2.099998
 50
90.000000
 51
270.000000
  0
ARC
  8
0
 10
-28.927454
 20
1.500011
 40
7.072561
 50
188.128342
 51
196.426315
  0
ARC
  8
0
 10
-35.072556
 20
1.500011
 40
7.072559
 50
343.573608
 51
351.871674
  0
CIRCLE
  8
0
 62
     2
 10
11.999998
 20
6.500011
 40
2.500000
  0
CIRCLE
  8
0
 62
     2
 10
42.000000
 20
6.500011
 40
2.500000
  0
ARC
  8
0
 10
-35.072556
 20
-2.499958
 40
7.072560
 50
343.573639
 51
16.426317
  0
ARC
  8
0
 10
-28.927454
 20
-2.499958
 40
7.072558
 50
163.573624
 51
196.426300
  0
ARC
  8
0
 10
-23.407454
 20
-2.499958
 40
7.072560
 50
163.573639
 51
196.426300
  0
ARC
  8
0
 10
-23.407454
 20
1.500011
 40
7.072559
 50
188.128342
 51
196.426315
  0
CIRCLE
  8
0
 10
42.000000
 20
6.500011
 40
2.100000
  0
CIRCLE
  8
0
 10
11.999998
 20
6.500011
 40
2.100000
  0
ARC
  8
0
 62
     4
 10
-107.639130
 20
-98.859520
 40
2.050003
 50
180.000000
 51
270.000000
  0
ARC
  8
0
 62
     4
 10
-107.639130
 20
-98.859520
 40
2.050003
 50
270.000000
 51
0.000000
  0
CIRCLE
  8
0
 62
     4
 10
-61.096390
 20
-53.759521
 40
1.250000
  0
CIRCLE
  8
0
 62
     4
 10
-61.096390
 20
-53.759521
 40
1.400000
  0
ARC
  8
0
 62
     4
 10
51.671814
 20
-98.859520
 40
2.049999
 50
180.000000
 51
270.000000
  0
ARC
  8
0
 62
     4
 10
51.671814
 20
-98.859520
 40
2.050003
 50
271.259888
 51
0.000000
  0
CIRCLE
  8
0
 62
     4
 10
114.443695
 20
-49.050514
 40
0.250000
  0
CIRCLE
  8
0
 62
     4
 10
113.831818
 20
-48.391357
 40
0.450000
  0
CIRCLE
  8
0
 62
     4
 10
113.831818
 20
-48.391357
 40
0.250000
  0
ARC
  8
0
 62
     4
 10
114.214539
 20
-48.709511
 40
3.300002
 50
137.014145
 51
222.985855
  0
CIRCLE
  8
0
 62
     4
 10
96.714539
 20
-48.709511
 40
1.250000
  0
CIRCLE
  8
0
 62
     4
 10
96.714539
 20
-48.709511
 40
1.400000
  0
CIRCLE
  8
0
 62
     4
 10
114.121887
 20
-48.709511
 40
1.300000
  0
CIRCLE
  8
0
 62
     4
 10
114.443695
 20
-49.050514
 40
0.450000
  0
TEXT
  8
0
 10
196.250259
 20
180.830002
 40
6.300000
  1
Ver. 1.0
 50
0.000000
 41
1.052632
 51
0.000000
  7
STANDARD
  0
TEXT
  8
0
 10
167.564667
 20
-192.100006
 40
9.000000
  1
KOGANEI CORP.
 50
0.000000
 41
1.052632
 51
0.000000
  7
STANDARD
  0
TEXT
  8
0
 10
-275.449738
 20
180.830002
 40
6.300000
  1
TWIN ROD CYLINDER
 50
0.000000
 41
1.052632
 51
0.000000
  7
STANDARD
  0
TEXT
  8
0
 10
-258.127045
 20
-154.550003
 40
4.500000
  1
PLACE
 50
0.000000
 41
1.052632
 51
0.000000
  7
STANDARD
  0
TEXT
  8
0
 10
-220.142654
 20
-147.050003
 40
4.500000
  1
10
 50
0.000000
 41
1.052632
 51
0.000000
  7
STANDARD
  0
TEXT
  8
0
 10
-166.142654
 20
-131.050003
 40
4.500000
  1
STRETCH LIST
 50
0.000000
 41
1.052632
 51
0.000000
  7
STANDARD
  0
TEXT
  8
0
 10
-270.049713
 20
155.830002
 40
6.300000
  1
MODEL:TBDAM25*ST(10)
 50
0.000000
 41
1.052632
 51
0.000000
  7
STANDARD
  0
TEXT
  8
0
 10
-26.642656
 20
-132.050003
 40
4.500000
  1
(mm)
 50
0.000000
 41
1.052632
 51
0.000000
  7
STANDARD
  0
TEXT
  8
0
 10
-267.127045
 20
-140.050003
 40
4.500000
  1
STROKE
 50
0.000000
 41
1.052632
 51
0.000000
  7
STANDARD
  0
TEXT
  8
0
 10
-267.127045
 20
-148.550003
 40
4.500000
  1
STRETCH
 50
0.000000
 41
1.052632
 51
0.000000
  7
STANDARD
  0
TEXT
  8
0
 10
-251.585724
 20
-163.320007
 40
4.800000
  1
A
 50
0.000000
 41
1.052632
 51
0.000000
  7
STANDARD
  0
TEXT
  8
0
 10
-251.585724
 20
-173.320007
 40
4.800000
  1
B
 50
0.000000
 41
1.052632
 51
0.000000
  7
STANDARD
  0
TEXT
  8
0
 10
-251.585724
 20
-183.320007
 40
4.800000
  1
C
 50
0.000000
 41
1.052632
 51
0.000000
  7
STANDARD
  0
TEXT
  8
0
 10
-198.142853
 20
-147.050003
 40
4.500000
  1
20
 50
0.000000
 41
1.052632
 51
0.000000
  7
STANDARD
  0
TEXT
  8
0
 10
-176.142853
 20
-147.050003
 40
4.500000
  1
30
 50
0.000000
 41
1.052632
 51
0.000000
  7
STANDARD
  0
TEXT
  8
0
 10
-154.142853
 20
-147.050003
 40
4.500000
  1
40
 50
0.000000
 41
1.052632
 51
0.000000
  7
STANDARD
  0
TEXT
  8
0
 10
-132.142853
 20
-147.050003
 40
4.500000
  1
50
 50
0.000000
 41
1.052632
 51
0.000000
  7
STANDARD
  0
TEXT
  8
0
 10
-110.142853
 20
-147.050003
 40
4.500000
  1
60
 50
0.000000
 41
1.052632
 51
0.000000
  7
STANDARD
  0
TEXT
  8
0
 10
-24.392857
 20
-147.050003
 40
4.500000
  1
100
 50
0.000000
 41
1.052632
 51
0.000000
  7
STANDARD
  0
TEXT
  8
0
 10
-22.142857
 20
-183.049973
 40
4.500000
  1
90
 50
0.000000
 41
1.052632
 51
0.000000
  7
STANDARD
  0
TEXT
  8
0
 10
-217.892853
 20
-163.050003
 40
4.500000
  1
0
 50
0.000000
 41
1.052632
 51
0.000000
  7
STANDARD
  0
TEXT
  8
0
 10
-217.892853
 20
-173.049988
 40
4.500000
  1
0
 50
0.000000
 41
1.052632
 51
0.000000
  7
STANDARD
  0
TEXT
  8
0
 10
-217.892853
 20
-183.049973
 40
4.500000
  1
0
 50
0.000000
 41
1.052632
 51
0.000000
  7
STANDARD
  0
TEXT
  8
0
 10
-198.142853
 20
-183.049973
 40
4.500000
  1
10
 50
0.000000
 41
1.052632
 51
0.000000
  7
STANDARD
  0
TEXT
  8
0
 10
-176.142853
 20
-183.049973
 40
4.500000
  1
20
 50
0.000000
 41
1.052632
 51
0.000000
  7
STANDARD
  0
TEXT
  8
0
 10
-154.142853
 20
-183.049973
 40
4.500000
  1
30
 50
0.000000
 41
1.052632
 51
0.000000
  7
STANDARD
  0
TEXT
  8
0
 10
-132.142853
 20
-183.049973
 40
4.500000
  1
40
 50
0.000000
 41
1.052632
 51
0.000000
  7
STANDARD
  0
TEXT
  8
0
 10
-110.142853
 20
-183.049973
 40
4.500000
  1
50
 50
0.000000
 41
1.052632
 51
0.000000
  7
STANDARD
  0
TEXT
  8
0
 62
     3
 10
-51.862728
 20
156.753006
 40
4.500000
  1
STRETCH LINE C
 50
0.000000
 41
1.052632
 51
0.000000
  7
STANDARD
  0
TEXT
  8
0
 62
     3
 10
-9.862728
 20
146.753006
 40
4.500000
  1
STRETCH LINE A
 50
0.000000
 41
1.052632
 51
0.000000
  7
STANDARD
  0
TEXT
  8
0
 62
     3
 10
17.637272
 20
136.753006
 40
4.500000
  1
STRETCH LINE B
 50
0.000000
 41
1.052632
 51
0.000000
  7
STANDARD
  0
TEXT
  8
0
 10
-88.142853
 20
-183.049973
 40
4.500000
  1
60
 50
0.000000
 41
1.052632
 51
0.000000
  7
STANDARD
  0
TEXT
  8
0
 10
-88.142853
 20
-147.050003
 40
4.500000
  1
70
 50
0.000000
 41
1.052632
 51
0.000000
  7
STANDARD
  0
TEXT
  8
0
 10
-66.142853
 20
-183.049973
 40
4.500000
  1
70
 50
0.000000
 41
1.052632
 51
0.000000
  7
STANDARD
  0
TEXT
  8
0
 10
-66.142853
 20
-147.050003
 40
4.500000
  1
80
 50
0.000000
 41
1.052632
 51
0.000000
  7
STANDARD
  0
TEXT
  8
0
 10
-44.142857
 20
-183.049973
 40
4.500000
  1
80
 50
0.000000
 41
1.052632
 51
0.000000
  7
STANDARD
  0
TEXT
  8
0
 10
-44.142857
 20
-147.050003
 40
4.500000
  1
90
 50
0.000000
 41
1.052632
 51
0.000000
  7
STANDARD
  0
TEXT
  8
0
 10
-195.892853
 20
-163.050003
 40
4.500000
  1
0
 50
0.000000
 41
1.052632
 51
0.000000
  7
STANDARD
  0
TEXT
  8
0
 10
-198.142853
 20
-173.049988
 40
4.500000
  1
10
 50
0.000000
 41
1.052632
 51
0.000000
  7
STANDARD
  0
TEXT
  8
0
 10
-173.892853
 20
-163.050003
 40
4.500000
  1
0
 50
0.000000
 41
1.052632
 51
0.000000
  7
STANDARD
  0
TEXT
  8
0
 10
-176.142853
 20
-173.049988
 40
4.500000
  1
20
 50
0.000000
 41
1.052632
 51
0.000000
  7
STANDARD
  0
TEXT
  8
0
 10
-151.892853
 20
-163.050003
 40
4.500000
  1
5
 50
0.000000
 41
1.052632
 51
0.000000
  7
STANDARD
  0
TEXT
  8
0
 10
-154.142853
 20
-173.049988
 40
4.500000
  1
25
 50
0.000000
 41
1.052632
 51
0.000000
  7
STANDARD
  0
TEXT
  8
0
 10
-132.142853
 20
-163.050003
 40
4.500000
  1
10
 50
0.000000
 41
1.052632
 51
0.000000
  7
STANDARD
  0
TEXT
  8
0
 10
-132.142853
 20
-173.049988
 40
4.500000
  1
30
 50
0.000000
 41
1.052632
 51
0.000000
  7
STANDARD
  0
TEXT
  8
0
 10
-110.142853
 20
-163.050003
 40
4.500000
  1
15
 50
0.000000
 41
1.052632
 51
0.000000
  7
STANDARD
  0
TEXT
  8
0
 10
-88.142853
 20
-163.050003
 40
4.500000
  1
20
 50
0.000000
 41
1.052632
 51
0.000000
  7
STANDARD
  0
TEXT
  8
0
 10
-66.142853
 20
-163.050003
 40
4.500000
  1
25
 50
0.000000
 41
1.052632
 51
0.000000
  7
STANDARD
  0
TEXT
  8
0
 10
-44.142857
 20
-163.050003
 40
4.500000
  1
30
 50
0.000000
 41
1.052632
 51
0.000000
  7
STANDARD
  0
TEXT
  8
0
 10
-22.142857
 20
-163.050003
 40
4.500000
  1
35
 50
0.000000
 41
1.052632
 51
0.000000
  7
STANDARD
  0
TEXT
  8
0
 10
-110.142853
 20
-173.049988
 40
4.500000
  1
35
 50
0.000000
 41
1.052632
 51
0.000000
  7
STANDARD
  0
TEXT
  8
0
 10
-88.142853
 20
-173.049988
 40
4.500000
  1
40
 50
0.000000
 41
1.052632
 51
0.000000
  7
STANDARD
  0
TEXT
  8
0
 10
-66.142853
 20
-173.049988
 40
4.500000
  1
45
 50
0.000000
 41
1.052632
 51
0.000000
  7
STANDARD
  0
TEXT
  8
0
 10
-44.142857
 20
-173.049988
 40
4.500000
  1
50
 50
0.000000
 41
1.052632
 51
0.000000
  7
STANDARD
  0
TEXT
  8
0
 10
-22.142857
 20
-173.049988
 40
4.500000
  1
55
 50
0.000000
 41
1.052632
 51
0.000000
  7
STANDARD
  0
ENDSEC
  0
EOF
