  0
SECTION
  2
HEADER
  0
ENDSEC
  0
SECTION
  2
TABLES
  0
TABLE
  2
LTYPE
 70
     4
  0
LTYPE
  2
CONTINUOUS
 70
    64
  3
Solid line
 72
    65
 73
     0
 40
0.000000
  0
LTYPE
  2
DASHED
 70
    64
  3
__ __ __ __ __ __ __ __ __ __ __ __ __ __ __
 72
    65
 73
     2
 40
3.500000
 49
2.000000
 49
-1.500000
  0
LTYPE
  2
CENTER
 70
    64
  3
____ _ ____ _ ____ _ ____ _ ____ _ ____ _ ____
 72
    65
 73
     4
 40
17.500000
 49
13.000000
 49
-1.500000
 49
1.500000
 49
-1.500000
  0
LTYPE
  2
PHANTOM
 70
    64
  3
_____ _ _ _____ _ _ _____ _ _ _____ _ _ ____  
 72
    65
 73
     6
 40
15.500000
 49
8.000000
 49
-1.500000
 49
1.500000
 49
-1.500000
 49
1.500000
 49
-1.500000
  0
LTYPE
  2
DASHED1
 70
    64
  3
__ __ __ __ __ __ __ __ __ __ __ __ __ __ __
 72
    65
 73
     2
 40
1.500000
 49
1.000000
 49
-0.500000
  0
LTYPE
  2
DASHED2
 70
    64
  3
__ __ __ __ __ __ __ __ __ __ __ __ __ __ __
 72
    65
 73
     2
 40
3.500000
 49
2.500000
 49
-1.000000
  0
LTYPE
  2
DASHED3
 70
    64
  3
__ __ __ __ __ __ __ __ __ __ __ __ __ __ __
 72
    65
 73
     2
 40
6.000000
 49
4.000000
 49
-2.000000
  0
LTYPE
  2
DASHED4
 70
    64
  3
__ __ __ __ __ __ __ __ __ __ __ __ __ __ __
 72
    65
 73
     2
 40
12.000000
 49
10.000000
 49
-2.000000
  0
LTYPE
  2
DASHED5
 70
    64
  3
__ __ __ __ __ __ __ __ __ __ __ __ __ __ __
 72
    65
 73
     2
 40
17.000000
 49
15.000000
 49
-2.000000
  0
LTYPE
  2
DASHED6
 70
    64
  3
__ __ __ __ __ __ __ __ __ __ __ __ __ __ __
 72
    65
 73
     2
 40
29.000000
 49
27.000000
 49
-2.000000
  0
LTYPE
  2
PHANTOM1
 70
    64
  3
_____ _ _ _____ _ _ _____ _ _ _____ _ _ ____  
 72
    65
 73
     6
 40
31.000000
 49
25.000000
 49
-1.500000
 49
1.000000
 49
-1.000000
 49
1.000000
 49
-1.500000
  0
LTYPE
  2
PHANTOM2
 70
    64
  3
_____ _ _ _____ _ _ _____ _ _ _____ _ _ ____  
 72
    65
 73
     6
 40
36.000000
 49
27.000000
 49
-1.500000
 49
2.500000
 49
-1.000000
 49
2.500000
 49
-1.500000
  0
LTYPE
  2
PHANTOM3
 70
    64
  3
_____ _ _ _____ _ _ _____ _ _ _____ _ _ ____  
 72
    65
 73
     6
 40
78.000000
 49
64.000000
 49
-2.000000
 49
4.000000
 49
-2.000000
 49
4.000000
 49
-2.000000
  0
LTYPE
  2
CENTER1
 70
    64
  3
____ _ ____ _ ____ _ ____ _ ____ _ ____ _ ____
 72
    65
 73
     4
 40
19.000000
 49
14.000000
 49
-1.000000
 49
3.000000
 49
-1.000000
  0
LTYPE
  2
CENTER2
 70
    64
  3
____ _ ____ _ ____ _ ____ _ ____ _ ____ _ ____
 72
    65
 73
     4
 40
28.500000
 49
25.000000
 49
-1.000000
 49
1.500000
 49
-1.000000
  0
LTYPE
  2
CENTER3
 70
    64
  3
____ _ ____ _ ____ _ ____ _ ____ _ ____ _ ____
 72
    65
 73
     4
 40
31.500000
 49
27.000000
 49
-1.000000
 49
2.500000
 49
-1.000000
  0
LTYPE
  2
CENTER4
 70
    64
  3
____ _ ____ _ ____ _ ____ _ ____ _ ____ _ ____
 72
    65
 73
     4
 40
50.000000
 49
45.000000
 49
-1.000000
 49
3.000000
 49
-1.000000
  0
LTYPE
  2
CENTER5
 70
    64
  3
____ _ ____ _ ____ _ ____ _ ____ _ ____ _ ____
 72
    65
 73
     4
 40
100.000000
 49
92.000000
 49
-2.000000
 49
4.000000
 49
-2.000000
  0
LTYPE
  2
SBK1
 70
    64
  3
______ _ _ _ ______ _ _ _ ______ _ _ _ _____  
 72
    65
 73
     8
 40
60.500000
 49
45.000000
 49
-2.000000
 49
2.500000
 49
-2.000000
 49
2.500000
 49
-2.000000
 49
2.500000
 49
-2.000000
  0
LTYPE
  2
SBK2
 70
    64
  3
______ _ _ _ ______ _ _ _ ______ _ _ _ _____  
 72
    65
 73
     8
 40
84.000000
 49
64.000000
 49
-2.000000
 49
4.000000
 49
-2.000000
 49
4.000000
 49
-2.000000
 49
4.000000
 49
-2.000000
  0
LTYPE
  2
STCH
 70
    64
  3
__ __ __ __ __ __ __ __ __ __ __ __ __ __ __
 72
    65
 73
     2
 40
3.000000
 49
1.000000
 49
-2.000000
  0
LTYPE
  2
MTCH
 70
    64
  3
_____ _ _ _____ _ _ _____ _ _ _____ _ _ ____  
 72
    65
 73
     6
 40
80.000000
 49
66.000000
 49
-2.000000
 49
4.000000
 49
-2.000000
 49
4.000000
 49
-2.000000
  0
ENDTAB
  0
TABLE
  2
LAYER
 70
     1
  0
LAYER
  2
0
 70
     0
 62
     7
  6
CONTINUOUS
  0
ENDTAB
  0
TABLE
  2
STYLE
 70
     1
  0
STYLE
  2
STANDARD
 70
     0
 40
0.000000
 41
1.000000
 50
0.000000
 71
     0
 42
0.200000
  3
txt
  4
BIGFONT
  0
ENDTAB
  0
TABLE
  2
VIEW
 70
     0
  0
ENDTAB
  0
ENDSEC
  0
SECTION
  2
BLOCKS
  0
ENDSEC
  0
SECTION
  2
ENTITIES
  0
LINE
  8
0
  6
PHANTOM
 62
     3
 10
-40.500000
 20
157.000000
 11
-40.500000
 21
31.750000
  0
LINE
  8
0
  6
PHANTOM
 62
     3
 10
40.499996
 20
137.000000
 11
40.499996
 21
31.750000
  0
LINE
  8
0
  6
PHANTOM
 62
     3
 10
22.500000
 20
147.000000
 11
22.500000
 21
31.750000
  0
LINE
  8
0
 10
-27.999973
 20
125.785706
 11
-27.999973
 21
54.214264
  0
LINE
  8
0
 10
-45.999989
 20
93.999985
 11
-45.999989
 21
86.000000
  0
LINE
  8
0
 10
-46.999989
 20
126.000000
 11
-46.999989
 21
53.999989
  0
LINE
  8
0
 10
-46.999973
 20
101.000000
 11
-27.999973
 21
101.000000
  0
LINE
  8
0
 10
-46.999973
 20
113.000000
 11
-27.999973
 21
113.000000
  0
LINE
  8
0
 10
-46.999973
 20
66.999977
 11
-27.999973
 21
66.999977
  0
LINE
  8
0
 10
-46.999973
 20
78.999985
 11
-27.999973
 21
78.999985
  0
LINE
  8
0
 10
-27.285686
 20
126.499969
 11
63.285732
 21
126.499969
  0
LINE
  8
0
  6
CENTER
 62
     2
 10
-59.399975
 20
106.999969
 11
-23.166641
 21
106.999969
  0
LINE
  8
0
  6
CENTER
 62
     2
 10
-59.799969
 20
89.999985
 11
69.916794
 21
89.999985
  0
LINE
  8
0
 10
-27.285686
 20
53.499981
 11
63.285732
 21
53.499981
  0
LINE
  8
0
 10
-56.999973
 20
125.999985
 11
-46.999973
 21
125.999985
  0
LINE
  8
0
 10
-56.999973
 20
53.999989
 11
-46.999973
 21
53.999989
  0
LINE
  8
0
 10
-46.999973
 20
86.000000
 11
-45.999973
 21
86.000000
  0
LINE
  8
0
 10
-46.999973
 20
93.999969
 11
-45.999973
 21
93.999969
  0
LINE
  8
0
  6
DASHED
 10
-46.999973
 20
110.160675
 11
-44.999973
 21
110.160675
  0
LINE
  8
0
 10
-46.999973
 20
103.839264
 11
-44.999973
 21
103.839264
  0
LINE
  8
0
 10
-44.999958
 20
110.160706
 11
-44.999958
 21
103.839294
  0
LINE
  8
0
 10
-44.999973
 20
110.160675
 11
-46.999973
 21
110.160675
  0
LINE
  8
0
 10
-44.999958
 20
76.160675
 11
-44.999958
 21
69.839287
  0
LINE
  8
0
 10
-44.999973
 20
69.839287
 11
-46.999973
 21
69.839287
  0
LINE
  8
0
 10
-44.999973
 20
76.160675
 11
-46.999973
 21
76.160675
  0
LINE
  8
0
  6
CENTER
 62
     2
 10
-55.499973
 20
61.999973
 11
-47.833309
 21
61.999973
  0
LINE
  8
0
  6
CENTER
 62
     2
 10
-55.833309
 20
118.000000
 11
-48.499973
 21
118.000000
  0
LINE
  8
0
  6
CENTER
 62
     2
 10
-51.999989
 20
122.166672
 11
-51.999989
 21
113.500000
  0
LINE
  8
0
  6
CENTER
 62
     2
 10
-51.999989
 20
66.833328
 11
-51.999989
 21
57.166645
  0
LINE
  8
0
  6
CENTER
 62
     2
 10
32.000027
 20
127.748993
 11
32.000027
 21
116.499985
  0
LINE
  8
0
  6
CENTER
 62
     2
 10
-12.999973
 20
95.499992
 11
-12.999973
 21
83.833321
  0
LINE
  8
0
  6
CENTER
 62
     2
 10
47.000027
 20
96.499985
 11
47.000027
 21
83.833321
  0
LINE
  8
0
  6
CENTER
 62
     2
 10
26.013027
 20
56.999973
 11
38.640560
 21
56.999973
  0
LINE
  8
0
  6
CENTER
 62
     2
 10
26.500019
 20
123.000000
 11
37.535030
 21
123.000000
  0
LINE
  8
0
  6
CENTER
 62
     2
 10
32.000027
 20
63.234737
 11
32.000027
 21
50.833309
  0
LINE
  8
0
 10
-35.711308
 20
94.618774
 11
-32.499985
 21
94.618774
  0
LINE
  8
0
 10
-35.711308
 20
92.309380
 11
-32.499985
 21
92.309380
  0
LINE
  8
0
 10
-35.711308
 20
87.690590
 11
-32.499985
 21
87.690590
  0
LINE
  8
0
 10
-35.711308
 20
85.381195
 11
-32.499985
 21
85.381195
  0
LINE
  8
0
 10
-32.499989
 20
94.618797
 11
-32.499989
 21
85.381195
  0
LINE
  8
0
 10
-30.479984
 20
94.118790
 11
-30.479984
 21
85.881203
  0
LINE
  8
0
 10
-35.999947
 20
94.118759
 11
-35.711262
 21
94.618774
  0
LINE
  8
0
 10
-35.999981
 20
85.881187
 11
-35.711292
 21
85.381165
  0
LINE
  8
0
 10
-30.191311
 20
94.618774
 11
-28.288670
 21
94.618774
  0
LINE
  8
0
 10
-30.191311
 20
85.381195
 11
-28.288647
 21
85.381195
  0
LINE
  8
0
 10
-28.000000
 20
94.118767
 11
-28.288673
 21
94.618767
  0
LINE
  8
0
 10
-27.999960
 20
85.881165
 11
-28.288633
 21
85.381172
  0
LINE
  8
0
 10
-30.479946
 20
94.118782
 11
-30.191267
 21
94.618797
  0
LINE
  8
0
 10
-30.480011
 20
85.881157
 11
-30.191339
 21
85.381172
  0
LINE
  8
0
 10
-30.191311
 20
87.690590
 11
-28.288647
 21
87.690590
  0
LINE
  8
0
 10
-30.191311
 20
92.309380
 11
-28.288647
 21
92.309380
  0
LINE
  8
0
 10
-32.499985
 20
92.499985
 11
-30.479984
 21
92.499985
  0
LINE
  8
0
 10
-32.499985
 20
87.499985
 11
-30.479984
 21
87.499985
  0
LINE
  8
0
 62
     2
 10
-32.499985
 20
87.904999
 11
-30.479984
 21
87.904999
  0
LINE
  8
0
 62
     2
 10
-32.499985
 20
92.094971
 11
-30.479984
 21
92.094971
  0
LINE
  8
0
  6
CENTER
 62
     2
 10
-58.999973
 20
72.999992
 11
-24.166637
 21
72.999992
  0
LINE
  8
0
 10
-56.999989
 20
126.000000
 11
-56.999989
 21
53.999989
  0
LINE
  8
0
 10
-35.999989
 20
93.999985
 11
-35.999989
 21
86.000000
  0
LINE
  8
0
 10
-27.285688
 20
126.499969
 11
-27.999975
 21
125.785683
  0
LINE
  8
0
 10
63.285732
 20
126.499962
 11
64.000015
 21
125.785683
  0
LINE
  8
0
 10
-27.999992
 20
54.214272
 11
-27.285707
 21
53.499989
  0
LINE
  8
0
 10
64.000000
 20
54.214317
 11
63.285709
 21
53.500027
  0
LINE
  8
0
 10
-11.145245
 20
94.099976
 11
45.145306
 21
94.099976
  0
LINE
  8
0
 10
-27.999973
 20
119.799988
 11
28.836185
 21
119.799988
  0
LINE
  8
0
 10
-27.999973
 20
116.599976
 11
64.000015
 21
116.599976
  0
LINE
  8
0
 10
-27.999973
 20
94.099976
 11
-14.854700
 21
94.099976
  0
LINE
  8
0
 10
-27.999973
 20
97.299988
 11
64.000015
 21
97.299988
  0
LINE
  8
0
 10
35.163876
 20
119.799988
 11
64.000015
 21
119.799988
  0
LINE
  8
0
 10
48.854763
 20
94.099976
 11
64.000015
 21
94.099976
  0
LINE
  8
0
 10
4.500027
 20
49.499996
 11
17.500015
 21
49.499996
  0
LINE
  8
0
 10
4.500027
 20
49.499996
 11
4.500027
 21
53.500000
  0
LINE
  8
0
 10
17.500011
 20
49.499996
 11
17.500011
 21
50.549866
  0
LINE
  8
0
 10
12.550522
 20
51.999996
 11
17.775261
 21
51.999996
  0
LINE
  8
0
 10
12.550518
 20
49.499996
 11
12.550518
 21
51.999996
  0
LINE
  8
0
 10
17.775265
 20
51.211735
 11
17.775265
 21
52.000023
  0
LINE
  8
0
 10
17.500011
 20
51.999996
 11
17.500011
 21
53.500000
  0
LINE
  8
0
 10
64.000015
 20
125.785690
 11
64.000015
 21
54.214264
  0
LINE
  8
0
 62
     2
 10
-44.999973
 20
76.160675
 11
-46.999973
 21
69.839287
  0
LINE
  8
0
 62
     2
 10
-44.999973
 20
69.839287
 11
-46.999973
 21
76.160675
  0
LINE
  8
0
 62
     2
 10
-44.999973
 20
110.160683
 11
-46.999973
 21
103.839294
  0
LINE
  8
0
 62
     2
 10
-44.999973
 20
103.839294
 11
-46.999977
 21
110.160683
  0
LINE
  8
0
 10
-147.285767
 20
126.500015
 11
-134.600067
 21
126.500015
  0
LINE
  8
0
  6
CENTER
 62
     2
 10
-150.259018
 20
90.000031
 11
-115.016556
 21
90.000031
  0
LINE
  8
0
  6
CENTER
 62
     2
 10
-139.748108
 20
107.000015
 11
-125.372894
 21
107.000015
  0
LINE
  8
0
  6
CENTER
 62
     2
 10
-140.057251
 20
73.000038
 11
-125.836609
 21
73.000038
  0
LINE
  8
0
 10
-147.500031
 20
126.000031
 11
-118.500031
 21
126.000031
  0
LINE
  8
0
 10
-147.500031
 20
54.000034
 11
-118.500031
 21
54.000034
  0
LINE
  8
0
  6
CENTER
 62
     2
 10
-133.000046
 20
130.062881
 11
-133.000046
 21
46.688675
  0
LINE
  8
0
 10
-118.500046
 20
126.000046
 11
-118.500046
 21
54.000034
  0
LINE
  8
0
 10
-147.500046
 20
126.000046
 11
-147.500046
 21
54.000034
  0
LINE
  8
0
 10
-148.000046
 20
125.785721
 11
-148.000046
 21
119.800034
  0
LINE
  8
0
 10
-118.000046
 20
125.785751
 11
-118.000046
 21
119.800034
  0
LINE
  8
0
  6
CENTER
 62
     2
 10
-136.192947
 20
57.000019
 11
-129.546326
 21
57.000019
  0
LINE
  8
0
 10
-148.000046
 20
94.100006
 11
-148.000046
 21
54.214310
  0
LINE
  8
0
 10
-131.400024
 20
126.500015
 11
-118.714325
 21
126.500015
  0
LINE
  8
0
 10
-118.000046
 20
94.100006
 11
-118.000046
 21
54.214310
  0
LINE
  8
0
 10
-147.285736
 20
53.500027
 11
-118.714325
 21
53.500027
  0
LINE
  8
0
 10
-130.500046
 20
74.443405
 11
-130.500046
 21
71.556671
  0
LINE
  8
0
 10
-135.500046
 20
74.443405
 11
-135.500046
 21
71.556671
  0
LINE
  8
0
 10
-135.500046
 20
74.443459
 11
-133.000031
 21
75.886841
  0
LINE
  8
0
 10
-133.000031
 20
70.113319
 11
-130.500031
 21
71.556686
  0
LINE
  8
0
 10
-133.000031
 20
75.886795
 11
-130.500031
 21
74.443420
  0
LINE
  8
0
 10
-135.500031
 20
71.556664
 11
-133.000031
 21
70.113289
  0
LINE
  8
0
 10
-135.500046
 20
108.443466
 11
-133.000061
 21
109.886833
  0
LINE
  8
0
 10
-135.500046
 20
108.443420
 11
-135.500046
 21
105.556671
  0
LINE
  8
0
 10
-135.500061
 20
105.556679
 11
-133.000046
 21
104.113297
  0
LINE
  8
0
 10
-133.000061
 20
104.113350
 11
-130.500061
 21
105.556717
  0
LINE
  8
0
 10
-130.500046
 20
108.443420
 11
-130.500046
 21
105.556671
  0
LINE
  8
0
 10
-133.000046
 20
109.886787
 11
-130.500046
 21
108.443413
  0
LINE
  8
0
  6
CENTER
 62
     2
 10
-136.621109
 20
123.000046
 11
-129.148834
 21
123.000046
  0
LINE
  8
0
 10
-118.000015
 20
82.100037
 11
-118.000015
 21
85.100037
  0
LINE
  8
0
 10
-147.285736
 20
126.500015
 11
-148.000015
 21
125.785713
  0
LINE
  8
0
 10
-118.714371
 20
126.500038
 11
-118.000069
 21
125.785736
  0
LINE
  8
0
 10
-148.000015
 20
54.214325
 11
-147.285751
 21
53.500061
  0
LINE
  8
0
 10
-118.000053
 20
54.214306
 11
-118.714333
 21
53.500015
  0
LINE
  8
0
 10
-118.000046
 20
97.300034
 11
-118.500031
 21
97.300034
  0
LINE
  8
0
 10
-118.000046
 20
94.100006
 11
-118.500031
 21
94.100006
  0
LINE
  8
0
 10
-148.000046
 20
116.600006
 11
-147.500061
 21
116.600006
  0
LINE
  8
0
 10
-148.000046
 20
119.800034
 11
-147.500061
 21
119.800034
  0
LINE
  8
0
 10
-134.600052
 20
126.500015
 11
-134.600052
 21
126.000031
  0
LINE
  8
0
 10
-131.400040
 20
126.500015
 11
-131.400040
 21
126.000031
  0
LINE
  8
0
 10
-148.000046
 20
94.100006
 11
-147.500061
 21
94.100006
  0
LINE
  8
0
 10
-148.000046
 20
97.300034
 11
-147.500061
 21
97.300034
  0
LINE
  8
0
 10
-148.000046
 20
116.600006
 11
-148.000046
 21
97.300034
  0
LINE
  8
0
 10
-118.000061
 20
119.800034
 11
-118.500031
 21
119.800034
  0
LINE
  8
0
 10
-118.000061
 20
116.600006
 11
-118.500031
 21
116.600006
  0
LINE
  8
0
 10
-118.000046
 20
116.600006
 11
-118.000046
 21
97.300034
  0
LINE
  8
0
 10
-142.500031
 20
49.500042
 11
-123.500031
 21
49.500042
  0
LINE
  8
0
 10
-123.500046
 20
53.500023
 11
-123.500046
 21
49.500042
  0
LINE
  8
0
 10
-142.500046
 20
53.500023
 11
-142.500046
 21
52.000042
  0
LINE
  8
0
 10
-137.550552
 20
52.000042
 11
-137.550552
 21
49.500042
  0
LINE
  8
0
 10
-137.550537
 20
52.000042
 11
-142.775299
 21
52.000042
  0
LINE
  8
0
 10
-142.775314
 20
51.211761
 11
-142.775314
 21
52.000050
  0
LINE
  8
0
 10
-142.500046
 20
50.549911
 11
-142.500046
 21
49.500042
  0
LINE
  8
0
 10
-138.196182
 20
53.500023
 11
-138.196182
 21
52.000042
  0
LINE
  8
0
 10
-127.803909
 20
53.500023
 11
-127.803909
 21
49.500042
  0
LINE
  8
0
  6
CENTER
 62
     2
 10
144.000092
 20
129.554932
 11
144.000092
 21
45.086010
  0
LINE
  8
0
 10
129.000092
 20
125.785759
 11
129.000092
 21
119.800041
  0
LINE
  8
0
 10
159.000107
 20
125.785759
 11
159.000107
 21
119.800011
  0
LINE
  8
0
 10
129.714386
 20
53.500034
 11
158.285812
 21
53.500034
  0
LINE
  8
0
 10
129.714386
 20
126.500023
 11
142.400070
 21
126.500023
  0
LINE
  8
0
  6
CENTER
 62
     2
 10
126.885315
 20
90.000038
 11
161.431061
 21
90.000038
  0
LINE
  8
0
  6
CENTER
 62
     2
 10
126.885315
 20
73.000046
 11
160.726044
 21
73.000046
  0
LINE
  8
0
  6
CENTER
 62
     2
 10
127.590363
 20
107.000023
 11
160.867050
 21
107.000023
  0
LINE
  8
0
 10
129.000092
 20
94.100014
 11
129.000092
 21
54.214317
  0
LINE
  8
0
 10
159.000107
 20
94.099983
 11
159.000107
 21
54.214317
  0
LINE
  8
0
 10
145.600098
 20
126.500023
 11
158.285812
 21
126.500023
  0
LINE
  8
0
 10
129.714386
 20
126.500038
 11
129.000092
 21
125.785751
  0
LINE
  8
0
 10
158.285782
 20
126.500038
 11
159.000061
 21
125.785767
  0
LINE
  8
0
 10
129.000107
 20
54.214329
 11
129.714386
 21
53.500046
  0
LINE
  8
0
 10
159.000076
 20
54.214348
 11
158.285782
 21
53.500057
  0
LINE
  8
0
 10
129.000092
 20
97.300041
 11
129.000092
 21
97.500038
  0
LINE
  8
0
 10
130.000244
 20
93.600021
 11
131.570114
 21
93.600021
  0
LINE
  8
0
 10
129.000137
 20
94.100029
 11
129.500122
 21
94.100029
  0
LINE
  8
0
 10
129.000137
 20
97.300041
 11
129.499817
 21
97.300041
  0
LINE
  8
0
 10
129.500046
 20
94.100060
 11
130.000031
 21
93.600075
  0
LINE
  8
0
 10
130.000122
 20
93.600021
 11
131.600113
 21
93.600021
  0
LINE
  8
0
 10
130.000122
 20
97.800026
 11
131.600113
 21
97.800026
  0
LINE
  8
0
 10
129.499908
 20
97.300148
 11
129.999924
 21
97.800156
  0
LINE
  8
0
 10
157.983627
 20
93.599983
 11
156.383636
 21
93.599983
  0
LINE
  8
0
 10
158.483444
 20
94.100197
 11
157.983459
 21
93.600220
  0
LINE
  8
0
 10
157.983643
 20
97.799980
 11
156.383636
 21
97.799980
  0
LINE
  8
0
 10
157.983658
 20
97.800087
 11
158.483658
 21
97.300095
  0
LINE
  8
0
 10
159.000107
 20
97.300018
 11
158.483658
 21
97.300018
  0
LINE
  8
0
 10
159.000107
 20
94.099983
 11
158.483627
 21
94.099983
  0
LINE
  8
0
  6
CENTER
 62
     2
 10
126.885315
 20
95.700020
 11
161.431061
 21
95.700020
  0
LINE
  8
0
  6
CENTER
 62
     2
 10
126.789902
 20
118.200020
 11
161.431061
 21
118.200020
  0
LINE
  8
0
 10
142.400055
 20
126.500023
 11
142.400055
 21
125.983559
  0
LINE
  8
0
 10
145.600098
 20
126.500023
 11
145.600098
 21
125.983559
  0
LINE
  8
0
 10
146.100098
 20
125.483543
 11
146.100098
 21
123.883553
  0
LINE
  8
0
 10
145.599945
 20
125.983376
 11
146.099930
 21
125.483383
  0
LINE
  8
0
 10
141.900101
 20
125.483574
 11
141.900101
 21
123.883553
  0
LINE
  8
0
 10
141.900101
 20
125.483521
 11
142.400085
 21
125.983513
  0
LINE
  8
0
 10
159.000107
 20
119.800011
 11
158.483658
 21
119.800011
  0
LINE
  8
0
 10
159.000107
 20
116.599983
 11
158.483627
 21
116.599983
  0
LINE
  8
0
 10
157.983627
 20
116.099983
 11
156.383636
 21
116.099983
  0
LINE
  8
0
 10
158.483444
 20
116.600189
 11
157.983459
 21
116.100189
  0
LINE
  8
0
 10
157.983643
 20
120.299980
 11
156.383636
 21
120.299980
  0
LINE
  8
0
 10
157.983673
 20
120.300087
 11
158.483658
 21
119.800095
  0
LINE
  8
0
 10
159.000107
 20
116.599983
 11
159.000107
 21
97.300018
  0
LINE
  8
0
 10
129.000092
 20
116.600014
 11
129.000092
 21
97.300041
  0
LINE
  8
0
 10
129.000092
 20
119.800041
 11
129.000092
 21
120.000023
  0
LINE
  8
0
 10
130.000244
 20
116.100029
 11
131.570114
 21
116.100029
  0
LINE
  8
0
 10
129.000137
 20
116.600029
 11
129.500122
 21
116.600029
  0
LINE
  8
0
 10
129.000137
 20
119.800041
 11
129.499817
 21
119.800041
  0
LINE
  8
0
 10
129.500076
 20
116.600060
 11
130.000046
 21
116.100067
  0
LINE
  8
0
 10
130.000122
 20
116.100029
 11
131.600113
 21
116.100029
  0
LINE
  8
0
 10
130.000122
 20
120.300026
 11
131.600113
 21
120.300026
  0
LINE
  8
0
 10
129.499908
 20
119.800125
 11
129.999939
 21
120.300163
  0
LINE
  8
0
 10
134.500107
 20
49.500050
 11
153.500092
 21
49.500050
  0
LINE
  8
0
 10
153.500092
 20
53.500031
 11
153.500092
 21
49.500050
  0
LINE
  8
0
 10
134.500107
 20
53.500031
 11
134.500107
 21
52.000050
  0
LINE
  8
0
 10
139.449600
 20
52.000050
 11
139.449600
 21
49.500050
  0
LINE
  8
0
 10
139.449600
 20
52.000050
 11
134.224854
 21
52.000050
  0
LINE
  8
0
 10
134.224838
 20
51.211758
 11
134.224838
 21
52.000046
  0
LINE
  8
0
 10
134.500107
 20
50.452087
 11
134.500107
 21
49.500050
  0
LINE
  8
0
  6
PHANTOM
 62
     3
 10
-40.500000
 20
31.750000
 11
-40.500000
 21
-13.500008
  0
LINE
  8
0
  6
PHANTOM
 62
     3
 10
40.500000
 20
31.750000
 11
40.500000
 21
-13.500008
  0
LINE
  8
0
 10
-47.000008
 20
21.500000
 11
-47.000008
 21
12.100006
  0
LINE
  8
0
 10
-46.000008
 20
1.900009
 11
-46.000008
 21
-3.999985
  0
LINE
  8
0
 10
-27.999994
 20
21.285721
 11
-27.999994
 21
-7.285706
  0
LINE
  8
0
 10
63.999992
 20
21.285721
 11
63.999992
 21
-7.285706
  0
LINE
  8
0
 10
-27.285707
 20
22.000015
 11
63.285698
 21
22.000015
  0
LINE
  8
0
 10
-27.285707
 20
-7.999985
 11
63.285667
 21
-7.999985
  0
LINE
  8
0
  6
CENTER
 62
     2
 10
-59.399986
 20
7.000015
 11
68.596062
 21
7.000015
  0
LINE
  8
0
 10
-57.000000
 20
-7.500000
 11
-47.000000
 21
-7.500000
  0
LINE
  8
0
 10
-57.000000
 20
21.500000
 11
-47.000000
 21
21.500000
  0
LINE
  8
0
 10
-44.999985
 20
13.000000
 11
-27.999994
 21
13.000000
  0
LINE
  8
0
 10
-44.999985
 20
1.000015
 11
-27.999994
 21
1.000015
  0
LINE
  8
0
 10
-47.999977
 20
12.100006
 11
-47.999977
 21
1.900009
  0
LINE
  8
0
 10
-47.999992
 20
1.899994
 11
-44.999985
 21
1.899994
  0
LINE
  8
0
 10
-47.999992
 20
12.100006
 11
-44.999985
 21
12.100006
  0
LINE
  8
0
 10
-45.000008
 20
13.000015
 11
-45.000008
 21
12.100006
  0
LINE
  8
0
 10
-47.000008
 20
1.900009
 11
-47.000008
 21
-7.499985
  0
LINE
  8
0
  6
CENTER
 62
     2
 10
2.000006
 20
10.562683
 11
2.000006
 21
2.880157
  0
LINE
  8
0
  6
CENTER
 62
     2
 10
52.000008
 20
10.802750
 11
52.000008
 21
3.120255
  0
LINE
  8
0
 10
-47.000000
 20
-3.999985
 11
-46.000000
 21
-3.999985
  0
LINE
  8
0
 10
-45.000008
 20
1.900009
 11
-45.000008
 21
1.000015
  0
LINE
  8
0
 10
-36.000008
 20
0.000015
 11
-36.000008
 21
-3.500000
  0
LINE
  8
0
 10
-35.711327
 20
-3.999985
 11
-32.500008
 21
-3.999985
  0
LINE
  8
0
 10
-32.500008
 20
0.000015
 11
-32.500008
 21
-3.999985
  0
LINE
  8
0
 10
-30.480005
 20
0.000015
 11
-30.480005
 21
-3.500000
  0
LINE
  8
0
 10
-35.999985
 20
-3.499959
 11
-35.711311
 21
-3.999956
  0
LINE
  8
0
 10
-30.480019
 20
-3.499964
 11
-30.191347
 21
-3.999961
  0
LINE
  8
0
 10
-28.000010
 20
-3.499967
 11
-28.288681
 21
-3.999965
  0
LINE
  8
0
 10
-30.191332
 20
-3.999985
 11
-28.288668
 21
-3.999985
  0
LINE
  8
0
 10
-32.500008
 20
-2.499985
 11
-30.480005
 21
-2.499985
  0
LINE
  8
0
 62
     2
 10
-32.500008
 20
-2.094986
 11
-30.480005
 21
-2.094986
  0
LINE
  8
0
 10
-36.000008
 20
0.000015
 11
-36.000008
 21
1.000015
  0
LINE
  8
0
 10
-32.500008
 20
0.000015
 11
-32.500008
 21
1.000015
  0
LINE
  8
0
 10
-30.480005
 20
0.000015
 11
-30.480005
 21
1.000015
  0
LINE
  8
0
 10
-35.711327
 20
0.000015
 11
-32.500008
 21
0.000015
  0
LINE
  8
0
 10
-30.191332
 20
0.000015
 11
-28.288668
 21
0.000015
  0
LINE
  8
0
 10
-57.000008
 20
21.500000
 11
-57.000008
 21
-7.499985
  0
LINE
  8
0
 10
-27.285728
 20
22.000023
 11
-28.000008
 21
21.285742
  0
LINE
  8
0
 10
63.285683
 20
21.999977
 11
63.999962
 21
21.285692
  0
LINE
  8
0
 10
-27.999964
 20
-7.285688
 11
-27.285677
 21
-7.999976
  0
LINE
  8
0
 10
63.999954
 20
-7.285692
 11
63.285667
 21
-7.999979
  0
LINE
  8
0
 10
17.499990
 20
16.500000
 11
17.499990
 21
15.145660
  0
LINE
  8
0
 10
4.500006
 20
16.500000
 11
4.500006
 21
12.196152
  0
LINE
  8
0
 10
4.500006
 20
-2.500000
 11
5.854357
 21
-2.500000
  0
LINE
  8
0
 10
4.500006
 20
16.500000
 11
13.854342
 21
16.500000
  0
LINE
  8
0
  6
CENTER
 62
     2
 10
10.999990
 20
18.000015
 11
10.999990
 21
-3.999985
  0
LINE
  8
0
 10
16.145647
 20
16.500000
 11
17.499994
 21
16.500000
  0
LINE
  8
0
 10
17.499990
 20
12.854370
 11
17.499990
 21
-2.500000
  0
LINE
  8
0
 10
4.500006
 20
-1.145630
 11
4.500006
 21
-2.500000
  0
LINE
  8
0
 10
8.145636
 20
-2.500000
 11
17.499994
 21
-2.500000
  0
LINE
  8
0
 10
4.500006
 20
1.803848
 11
4.500006
 21
1.145645
  0
LINE
  8
0
 10
34.828438
 20
22.000015
 11
34.828438
 21
16.000015
  0
LINE
  8
0
 10
29.171576
 20
22.000015
 11
29.171576
 21
16.000015
  0
LINE
  8
0
 10
29.171576
 20
16.000015
 11
34.828445
 21
16.000015
  0
LINE
  8
0
 10
29.171576
 20
-2.000000
 11
34.828445
 21
-2.000000
  0
LINE
  8
0
 10
34.828438
 20
-1.999985
 11
34.828438
 21
-7.999985
  0
LINE
  8
0
 10
29.171576
 20
-1.999985
 11
29.171576
 21
-7.999985
  0
LINE
  8
0
 10
5.833270
 20
1.166724
 11
8.166724
 21
-1.166731
  0
LINE
  8
0
 10
5.833296
 20
-1.166730
 11
8.166741
 21
1.166714
  0
LINE
  8
0
 10
13.833255
 20
15.166727
 11
16.166708
 21
12.833274
  0
LINE
  8
0
 10
13.833276
 20
12.833274
 11
16.166725
 21
15.166723
  0
LINE
  8
0
  6
PHANTOM
 62
     3
 10
22.499998
 20
31.750000
 11
22.499998
 21
-13.500008
  0
LINE
  8
0
 62
     4
 10
-37.341675
 20
-97.309509
 11
-32.596375
 21
-97.309509
  0
LINE
  8
0
 62
     4
 10
-41.096405
 20
-99.909515
 11
-37.340607
 21
-99.909515
  0
LINE
  8
0
 62
     4
 10
-35.840576
 20
-99.909515
 11
-32.596375
 21
-99.909515
  0
LINE
  8
0
 62
     4
 10
-63.096405
 20
-96.309525
 11
-41.096405
 21
-96.309525
  0
LINE
  8
0
 62
     4
 10
-58.396393
 20
-100.909523
 11
-41.096405
 21
-100.909523
  0
LINE
  8
0
 62
     4
 10
-41.096405
 20
-96.309525
 11
-41.096405
 21
-100.909523
  0
LINE
  8
0
 62
     4
 10
-63.096405
 20
-98.109520
 11
-63.096405
 21
-96.309525
  0
LINE
  8
0
 62
     4
 10
-58.396393
 20
-99.351486
 11
-58.396393
 21
-100.909523
  0
LINE
  8
0
 62
     4
 10
-63.096405
 20
-98.109520
 11
-58.846390
 21
-98.109520
  0
LINE
  8
0
  6
CENTER
 62
     1
 10
-61.096390
 20
-95.502808
 11
-61.096390
 21
-101.741425
  0
LINE
  8
0
 62
     4
 10
-58.846390
 20
-98.109520
 11
-58.846390
 21
-99.351486
  0
LINE
  8
0
 62
     4
 10
-59.096390
 20
-98.109520
 11
-59.096390
 21
-98.909523
  0
LINE
  8
0
 62
     4
 10
-63.096405
 20
-98.109520
 11
-63.096405
 21
-98.909523
  0
LINE
  8
0
 62
     4
 10
-63.096405
 20
-98.909523
 11
-59.096390
 21
-98.909523
  0
LINE
  8
0
 62
     4
 10
-58.896393
 20
-98.109520
 11
-58.896393
 21
-100.109520
  0
LINE
  8
0
 62
     4
 10
-58.896393
 20
-100.109520
 11
-58.396393
 21
-100.109520
  0
LINE
  8
0
 62
     4
 10
-58.846390
 20
-99.351486
 11
-58.396393
 21
-99.351486
  0
LINE
  8
0
 62
     4
 10
-32.596375
 20
-97.309509
 11
-32.596375
 21
-99.909515
  0
LINE
  8
0
  6
CENTER
 62
     1
 10
-34.319275
 20
-98.159439
 11
-22.387207
 21
-98.159439
  0
LINE
  8
0
  6
CENTER
 62
     1
 10
-34.268982
 20
-99.059433
 11
-22.345337
 21
-99.059433
  0
LINE
  8
0
 62
     4
 10
-22.596375
 20
-97.909454
 11
-22.596375
 21
-98.409454
  0
LINE
  8
0
 62
     4
 10
-22.596375
 20
-98.809448
 11
-22.596375
 21
-99.309448
  0
LINE
  8
0
 62
     4
 10
-25.596375
 20
-97.709442
 11
-25.596375
 21
-99.509460
  0
LINE
  8
0
 62
     4
 10
-32.596375
 20
-99.509445
 11
-28.590820
 21
-99.509445
  0
LINE
  8
0
 62
     4
 10
-32.596375
 20
-98.609421
 11
-29.110413
 21
-98.609421
  0
LINE
  8
0
 62
     4
 10
-27.610413
 20
-98.609421
 11
-25.596375
 21
-98.609421
  0
LINE
  8
0
 62
     4
 10
-27.090820
 20
-99.509445
 11
-25.596375
 21
-99.509445
  0
LINE
  8
0
 62
     4
 10
-32.596375
 20
-97.709427
 11
-29.630066
 21
-97.709427
  0
LINE
  8
0
 62
     4
 10
-28.130066
 20
-97.709427
 11
-25.596375
 21
-97.709427
  0
LINE
  8
0
 62
     4
 10
-25.596375
 20
-97.909439
 11
-22.596375
 21
-97.909439
  0
LINE
  8
0
 62
     4
 10
-25.596375
 20
-98.409439
 11
-22.596375
 21
-98.409439
  0
LINE
  8
0
 62
     4
 10
-25.596375
 20
-98.809433
 11
-22.596375
 21
-98.809433
  0
LINE
  8
0
 62
     4
 10
-25.596375
 20
-99.309433
 11
-22.596375
 21
-99.309433
  0
LINE
  8
0
 62
     1
 10
-28.860390
 20
-96.444504
 11
-26.360388
 21
-100.774628
  0
LINE
  8
0
  6
CENTER
 62
     1
 10
-42.410767
 20
-98.609512
 11
-32.596375
 21
-98.609512
  0
LINE
  8
0
 62
     1
 10
-30.360456
 20
-96.444473
 11
-27.860455
 21
-100.774597
  0
LINE
  8
0
 62
     1
 10
-37.841129
 20
-96.444450
 11
-35.341129
 21
-100.774582
  0
LINE
  8
0
 62
     1
 10
-39.341110
 20
-96.444519
 11
-36.841114
 21
-100.774635
  0
LINE
  8
0
 62
     4
 10
-62.121399
 20
-100.309525
 11
-60.071396
 21
-100.309525
  0
LINE
  8
0
 62
     4
 10
-60.070972
 20
-100.309967
 11
-59.845989
 21
-100.084976
  0
LINE
  8
0
 62
     4
 10
-62.121357
 20
-100.309540
 11
-62.346352
 21
-100.084549
  0
LINE
  8
0
 62
     4
 10
-62.346390
 20
-98.908707
 11
-62.346390
 21
-100.084526
  0
LINE
  8
0
 62
     1
 10
-62.121399
 20
-98.908707
 11
-62.121399
 21
-100.309525
  0
LINE
  8
0
 62
     1
 10
-60.071396
 20
-98.908707
 11
-60.071396
 21
-100.309525
  0
LINE
  8
0
 62
     4
 10
-59.846390
 20
-98.908707
 11
-59.846390
 21
-100.084518
  0
LINE
  8
0
 62
     4
 10
-62.346390
 20
-100.084526
 11
-59.846390
 21
-100.084526
  0
LINE
  8
0
 62
     4
 10
-62.346390
 20
-95.809525
 11
-62.346390
 21
-96.309525
  0
LINE
  8
0
 62
     1
 10
-62.121399
 20
-95.809525
 11
-62.121399
 21
-96.309525
  0
LINE
  8
0
 62
     1
 10
-60.071396
 20
-95.809525
 11
-60.071396
 21
-96.309525
  0
LINE
  8
0
 62
     4
 10
-59.846390
 20
-95.809525
 11
-59.846390
 21
-96.309525
  0
LINE
  8
0
 62
     4
 10
-62.346390
 20
-95.809525
 11
-59.846390
 21
-95.809525
  0
LINE
  8
0
 62
     4
 10
-63.096405
 20
-97.309525
 11
-41.096405
 21
-97.309525
  0
LINE
  8
0
 62
     4
 10
-63.096405
 20
-96.759506
 11
-41.096405
 21
-96.759506
  0
LINE
  8
0
 62
     4
 10
-41.096405
 20
-97.309509
 11
-38.841705
 21
-97.309509
  0
LINE
  8
0
 62
     4
 10
-108.889130
 20
-95.809525
 11
-106.389130
 21
-95.809525
  0
LINE
  8
0
  6
CENTER
 62
     1
 10
-107.639130
 20
-94.256554
 11
-107.639130
 21
-102.969315
  0
LINE
  8
0
 62
     4
 10
-109.689117
 20
-97.309525
 11
-109.689117
 21
-98.859520
  0
LINE
  8
0
 62
     4
 10
-109.689186
 20
-97.309502
 11
-109.139183
 21
-96.759491
  0
LINE
  8
0
 62
     4
 10
-109.139130
 20
-96.309525
 11
-109.139130
 21
-96.759521
  0
LINE
  8
0
 62
     4
 10
-109.139130
 20
-96.309525
 11
-106.139130
 21
-96.309525
  0
LINE
  8
0
 62
     4
 10
-106.139130
 20
-96.309525
 11
-106.139130
 21
-96.759521
  0
LINE
  8
0
 62
     4
 10
-105.589119
 20
-97.309471
 11
-106.139114
 21
-96.759460
  0
LINE
  8
0
 62
     4
 10
-105.589127
 20
-97.309525
 11
-105.589127
 21
-98.859520
  0
LINE
  8
0
 62
     4
 10
-109.689117
 20
-98.109520
 11
-105.589127
 21
-98.109520
  0
LINE
  8
0
 62
     4
 10
-109.689133
 20
-98.908707
 11
-105.589127
 21
-98.908707
  0
LINE
  8
0
 62
     4
 10
-108.664139
 20
-100.309525
 11
-106.614136
 21
-100.309525
  0
LINE
  8
0
 62
     4
 10
-106.613701
 20
-100.309998
 11
-106.388702
 21
-100.084984
  0
LINE
  8
0
 62
     4
 10
-108.664116
 20
-100.309563
 11
-108.889114
 21
-100.084564
  0
LINE
  8
0
 62
     4
 10
-108.889130
 20
-98.908707
 11
-108.889130
 21
-100.084526
  0
LINE
  8
0
 62
     1
 10
-108.664139
 20
-98.908707
 11
-108.664139
 21
-100.309525
  0
LINE
  8
0
 62
     1
 10
-106.614136
 20
-98.908707
 11
-106.614136
 21
-100.309525
  0
LINE
  8
0
 62
     4
 10
-106.389130
 20
-98.908707
 11
-106.389130
 21
-100.084518
  0
LINE
  8
0
 62
     4
 10
-108.889130
 20
-100.084526
 11
-106.389130
 21
-100.084526
  0
LINE
  8
0
 62
     4
 10
-108.889130
 20
-95.809525
 11
-108.889130
 21
-96.309525
  0
LINE
  8
0
 62
     1
 10
-108.664139
 20
-95.809525
 11
-108.664139
 21
-96.309525
  0
LINE
  8
0
 62
     1
 10
-106.614136
 20
-95.809525
 11
-106.614136
 21
-96.309525
  0
LINE
  8
0
 62
     4
 10
-106.389130
 20
-95.809525
 11
-106.389130
 21
-96.309525
  0
LINE
  8
0
  6
CENTER
 62
     1
 10
-65.896942
 20
-53.759521
 11
-35.688889
 21
-53.759521
  0
LINE
  8
0
 62
     4
 10
-63.096405
 20
-55.259521
 11
-41.096405
 21
-55.259521
  0
LINE
  8
0
 62
     4
 10
-63.096405
 20
-52.259521
 11
-41.096405
 21
-52.259521
  0
LINE
  8
0
 62
     4
 10
-63.096405
 20
-55.809525
 11
-41.096405
 21
-55.809525
  0
LINE
  8
0
 62
     4
 10
-63.096405
 20
-51.709518
 11
-41.096405
 21
-51.709518
  0
LINE
  8
0
 62
     4
 10
-63.096405
 20
-51.709518
 11
-63.096405
 21
-55.809525
  0
LINE
  8
0
 62
     4
 10
-41.096428
 20
-51.709518
 11
-41.096428
 21
-55.809525
  0
LINE
  8
0
  6
CENTER
 62
     1
 10
-61.096390
 20
-50.923019
 11
-61.096390
 21
-56.512344
  0
LINE
  8
0
 62
     4
 10
-62.141674
 20
-54.472595
 11
-60.408337
 21
-52.739258
  0
LINE
  8
0
 62
     4
 10
-61.788120
 20
-54.826176
 11
-60.154781
 21
-53.192837
  0
LINE
  8
0
 62
     1
 10
-40.007179
 20
-51.594425
 11
-37.507179
 21
-55.924553
  0
LINE
  8
0
 62
     4
 10
-41.096405
 20
-52.459518
 11
-39.507751
 21
-52.459518
  0
LINE
  8
0
 62
     4
 10
-41.096405
 20
-55.059525
 11
-38.006622
 21
-55.059525
  0
LINE
  8
0
 62
     4
 10
112.821899
 20
-85.654793
 11
112.821899
 21
-80.909485
  0
LINE
  8
0
 62
     4
 10
112.821899
 20
-89.409523
 11
112.821899
 21
-87.154778
  0
LINE
  8
0
 62
     4
 10
115.421875
 20
-84.153694
 11
115.421875
 21
-80.909485
  0
LINE
  8
0
 62
     4
 10
94.714539
 20
-96.309525
 11
110.814545
 21
-96.309525
  0
LINE
  8
0
 62
     4
 10
99.414520
 20
-100.909523
 11
116.714539
 21
-100.909523
  0
LINE
  8
0
 62
     4
 10
116.714539
 20
-89.409523
 11
116.714539
 21
-100.909523
  0
LINE
  8
0
 62
     4
 10
94.714539
 20
-98.909523
 11
94.714539
 21
-96.309525
  0
LINE
  8
0
 62
     4
 10
99.414520
 20
-99.291679
 11
99.414520
 21
-100.909523
  0
LINE
  8
0
  6
CENTER
 62
     1
 10
96.714539
 20
-95.579269
 11
96.714539
 21
-101.482193
  0
LINE
  8
0
 62
     4
 10
110.814514
 20
-89.409523
 11
110.814514
 21
-96.309525
  0
LINE
  8
0
 62
     4
 10
94.714539
 20
-98.109528
 11
98.988342
 21
-98.109528
  0
LINE
  8
0
 62
     4
 10
94.714539
 20
-98.909523
 11
98.714539
 21
-98.909523
  0
LINE
  8
0
 62
     4
 10
98.714539
 20
-98.109520
 11
98.714539
 21
-98.909523
  0
LINE
  8
0
 62
     4
 10
110.814545
 20
-89.409523
 11
116.714539
 21
-89.409523
  0
LINE
  8
0
 62
     4
 10
98.914520
 20
-100.109528
 11
99.414520
 21
-100.109528
  0
LINE
  8
0
 62
     4
 10
98.914520
 20
-98.109528
 11
98.914520
 21
-100.109528
  0
LINE
  8
0
 62
     4
 10
98.988342
 20
-99.291679
 11
99.414520
 21
-99.291679
  0
LINE
  8
0
 62
     4
 10
98.988342
 20
-98.109528
 11
98.988342
 21
-99.291679
  0
LINE
  8
0
 62
     4
 10
94.714539
 20
-97.309525
 11
116.714539
 21
-97.309525
  0
LINE
  8
0
 62
     4
 10
94.714539
 20
-96.759521
 11
116.714539
 21
-96.759521
  0
LINE
  8
0
 62
     4
 10
110.814514
 20
-95.159508
 11
116.714539
 21
-95.159508
  0
LINE
  8
0
 62
     4
 10
110.814514
 20
-95.909508
 11
116.714539
 21
-95.909508
  0
LINE
  8
0
 62
     4
 10
110.814514
 20
-90.909523
 11
116.714539
 21
-90.909523
  0
LINE
  8
0
 62
     4
 10
112.821899
 20
-80.909485
 11
115.421875
 21
-80.909485
  0
LINE
  8
0
  6
CENTER
 62
     1
 10
113.671814
 20
-82.632416
 11
113.671814
 21
-70.700333
  0
LINE
  8
0
  6
CENTER
 62
     1
 10
114.571808
 20
-82.582123
 11
114.571808
 21
-70.658478
  0
LINE
  8
0
 62
     4
 10
113.421814
 20
-70.909485
 11
113.921814
 21
-70.909485
  0
LINE
  8
0
 62
     4
 10
114.321808
 20
-70.909485
 11
114.821808
 21
-70.909485
  0
LINE
  8
0
 62
     4
 10
113.221802
 20
-73.909485
 11
115.021820
 21
-73.909485
  0
LINE
  8
0
 62
     4
 10
115.021820
 20
-80.909485
 11
115.021820
 21
-76.903938
  0
LINE
  8
0
 62
     4
 10
114.121796
 20
-80.909485
 11
114.121796
 21
-77.423553
  0
LINE
  8
0
 62
     4
 10
114.121796
 20
-75.923553
 11
114.121796
 21
-73.909485
  0
LINE
  8
0
 62
     4
 10
115.021820
 20
-75.403938
 11
115.021820
 21
-73.909485
  0
LINE
  8
0
 62
     4
 10
113.221802
 20
-80.909485
 11
113.221802
 21
-77.943176
  0
LINE
  8
0
 62
     4
 10
113.221802
 20
-76.443176
 11
113.221802
 21
-73.909485
  0
LINE
  8
0
 62
     4
 10
113.421814
 20
-73.909485
 11
113.421814
 21
-70.909485
  0
LINE
  8
0
 62
     4
 10
113.921814
 20
-73.909485
 11
113.921814
 21
-70.909485
  0
LINE
  8
0
 62
     4
 10
114.321808
 20
-73.909485
 11
114.321808
 21
-70.909485
  0
LINE
  8
0
 62
     4
 10
114.821808
 20
-73.909485
 11
114.821808
 21
-70.909485
  0
LINE
  8
0
 62
     1
 10
111.956955
 20
-77.173668
 11
116.287102
 21
-74.673645
  0
LINE
  8
0
  6
CENTER
 62
     1
 10
114.121887
 20
-90.723892
 11
114.121887
 21
-80.909485
  0
LINE
  8
0
 62
     1
 10
111.956856
 20
-78.673660
 11
116.287010
 21
-76.173645
  0
LINE
  8
0
 62
     1
 10
111.956825
 20
-86.154358
 11
116.286949
 21
-83.654350
  0
LINE
  8
0
 62
     1
 10
111.956871
 20
-87.654343
 11
116.286987
 21
-85.154350
  0
LINE
  8
0
 62
     4
 10
95.689514
 20
-100.309525
 11
97.739532
 21
-100.309525
  0
LINE
  8
0
 62
     4
 10
97.740097
 20
-100.310066
 11
97.965088
 21
-100.085068
  0
LINE
  8
0
 62
     4
 10
95.689598
 20
-100.309395
 11
95.464615
 21
-100.084412
  0
LINE
  8
0
 62
     4
 10
95.464539
 20
-98.909523
 11
95.464539
 21
-100.084526
  0
LINE
  8
0
 62
     1
 10
95.689514
 20
-98.909523
 11
95.689514
 21
-100.309525
  0
LINE
  8
0
 62
     1
 10
97.739532
 20
-98.909523
 11
97.739532
 21
-100.309525
  0
LINE
  8
0
 62
     4
 10
97.964539
 20
-98.909523
 11
97.964539
 21
-100.084518
  0
LINE
  8
0
 62
     4
 10
95.464539
 20
-100.084526
 11
97.964539
 21
-100.084526
  0
LINE
  8
0
 62
     4
 10
95.464539
 20
-95.809525
 11
95.464539
 21
-96.309525
  0
LINE
  8
0
 62
     1
 10
95.689514
 20
-95.809525
 11
95.689514
 21
-96.309525
  0
LINE
  8
0
 62
     1
 10
97.739532
 20
-95.809525
 11
97.739532
 21
-96.309525
  0
LINE
  8
0
 62
     4
 10
97.964539
 20
-95.809525
 11
97.964539
 21
-96.309525
  0
LINE
  8
0
 62
     4
 10
95.464539
 20
-95.809525
 11
97.964539
 21
-95.809525
  0
LINE
  8
0
 62
     4
 10
115.421875
 20
-89.409523
 11
115.421875
 21
-85.653687
  0
LINE
  8
0
 62
     4
 10
52.971802
 20
-85.653702
 11
52.971802
 21
-89.409523
  0
LINE
  8
0
 62
     4
 10
49.421814
 20
-90.909523
 11
53.921814
 21
-90.909523
  0
LINE
  8
0
 62
     4
 10
49.421814
 20
-89.409523
 11
49.421814
 21
-95.159523
  0
LINE
  8
0
 62
     4
 10
50.171764
 20
-95.909492
 11
49.421799
 21
-95.159531
  0
LINE
  8
0
 62
     4
 10
50.171814
 20
-96.759521
 11
50.171814
 21
-95.909523
  0
LINE
  8
0
 62
     4
 10
49.621777
 20
-97.309456
 11
50.171787
 21
-96.759445
  0
LINE
  8
0
 62
     4
 10
49.621796
 20
-97.309525
 11
49.621796
 21
-98.859520
  0
LINE
  8
0
 62
     4
 10
53.721802
 20
-97.309525
 11
53.721802
 21
-98.859520
  0
LINE
  8
0
 62
     4
 10
53.721794
 20
-97.309555
 11
53.171791
 21
-96.759552
  0
LINE
  8
0
 62
     4
 10
53.171814
 20
-96.759521
 11
53.171814
 21
-95.909523
  0
LINE
  8
0
 62
     4
 10
53.171894
 20
-95.909630
 11
53.921890
 21
-95.159630
  0
LINE
  8
0
 62
     4
 10
53.921814
 20
-89.409523
 11
53.921814
 21
-95.159523
  0
LINE
  8
0
  6
CENTER
 62
     1
 10
51.671814
 20
-83.748566
 11
51.671814
 21
-102.376190
  0
LINE
  8
0
 62
     4
 10
50.171814
 20
-96.309525
 11
53.171814
 21
-96.309525
  0
LINE
  8
0
 62
     4
 10
49.621796
 20
-98.109520
 11
53.721802
 21
-98.109520
  0
LINE
  8
0
 62
     4
 10
49.621796
 20
-98.911972
 11
53.721802
 21
-98.911972
  0
LINE
  8
0
 62
     4
 10
49.421814
 20
-89.409523
 11
53.921814
 21
-89.409523
  0
LINE
  8
0
 62
     1
 10
49.506836
 20
-87.654343
 11
53.836964
 21
-85.154350
  0
LINE
  8
0
 62
     4
 10
50.646790
 20
-100.309525
 11
52.696808
 21
-100.309525
  0
LINE
  8
0
 62
     4
 10
52.697315
 20
-100.310051
 11
52.922310
 21
-100.085052
  0
LINE
  8
0
 62
     4
 10
50.646858
 20
-100.309448
 11
50.421852
 21
-100.084442
  0
LINE
  8
0
 62
     4
 10
50.421814
 20
-98.911972
 11
50.421814
 21
-100.084526
  0
LINE
  8
0
 62
     1
 10
50.646790
 20
-98.911972
 11
50.646790
 21
-100.309525
  0
LINE
  8
0
 62
     1
 10
52.696808
 20
-98.911972
 11
52.696808
 21
-100.309525
  0
LINE
  8
0
 62
     4
 10
52.921814
 20
-98.911972
 11
52.921814
 21
-100.084518
  0
LINE
  8
0
 62
     4
 10
50.421814
 20
-100.084526
 11
52.921814
 21
-100.084526
  0
LINE
  8
0
 62
     4
 10
50.421814
 20
-95.809525
 11
50.421814
 21
-96.309525
  0
LINE
  8
0
 62
     1
 10
50.646790
 20
-95.809525
 11
50.646790
 21
-96.309525
  0
LINE
  8
0
 62
     1
 10
52.696808
 20
-95.809525
 11
52.696808
 21
-96.309525
  0
LINE
  8
0
 62
     4
 10
52.921814
 20
-95.809525
 11
52.921814
 21
-96.309525
  0
LINE
  8
0
 62
     4
 10
50.421814
 20
-95.809525
 11
52.921814
 21
-95.809525
  0
LINE
  8
0
 62
     4
 10
50.371826
 20
-87.154800
 11
50.371826
 21
-89.409523
  0
LINE
  8
0
  6
CENTER
 62
     1
 10
93.385345
 20
-48.709511
 11
118.294525
 21
-48.709511
  0
LINE
  8
0
 62
     4
 10
94.714539
 20
-50.209511
 11
111.275146
 21
-50.209511
  0
LINE
  8
0
 62
     4
 10
94.714539
 20
-47.209511
 11
111.275146
 21
-47.209511
  0
LINE
  8
0
 62
     4
 10
94.714539
 20
-50.759506
 11
111.628510
 21
-50.759506
  0
LINE
  8
0
 62
     4
 10
94.714539
 20
-46.659508
 11
111.628510
 21
-46.659508
  0
LINE
  8
0
 62
     4
 10
94.714539
 20
-46.659500
 11
94.714539
 21
-50.759506
  0
LINE
  8
0
  6
CENTER
 62
     1
 10
96.714539
 20
-45.873001
 11
96.714539
 21
-51.462326
  0
LINE
  8
0
 62
     4
 10
111.800507
 20
-46.459511
 11
116.714539
 21
-46.459511
  0
LINE
  8
0
 62
     4
 10
111.800507
 20
-50.959511
 11
116.714539
 21
-50.959511
  0
LINE
  8
0
 62
     4
 10
116.714539
 20
-46.459503
 11
116.714539
 21
-50.959503
  0
LINE
  8
0
 62
     4
 10
96.068794
 20
-49.779846
 11
97.784897
 21
-48.063740
  0
LINE
  8
0
 62
     4
 10
95.644516
 20
-49.355518
 11
97.360611
 21
-47.639423
  0
LINE
  8
0
 10
-281.250000
 20
195.500000
 11
282.099976
 21
195.500000
  0
LINE
  8
0
 10
-281.250000
 20
195.500000
 11
-281.250000
 21
-195.000000
  0
LINE
  8
0
 10
282.099976
 20
195.500000
 11
282.099976
 21
-195.000000
  0
LINE
  8
0
 10
-281.250000
 20
-195.000000
 11
282.099976
 21
-195.000000
  0
LINE
  8
0
 10
162.099976
 20
-175.000000
 11
162.099976
 21
-195.000000
  0
LINE
  8
0
 10
162.099976
 20
-175.000000
 11
282.099976
 21
-175.000000
  0
LINE
  8
0
 10
162.099976
 20
175.500000
 11
282.099976
 21
175.500000
  0
LINE
  8
0
 10
-281.250000
 20
175.500000
 11
-161.250000
 21
175.500000
  0
LINE
  8
0
 10
162.099976
 20
195.500000
 11
162.099976
 21
175.500000
  0
LINE
  8
0
 10
-161.250000
 20
195.500000
 11
-161.250000
 21
175.500000
  0
LINE
  8
0
 10
-271.250000
 20
-133.000000
 11
-271.250000
 21
-185.000000
  0
LINE
  8
0
 10
-271.250000
 20
-185.000000
 11
-50.250000
 21
-185.000000
  0
LINE
  8
0
 10
-271.250000
 20
-155.000015
 11
-50.250000
 21
-155.000015
  0
LINE
  8
0
 10
-271.250000
 20
-133.000000
 11
-50.250000
 21
-133.000000
  0
LINE
  8
0
 10
-226.250000
 20
-133.000000
 11
-226.250000
 21
-185.000000
  0
LINE
  8
0
 10
-204.250000
 20
-133.000000
 11
-204.250000
 21
-185.000000
  0
LINE
  8
0
 10
-182.250000
 20
-133.000000
 11
-182.250000
 21
-185.000000
  0
LINE
  8
0
 10
-160.250000
 20
-133.000000
 11
-160.250000
 21
-185.000000
  0
LINE
  8
0
 10
-138.250000
 20
-133.000000
 11
-138.250000
 21
-185.000000
  0
LINE
  8
0
 10
-116.250000
 20
-133.000000
 11
-116.250000
 21
-185.000000
  0
LINE
  8
0
 10
-94.250000
 20
-133.000000
 11
-94.250000
 21
-185.000000
  0
LINE
  8
0
 10
-50.250000
 20
-133.000000
 11
-50.250000
 21
-185.000000
  0
LINE
  8
0
 10
-271.250000
 20
-175.000015
 11
-50.250000
 21
-175.000015
  0
LINE
  8
0
 10
-271.250031
 20
-165.000000
 11
-50.250000
 21
-165.000000
  0
LINE
  8
0
 10
-271.250000
 20
-141.000000
 11
-234.517441
 21
-141.000000
  0
LINE
  8
0
 10
-234.517563
 20
-141.000061
 11
-226.250137
 21
-155.000076
  0
LINE
  8
0
 10
-72.250000
 20
-133.000000
 11
-72.250000
 21
-185.000000
  0
LINE
  8
0
 10
75.000031
 20
116.499969
 11
75.000031
 21
112.649963
  0
LINE
  8
0
 10
51.000031
 20
112.799957
 11
73.500031
 21
112.799957
  0
LINE
  8
0
 10
51.000031
 20
109.799957
 11
73.500031
 21
109.799957
  0
LINE
  8
0
 10
51.000031
 20
112.899963
 11
51.000031
 21
109.699951
  0
LINE
  8
0
 10
73.500031
 20
112.899963
 11
73.500031
 21
109.699951
  0
LINE
  8
0
 10
51.000031
 20
112.899963
 11
73.500031
 21
112.899963
  0
LINE
  8
0
 10
51.000031
 20
109.699951
 11
73.500031
 21
109.699951
  0
LINE
  8
0
 10
53.200043
 20
112.533875
 11
53.200043
 21
110.066071
  0
LINE
  8
0
 10
52.800018
 20
112.533875
 11
52.800018
 21
110.066071
  0
LINE
  8
0
 10
65.600037
 20
111.894745
 11
65.600037
 21
110.394745
  0
LINE
  8
0
 10
63.600037
 20
111.894745
 11
63.600037
 21
110.394745
  0
LINE
  8
0
 10
63.600037
 20
110.394745
 11
65.600037
 21
110.394745
  0
LINE
  8
0
 10
63.600037
 20
111.894745
 11
65.600037
 21
111.894745
  0
LINE
  8
0
 10
73.500031
 20
112.649963
 11
79.322174
 21
112.649963
  0
LINE
  8
0
 10
73.500031
 20
109.949951
 11
79.322174
 21
109.949951
  0
LINE
  8
0
 10
51.216400
 20
111.306244
 11
54.800507
 21
111.306244
  0
LINE
  8
0
 10
53.000031
 20
113.098297
 11
53.000031
 21
109.400757
  0
LINE
  8
0
 10
71.790985
 20
111.299957
 11
80.751282
 21
111.299957
  0
ARC
  8
0
 10
13.208584
 20
51.211704
 40
0.933333
 50
225.164139
 51
252.575394
  0
ARC
  8
0
 10
16.841946
 20
51.211704
 40
0.933332
 50
287.424652
 51
0.000000
  0
ARC
  8
0
 10
15.025280
 20
56.999996
 40
6.999999
 50
252.575439
 51
287.424591
  0
CIRCLE
  8
0
 62
     2
 10
-51.999989
 20
118.000000
 40
2.500000
  0
CIRCLE
  8
0
 62
     2
 10
-51.999989
 20
61.999973
 40
2.500000
  0
CIRCLE
  8
0
 10
-12.999973
 20
89.999985
 40
2.250000
  0
CIRCLE
  8
0
 10
32.000027
 20
56.999973
 40
2.250000
  0
CIRCLE
  8
0
 10
47.000027
 20
89.999985
 40
2.250000
  0
CIRCLE
  8
0
 10
32.000027
 20
123.000000
 40
2.250000
  0
ARC
  8
0
 10
-30.453709
 20
86.535889
 40
2.453746
 50
331.927582
 51
28.072393
  0
ARC
  8
0
 10
-30.453709
 20
93.464081
 40
2.453746
 50
331.927582
 51
28.072393
  0
ARC
  8
0
 10
-37.381947
 20
89.999985
 40
9.381962
 50
345.750000
 51
14.249960
  0
ARC
  8
0
 10
-33.546238
 20
93.464081
 40
2.453748
 50
151.927612
 51
208.072388
  0
ARC
  8
0
 10
-26.618031
 20
89.999985
 40
9.381963
 50
165.749985
 51
194.249908
  0
ARC
  8
0
 10
-33.546238
 20
86.535889
 40
2.453748
 50
151.927612
 51
208.072388
  0
ARC
  8
0
 10
-28.026234
 20
93.464081
 40
2.453748
 50
151.927612
 51
208.072388
  0
ARC
  8
0
 10
-21.098011
 20
89.999985
 40
9.381963
 50
165.749985
 51
194.249908
  0
ARC
  8
0
 10
-28.026234
 20
86.535889
 40
2.453748
 50
151.927612
 51
208.072388
  0
ARC
  8
0
 10
32.000027
 20
56.999973
 40
4.499999
 50
308.942505
 51
231.057480
  0
CIRCLE
  8
0
 10
-12.999973
 20
89.999985
 40
4.500000
  0
CIRCLE
  8
0
 10
47.000027
 20
89.999985
 40
4.500000
  0
ARC
  8
0
 10
32.000027
 20
123.000000
 40
4.499997
 50
128.943024
 51
51.056984
  0
CIRCLE
  8
0
 10
-51.999989
 20
118.000000
 40
2.100000
  0
CIRCLE
  8
0
 10
-51.999989
 20
61.999973
 40
2.100000
  0
ARC
  8
0
 10
-141.841965
 20
51.211750
 40
0.933334
 50
180.000000
 51
252.575790
  0
ARC
  8
0
 10
-140.025314
 20
57.000042
 40
7.000003
 50
252.575348
 51
287.424530
  0
ARC
  8
0
 10
-138.208633
 20
51.211750
 40
0.933330
 50
287.424225
 51
314.836395
  0
CIRCLE
  8
0
 10
-133.000046
 20
107.000015
 40
5.500000
  0
CIRCLE
  8
0
 10
-133.000046
 20
73.000038
 40
5.500000
  0
CIRCLE
  8
0
 62
     2
 10
-133.000046
 20
123.000046
 40
2.000000
  0
CIRCLE
  8
0
 62
     2
 10
-133.000046
 20
57.000019
 40
2.000000
  0
CIRCLE
  8
0
 10
-133.000046
 20
107.000015
 40
5.000000
  0
CIRCLE
  8
0
 10
-133.000046
 20
73.000038
 40
5.000000
  0
CIRCLE
  8
0
 10
-133.000046
 20
107.000015
 40
4.500000
  0
CIRCLE
  8
0
 10
-133.000046
 20
73.000038
 40
4.500000
  0
ARC
  8
0
 10
-138.208633
 20
51.211750
 40
0.933330
 50
287.424225
 51
314.836395
  0
CIRCLE
  8
0
 10
-133.000046
 20
123.000046
 40
1.650000
  0
CIRCLE
  8
0
 10
-133.000046
 20
57.000019
 40
1.650000
  0
ARC
  8
0
 10
135.158203
 20
51.211758
 40
0.933334
 50
180.000000
 51
252.575790
  0
ARC
  8
0
 10
138.791534
 20
51.211758
 40
0.933330
 50
287.424225
 51
314.835236
  0
CIRCLE
  8
0
 10
144.000092
 20
107.000023
 40
14.000001
  0
CIRCLE
  8
0
 10
144.000092
 20
73.000046
 40
14.000001
  0
ARC
  8
0
 10
131.600067
 20
95.700020
 40
2.099998
 50
270.000000
 51
90.000000
  0
ARC
  8
0
 10
156.383652
 20
95.700020
 40
2.099998
 50
90.000000
 51
270.000000
  0
ARC
  8
0
 10
144.000092
 20
123.883553
 40
2.100006
 50
180.000000
 51
0.000000
  0
ARC
  8
0
 10
156.383652
 20
118.200020
 40
2.099998
 50
90.000000
 51
270.000000
  0
ARC
  8
0
 10
131.600067
 20
118.200020
 40
2.099998
 50
270.000000
 51
90.000000
  0
ARC
  8
0
 10
136.974869
 20
57.000050
 40
7.000003
 50
252.575348
 51
287.424530
  0
CIRCLE
  8
0
 62
     2
 10
52.000008
 20
7.000015
 40
2.500000
  0
ARC
  8
0
 10
-35.072548
 20
-2.000000
 40
7.072560
 50
343.573639
 51
16.426317
  0
ARC
  8
0
 10
-28.927439
 20
-2.000000
 40
7.072558
 50
163.573624
 51
196.426300
  0
ARC
  8
0
 10
-23.407450
 20
-2.000000
 40
7.072560
 50
163.573639
 51
196.426300
  0
ARC
  8
0
 10
-28.927439
 20
2.000015
 40
7.072561
 50
188.128342
 51
196.426315
  0
ARC
  8
0
 10
-23.407450
 20
2.000015
 40
7.072559
 50
188.128342
 51
196.426315
  0
ARC
  8
0
 10
-35.072548
 20
2.000015
 40
7.072559
 50
343.573608
 51
351.871674
  0
CIRCLE
  8
0
 10
10.999990
 20
7.000015
 40
1.749999
  0
ARC
  8
0
 10
14.999990
 20
14.000000
 40
3.499999
 50
134.415298
 51
315.584625
  0
ARC
  8
0
 10
6.999990
 20
0.000000
 40
3.500000
 50
0.000000
 51
101.109093
  0
ARC
  8
0
 10
6.999990
 20
0.000000
 40
3.500000
 50
314.415161
 51
0.000000
  0
CIRCLE
  8
0
 10
14.999990
 20
14.000000
 40
2.749999
  0
CIRCLE
  8
0
 10
7.000006
 20
0.000000
 40
2.749999
  0
ARC
  8
0
 10
1.500006
 20
7.000015
 40
6.000000
 50
300.000092
 51
59.999931
  0
ARC
  8
0
 10
10.999990
 20
7.000015
 40
5.500000
 50
143.960602
 51
216.039322
  0
CIRCLE
  8
0
 62
     2
 10
2.000006
 20
7.000015
 40
2.500000
  0
CIRCLE
  8
0
 10
2.000006
 20
7.000015
 40
2.100000
  0
CIRCLE
  8
0
 10
52.000008
 20
7.000015
 40
2.100000
  0
ARC
  8
0
 62
     4
 10
-107.639130
 20
-98.859520
 40
2.050003
 50
180.000000
 51
270.000000
  0
ARC
  8
0
 62
     4
 10
-107.639130
 20
-98.859520
 40
2.050003
 50
270.000000
 51
0.000000
  0
CIRCLE
  8
0
 62
     4
 10
-61.096390
 20
-53.759521
 40
1.250000
  0
CIRCLE
  8
0
 62
     4
 10
-61.096390
 20
-53.759521
 40
1.400000
  0
ARC
  8
0
 62
     4
 10
51.671814
 20
-98.859520
 40
2.049999
 50
180.000000
 51
270.000000
  0
ARC
  8
0
 62
     4
 10
51.671814
 20
-98.859520
 40
2.050003
 50
271.259888
 51
0.000000
  0
CIRCLE
  8
0
 62
     4
 10
114.443695
 20
-49.050514
 40
0.250000
  0
CIRCLE
  8
0
 62
     4
 10
113.831818
 20
-48.391357
 40
0.450000
  0
CIRCLE
  8
0
 62
     4
 10
113.831818
 20
-48.391357
 40
0.250000
  0
ARC
  8
0
 62
     4
 10
114.214539
 20
-48.709511
 40
3.300002
 50
137.014145
 51
222.985855
  0
CIRCLE
  8
0
 62
     4
 10
96.714539
 20
-48.709511
 40
1.250000
  0
CIRCLE
  8
0
 62
     4
 10
96.714539
 20
-48.709511
 40
1.400000
  0
CIRCLE
  8
0
 62
     4
 10
114.121887
 20
-48.709511
 40
1.300000
  0
CIRCLE
  8
0
 62
     4
 10
114.443695
 20
-49.050514
 40
0.450000
  0
CIRCLE
  8
0
 10
53.000031
 20
111.299957
 40
1.250000
  0
CIRCLE
  8
0
 10
53.000031
 20
111.299957
 40
1.000000
  0
POLYLINE
  8
0
 66
     1
  0
VERTEX
  8
0
 10
79.322174
 20
112.649963
  0
VERTEX
  8
0
 10
79.597122
 20
112.339630
  0
VERTEX
  8
0
 10
79.722168
 20
111.974976
  0
VERTEX
  8
0
 10
79.597191
 20
111.628410
  0
VERTEX
  8
0
 10
79.322174
 20
111.299957
  0
VERTEX
  8
0
 10
79.047165
 20
110.971519
  0
VERTEX
  8
0
 10
78.922180
 20
110.624969
  0
VERTEX
  8
0
 10
79.047226
 20
110.260300
  0
VERTEX
  8
0
 10
79.322174
 20
109.949951
  0
SEQEND
  0
TEXT
  8
0
 10
196.250259
 20
180.830002
 40
6.300000
  1
Ver. 1.0
 50
0.000000
 41
1.052632
 51
0.000000
  7
STANDARD
  0
TEXT
  8
0
 10
167.564667
 20
-192.100006
 40
9.000000
  1
KOGANEI CORP.
 50
0.000000
 41
1.052632
 51
0.000000
  7
STANDARD
  0
TEXT
  8
0
 10
-275.449738
 20
180.830002
 40
6.300000
  1
TWIN ROD CYLINDER
 50
0.000000
 41
1.052632
 51
0.000000
  7
STANDARD
  0
TEXT
  8
0
 10
-270.049713
 20
155.830002
 40
6.300000
  1
MODEL:TBDAK25*ST(10)-RL
 50
0.000000
 41
1.052632
 51
0.000000
  7
STANDARD
  0
TEXT
  8
0
 62
     3
 10
-52.862728
 20
157.753006
 40
4.500000
  1
STRETCH LINE C
 50
0.000000
 41
1.052632
 51
0.000000
  7
STANDARD
  0
TEXT
  8
0
 62
     3
 10
10.137272
 20
147.753006
 40
4.500000
  1
STRETCH LINE A
 50
0.000000
 41
1.052632
 51
0.000000
  7
STANDARD
  0
TEXT
  8
0
 62
     3
 10
28.137272
 20
137.753006
 40
4.500000
  1
STRETCH LINE B
 50
0.000000
 41
1.052632
 51
0.000000
  7
STANDARD
  0
TEXT
  8
0
 10
-258.127045
 20
-154.550003
 40
4.500000
  1
PLACE
 50
0.000000
 41
1.052632
 51
0.000000
  7
STANDARD
  0
TEXT
  8
0
 10
-220.142654
 20
-147.050003
 40
4.500000
  1
10
 50
0.000000
 41
1.052632
 51
0.000000
  7
STANDARD
  0
TEXT
  8
0
 10
-212.642654
 20
-131.050003
 40
4.500000
  1
STRETCH LIST
 50
0.000000
 41
1.052632
 51
0.000000
  7
STANDARD
  0
TEXT
  8
0
 10
-70.642654
 20
-132.050003
 40
4.500000
  1
(mm)
 50
0.000000
 41
1.052632
 51
0.000000
  7
STANDARD
  0
TEXT
  8
0
 10
-267.127045
 20
-140.050003
 40
4.500000
  1
STROKE
 50
0.000000
 41
1.052632
 51
0.000000
  7
STANDARD
  0
TEXT
  8
0
 10
-267.127045
 20
-148.550003
 40
4.500000
  1
STRETCH
 50
0.000000
 41
1.052632
 51
0.000000
  7
STANDARD
  0
TEXT
  8
0
 10
-251.585724
 20
-163.320007
 40
4.800000
  1
A
 50
0.000000
 41
1.052632
 51
0.000000
  7
STANDARD
  0
TEXT
  8
0
 10
-251.585724
 20
-173.320007
 40
4.800000
  1
B
 50
0.000000
 41
1.052632
 51
0.000000
  7
STANDARD
  0
TEXT
  8
0
 10
-251.585724
 20
-183.320007
 40
4.800000
  1
C
 50
0.000000
 41
1.052632
 51
0.000000
  7
STANDARD
  0
TEXT
  8
0
 10
-198.142853
 20
-147.050003
 40
4.500000
  1
20
 50
0.000000
 41
1.052632
 51
0.000000
  7
STANDARD
  0
TEXT
  8
0
 10
-176.142853
 20
-147.050003
 40
4.500000
  1
30
 50
0.000000
 41
1.052632
 51
0.000000
  7
STANDARD
  0
TEXT
  8
0
 10
-154.142853
 20
-147.050003
 40
4.500000
  1
40
 50
0.000000
 41
1.052632
 51
0.000000
  7
STANDARD
  0
TEXT
  8
0
 10
-132.142853
 20
-147.050003
 40
4.500000
  1
50
 50
0.000000
 41
1.052632
 51
0.000000
  7
STANDARD
  0
TEXT
  8
0
 10
-110.142853
 20
-147.050003
 40
4.500000
  1
60
 50
0.000000
 41
1.052632
 51
0.000000
  7
STANDARD
  0
TEXT
  8
0
 10
-217.892853
 20
-163.050003
 40
4.500000
  1
0
 50
0.000000
 41
1.052632
 51
0.000000
  7
STANDARD
  0
TEXT
  8
0
 10
-217.892853
 20
-173.049988
 40
4.500000
  1
0
 50
0.000000
 41
1.052632
 51
0.000000
  7
STANDARD
  0
TEXT
  8
0
 10
-217.892853
 20
-183.049973
 40
4.500000
  1
0
 50
0.000000
 41
1.052632
 51
0.000000
  7
STANDARD
  0
TEXT
  8
0
 10
-198.142853
 20
-183.049973
 40
4.500000
  1
10
 50
0.000000
 41
1.052632
 51
0.000000
  7
STANDARD
  0
TEXT
  8
0
 10
-176.142853
 20
-183.049973
 40
4.500000
  1
20
 50
0.000000
 41
1.052632
 51
0.000000
  7
STANDARD
  0
TEXT
  8
0
 10
-154.142853
 20
-183.049973
 40
4.500000
  1
30
 50
0.000000
 41
1.052632
 51
0.000000
  7
STANDARD
  0
TEXT
  8
0
 10
-132.142853
 20
-183.049973
 40
4.500000
  1
40
 50
0.000000
 41
1.052632
 51
0.000000
  7
STANDARD
  0
TEXT
  8
0
 10
-110.142853
 20
-183.049973
 40
4.500000
  1
50
 50
0.000000
 41
1.052632
 51
0.000000
  7
STANDARD
  0
TEXT
  8
0
 10
-88.142853
 20
-183.049973
 40
4.500000
  1
60
 50
0.000000
 41
1.052632
 51
0.000000
  7
STANDARD
  0
TEXT
  8
0
 10
-88.142853
 20
-147.050003
 40
4.500000
  1
70
 50
0.000000
 41
1.052632
 51
0.000000
  7
STANDARD
  0
TEXT
  8
0
 10
-66.142853
 20
-183.049973
 40
4.500000
  1
70
 50
0.000000
 41
1.052632
 51
0.000000
  7
STANDARD
  0
TEXT
  8
0
 10
-66.142853
 20
-147.050003
 40
4.500000
  1
80
 50
0.000000
 41
1.052632
 51
0.000000
  7
STANDARD
  0
TEXT
  8
0
 10
-195.892853
 20
-163.050003
 40
4.500000
  1
0
 50
0.000000
 41
1.052632
 51
0.000000
  7
STANDARD
  0
TEXT
  8
0
 10
-198.142853
 20
-173.049988
 40
4.500000
  1
10
 50
0.000000
 41
1.052632
 51
0.000000
  7
STANDARD
  0
TEXT
  8
0
 10
-173.892853
 20
-163.050003
 40
4.500000
  1
5
 50
0.000000
 41
1.052632
 51
0.000000
  7
STANDARD
  0
TEXT
  8
0
 10
-176.142853
 20
-173.049988
 40
4.500000
  1
15
 50
0.000000
 41
1.052632
 51
0.000000
  7
STANDARD
  0
TEXT
  8
0
 10
-154.142853
 20
-173.049988
 40
4.500000
  1
20
 50
0.000000
 41
1.052632
 51
0.000000
  7
STANDARD
  0
TEXT
  8
0
 10
-132.142853
 20
-173.049988
 40
4.500000
  1
25
 50
0.000000
 41
1.052632
 51
0.000000
  7
STANDARD
  0
TEXT
  8
0
 10
-110.142853
 20
-173.049988
 40
4.500000
  1
30
 50
0.000000
 41
1.052632
 51
0.000000
  7
STANDARD
  0
TEXT
  8
0
 10
-88.142853
 20
-173.049988
 40
4.500000
  1
35
 50
0.000000
 41
1.052632
 51
0.000000
  7
STANDARD
  0
TEXT
  8
0
 10
-66.142853
 20
-173.049988
 40
4.500000
  1
40
 50
0.000000
 41
1.052632
 51
0.000000
  7
STANDARD
  0
TEXT
  8
0
 10
-154.142853
 20
-163.050003
 40
4.500000
  1
10
 50
0.000000
 41
1.052632
 51
0.000000
  7
STANDARD
  0
TEXT
  8
0
 10
-132.142853
 20
-163.050003
 40
4.500000
  1
15
 50
0.000000
 41
1.052632
 51
0.000000
  7
STANDARD
  0
TEXT
  8
0
 10
-110.142853
 20
-163.050003
 40
4.500000
  1
20
 50
0.000000
 41
1.052632
 51
0.000000
  7
STANDARD
  0
TEXT
  8
0
 10
-88.142853
 20
-163.050003
 40
4.500000
  1
25
 50
0.000000
 41
1.052632
 51
0.000000
  7
STANDARD
  0
TEXT
  8
0
 10
-66.142853
 20
-163.050003
 40
4.500000
  1
30
 50
0.000000
 41
1.052632
 51
0.000000
  7
STANDARD
  0
ENDSEC
  0
EOF
