  0
SECTION
  2
HEADER
  0
ENDSEC
  0
SECTION
  2
TABLES
  0
TABLE
  2
LTYPE
 70
     4
  0
LTYPE
  2
CONTINUOUS
 70
    64
  3
Solid line
 72
    65
 73
     0
 40
0.000000
  0
LTYPE
  2
DASHED
 70
    64
  3
__ __ __ __ __ __ __ __ __ __ __ __ __ __ __
 72
    65
 73
     2
 40
3.500000
 49
2.000000
 49
-1.500000
  0
LTYPE
  2
CENTER
 70
    64
  3
____ _ ____ _ ____ _ ____ _ ____ _ ____ _ ____
 72
    65
 73
     4
 40
17.500000
 49
13.000000
 49
-1.500000
 49
1.500000
 49
-1.500000
  0
LTYPE
  2
PHANTOM
 70
    64
  3
_____ _ _ _____ _ _ _____ _ _ _____ _ _ ____  
 72
    65
 73
     6
 40
15.500000
 49
8.000000
 49
-1.500000
 49
1.500000
 49
-1.500000
 49
1.500000
 49
-1.500000
  0
LTYPE
  2
DASHED1
 70
    64
  3
__ __ __ __ __ __ __ __ __ __ __ __ __ __ __
 72
    65
 73
     2
 40
1.500000
 49
1.000000
 49
-0.500000
  0
LTYPE
  2
DASHED2
 70
    64
  3
__ __ __ __ __ __ __ __ __ __ __ __ __ __ __
 72
    65
 73
     2
 40
3.500000
 49
2.500000
 49
-1.000000
  0
LTYPE
  2
DASHED3
 70
    64
  3
__ __ __ __ __ __ __ __ __ __ __ __ __ __ __
 72
    65
 73
     2
 40
6.000000
 49
4.000000
 49
-2.000000
  0
LTYPE
  2
DASHED4
 70
    64
  3
__ __ __ __ __ __ __ __ __ __ __ __ __ __ __
 72
    65
 73
     2
 40
12.000000
 49
10.000000
 49
-2.000000
  0
LTYPE
  2
DASHED5
 70
    64
  3
__ __ __ __ __ __ __ __ __ __ __ __ __ __ __
 72
    65
 73
     2
 40
17.000000
 49
15.000000
 49
-2.000000
  0
LTYPE
  2
DASHED6
 70
    64
  3
__ __ __ __ __ __ __ __ __ __ __ __ __ __ __
 72
    65
 73
     2
 40
29.000000
 49
27.000000
 49
-2.000000
  0
LTYPE
  2
PHANTOM1
 70
    64
  3
_____ _ _ _____ _ _ _____ _ _ _____ _ _ ____  
 72
    65
 73
     6
 40
31.000000
 49
25.000000
 49
-1.500000
 49
1.000000
 49
-1.000000
 49
1.000000
 49
-1.500000
  0
LTYPE
  2
PHANTOM2
 70
    64
  3
_____ _ _ _____ _ _ _____ _ _ _____ _ _ ____  
 72
    65
 73
     6
 40
36.000000
 49
27.000000
 49
-1.500000
 49
2.500000
 49
-1.000000
 49
2.500000
 49
-1.500000
  0
LTYPE
  2
PHANTOM3
 70
    64
  3
_____ _ _ _____ _ _ _____ _ _ _____ _ _ ____  
 72
    65
 73
     6
 40
78.000000
 49
64.000000
 49
-2.000000
 49
4.000000
 49
-2.000000
 49
4.000000
 49
-2.000000
  0
LTYPE
  2
CENTER1
 70
    64
  3
____ _ ____ _ ____ _ ____ _ ____ _ ____ _ ____
 72
    65
 73
     4
 40
19.000000
 49
14.000000
 49
-1.000000
 49
3.000000
 49
-1.000000
  0
LTYPE
  2
CENTER2
 70
    64
  3
____ _ ____ _ ____ _ ____ _ ____ _ ____ _ ____
 72
    65
 73
     4
 40
28.500000
 49
25.000000
 49
-1.000000
 49
1.500000
 49
-1.000000
  0
LTYPE
  2
CENTER3
 70
    64
  3
____ _ ____ _ ____ _ ____ _ ____ _ ____ _ ____
 72
    65
 73
     4
 40
31.500000
 49
27.000000
 49
-1.000000
 49
2.500000
 49
-1.000000
  0
LTYPE
  2
CENTER4
 70
    64
  3
____ _ ____ _ ____ _ ____ _ ____ _ ____ _ ____
 72
    65
 73
     4
 40
50.000000
 49
45.000000
 49
-1.000000
 49
3.000000
 49
-1.000000
  0
LTYPE
  2
CENTER5
 70
    64
  3
____ _ ____ _ ____ _ ____ _ ____ _ ____ _ ____
 72
    65
 73
     4
 40
100.000000
 49
92.000000
 49
-2.000000
 49
4.000000
 49
-2.000000
  0
LTYPE
  2
SBK1
 70
    64
  3
______ _ _ _ ______ _ _ _ ______ _ _ _ _____  
 72
    65
 73
     8
 40
60.500000
 49
45.000000
 49
-2.000000
 49
2.500000
 49
-2.000000
 49
2.500000
 49
-2.000000
 49
2.500000
 49
-2.000000
  0
LTYPE
  2
SBK2
 70
    64
  3
______ _ _ _ ______ _ _ _ ______ _ _ _ _____  
 72
    65
 73
     8
 40
84.000000
 49
64.000000
 49
-2.000000
 49
4.000000
 49
-2.000000
 49
4.000000
 49
-2.000000
 49
4.000000
 49
-2.000000
  0
LTYPE
  2
STCH
 70
    64
  3
__ __ __ __ __ __ __ __ __ __ __ __ __ __ __
 72
    65
 73
     2
 40
3.000000
 49
1.000000
 49
-2.000000
  0
LTYPE
  2
MTCH
 70
    64
  3
_____ _ _ _____ _ _ _____ _ _ _____ _ _ ____  
 72
    65
 73
     6
 40
80.000000
 49
66.000000
 49
-2.000000
 49
4.000000
 49
-2.000000
 49
4.000000
 49
-2.000000
  0
ENDTAB
  0
TABLE
  2
LAYER
 70
     1
  0
LAYER
  2
0
 70
     0
 62
     7
  6
CONTINUOUS
  0
ENDTAB
  0
TABLE
  2
STYLE
 70
     1
  0
STYLE
  2
STANDARD
 70
     0
 40
0.000000
 41
1.000000
 50
0.000000
 71
     0
 42
0.200000
  3
txt
  4
BIGFONT
  0
ENDTAB
  0
TABLE
  2
VIEW
 70
     0
  0
ENDTAB
  0
ENDSEC
  0
SECTION
  2
BLOCKS
  0
ENDSEC
  0
SECTION
  2
ENTITIES
  0
LINE
  8
0
  6
PHANTOM
 62
     3
 10
-40.500000
 20
157.000000
 11
-40.500000
 21
31.750000
  0
LINE
  8
0
  6
PHANTOM
 62
     3
 10
29.500000
 20
137.000000
 11
29.500000
 21
31.750000
  0
LINE
  8
0
  6
PHANTOM
 62
     3
 10
7.500000
 20
147.000000
 11
7.500000
 21
31.750000
  0
LINE
  8
0
 10
-27.999977
 20
125.785706
 11
-27.999977
 21
54.214268
  0
LINE
  8
0
 10
64.000015
 20
125.785706
 11
64.000015
 21
54.214268
  0
LINE
  8
0
 10
-45.999962
 20
93.999992
 11
-45.999962
 21
86.000000
  0
LINE
  8
0
 10
-46.999977
 20
126.000008
 11
-46.999977
 21
53.999992
  0
LINE
  8
0
 10
-46.999977
 20
101.000000
 11
-27.999977
 21
101.000000
  0
LINE
  8
0
 10
-46.999977
 20
112.999992
 11
-27.999977
 21
112.999992
  0
LINE
  8
0
 10
-46.999977
 20
66.999977
 11
-27.999977
 21
66.999977
  0
LINE
  8
0
 10
-46.999977
 20
78.999985
 11
-27.999977
 21
78.999985
  0
LINE
  8
0
 10
-27.285690
 20
126.499969
 11
63.285728
 21
126.499969
  0
LINE
  8
0
  6
CENTER
 62
     2
 10
-59.399979
 20
106.999977
 11
-23.166645
 21
106.999977
  0
LINE
  8
0
  6
CENTER
 62
     2
 10
-59.799973
 20
89.999985
 11
69.916786
 21
89.999985
  0
LINE
  8
0
 10
-27.285690
 20
53.499977
 11
63.285728
 21
53.499977
  0
LINE
  8
0
 10
-56.999977
 20
125.999985
 11
-46.999977
 21
125.999985
  0
LINE
  8
0
 10
-56.999977
 20
53.999992
 11
-46.999977
 21
53.999992
  0
LINE
  8
0
 10
-46.999977
 20
86.000000
 11
-45.999977
 21
86.000000
  0
LINE
  8
0
 10
-46.999977
 20
93.999969
 11
-45.999977
 21
93.999969
  0
LINE
  8
0
  6
DASHED
 10
-46.999977
 20
110.160683
 11
-44.999977
 21
110.160683
  0
LINE
  8
0
 10
-46.999977
 20
103.839272
 11
-44.999977
 21
103.839272
  0
LINE
  8
0
 10
-44.999992
 20
110.160706
 11
-44.999992
 21
103.839294
  0
LINE
  8
0
 10
-44.999977
 20
110.160683
 11
-46.999977
 21
110.160683
  0
LINE
  8
0
 10
-44.999992
 20
76.160675
 11
-44.999992
 21
69.839294
  0
LINE
  8
0
 10
-44.999977
 20
69.839294
 11
-46.999977
 21
69.839294
  0
LINE
  8
0
 10
-44.999977
 20
76.160675
 11
-46.999977
 21
76.160675
  0
LINE
  8
0
  6
CENTER
 62
     2
 10
-55.499977
 20
61.999977
 11
-47.833313
 21
61.999977
  0
LINE
  8
0
  6
CENTER
 62
     2
 10
-55.833313
 20
117.999992
 11
-48.499977
 21
117.999992
  0
LINE
  8
0
  6
CENTER
 62
     2
 10
-51.999977
 20
122.166672
 11
-51.999977
 21
113.500008
  0
LINE
  8
0
  6
CENTER
 62
     2
 10
-51.999977
 20
66.833328
 11
-51.999977
 21
57.166649
  0
LINE
  8
0
  6
CENTER
 62
     2
 10
17.000023
 20
127.748993
 11
17.000023
 21
116.499992
  0
LINE
  8
0
  6
CENTER
 62
     2
 10
-12.999977
 20
95.500000
 11
-12.999977
 21
83.833328
  0
LINE
  8
0
  6
CENTER
 62
     2
 10
47.000023
 20
96.499992
 11
47.000023
 21
83.833328
  0
LINE
  8
0
  6
CENTER
 62
     2
 10
11.013023
 20
56.999977
 11
23.166691
 21
56.999977
  0
LINE
  8
0
  6
CENTER
 62
     2
 10
11.500015
 20
122.999992
 11
23.500031
 21
122.999992
  0
LINE
  8
0
  6
CENTER
 62
     2
 10
17.000023
 20
63.234741
 11
17.000023
 21
50.833313
  0
LINE
  8
0
 10
-35.711311
 20
94.618774
 11
-32.499989
 21
94.618774
  0
LINE
  8
0
 10
-35.711311
 20
92.309387
 11
-32.499989
 21
92.309387
  0
LINE
  8
0
 10
-35.711311
 20
87.690590
 11
-32.499989
 21
87.690590
  0
LINE
  8
0
 10
-35.711311
 20
85.381195
 11
-32.499989
 21
85.381195
  0
LINE
  8
0
 10
-32.499992
 20
94.618805
 11
-32.499992
 21
85.381195
  0
LINE
  8
0
 10
-30.479988
 20
94.118790
 11
-30.479988
 21
85.881210
  0
LINE
  8
0
 10
-35.999962
 20
94.118767
 11
-35.711277
 21
94.618782
  0
LINE
  8
0
 10
-35.999989
 20
85.881187
 11
-35.711300
 21
85.381172
  0
LINE
  8
0
 10
-30.191315
 20
94.618774
 11
-28.288673
 21
94.618774
  0
LINE
  8
0
 10
-30.191315
 20
85.381195
 11
-28.288651
 21
85.381195
  0
LINE
  8
0
 10
-27.999990
 20
94.118790
 11
-28.288662
 21
94.618782
  0
LINE
  8
0
 10
-27.999987
 20
85.881187
 11
-28.288664
 21
85.381180
  0
LINE
  8
0
 10
-30.479958
 20
94.118782
 11
-30.191278
 21
94.618790
  0
LINE
  8
0
 10
-30.480011
 20
85.881134
 11
-30.191334
 21
85.381142
  0
LINE
  8
0
 10
-30.191315
 20
87.690590
 11
-28.288651
 21
87.690590
  0
LINE
  8
0
 10
-30.191315
 20
92.309387
 11
-28.288651
 21
92.309387
  0
LINE
  8
0
 10
-32.499989
 20
92.499985
 11
-30.479988
 21
92.499985
  0
LINE
  8
0
 10
-32.499989
 20
87.499985
 11
-30.479988
 21
87.499985
  0
LINE
  8
0
 62
     2
 10
-32.499989
 20
87.904999
 11
-30.479988
 21
87.904999
  0
LINE
  8
0
 62
     2
 10
-32.499989
 20
92.094971
 11
-30.479988
 21
92.094971
  0
LINE
  8
0
  6
CENTER
 62
     2
 10
-58.999977
 20
73.000000
 11
-24.166641
 21
73.000000
  0
LINE
  8
0
 10
-56.999977
 20
126.000008
 11
-56.999977
 21
53.999992
  0
LINE
  8
0
 10
-35.999992
 20
93.999992
 11
-35.999992
 21
86.000000
  0
LINE
  8
0
 10
-27.285662
 20
126.499962
 11
-27.999949
 21
125.785675
  0
LINE
  8
0
 10
63.285717
 20
126.499962
 11
64.000000
 21
125.785683
  0
LINE
  8
0
 10
-27.999998
 20
54.214272
 11
-27.285711
 21
53.499989
  0
LINE
  8
0
 10
63.999992
 20
54.214325
 11
63.285702
 21
53.500034
  0
LINE
  8
0
 10
-11.145248
 20
94.099976
 11
45.145302
 21
94.099976
  0
LINE
  8
0
 10
-27.999977
 20
119.799988
 11
13.836182
 21
119.799988
  0
LINE
  8
0
 10
-27.999977
 20
116.599976
 11
64.000015
 21
116.599976
  0
LINE
  8
0
 10
-27.999977
 20
94.099976
 11
-14.854704
 21
94.099976
  0
LINE
  8
0
 10
-27.999977
 20
97.299988
 11
64.000015
 21
97.299988
  0
LINE
  8
0
 10
20.163872
 20
119.799988
 11
64.000015
 21
119.799988
  0
LINE
  8
0
 10
48.854759
 20
94.099976
 11
64.000015
 21
94.099976
  0
LINE
  8
0
 10
35.500031
 20
49.500000
 11
48.500023
 21
49.500000
  0
LINE
  8
0
 10
35.500038
 20
49.500000
 11
35.500038
 21
53.500004
  0
LINE
  8
0
 10
48.500015
 20
49.500000
 11
48.500015
 21
50.549870
  0
LINE
  8
0
 10
43.550529
 20
52.000000
 11
48.775261
 21
52.000000
  0
LINE
  8
0
 10
43.550522
 20
49.500000
 11
43.550522
 21
52.000000
  0
LINE
  8
0
 10
48.775261
 20
51.211723
 11
48.775261
 21
52.000015
  0
LINE
  8
0
 10
48.500015
 20
52.000000
 11
48.500015
 21
53.500004
  0
LINE
  8
0
 62
     2
 10
-44.999973
 20
76.160675
 11
-46.999973
 21
69.839294
  0
LINE
  8
0
 62
     2
 10
-44.999977
 20
69.839287
 11
-46.999977
 21
76.160675
  0
LINE
  8
0
 62
     2
 10
-44.999973
 20
110.160667
 11
-46.999973
 21
103.839294
  0
LINE
  8
0
 62
     2
 10
-44.999981
 20
103.839294
 11
-46.999977
 21
110.160667
  0
LINE
  8
0
 10
-147.285751
 20
126.500000
 11
-134.600052
 21
126.500000
  0
LINE
  8
0
  6
CENTER
 62
     2
 10
-150.259018
 20
90.000015
 11
-115.016548
 21
90.000015
  0
LINE
  8
0
  6
CENTER
 62
     2
 10
-139.748093
 20
107.000008
 11
-125.372887
 21
107.000008
  0
LINE
  8
0
  6
CENTER
 62
     2
 10
-140.057236
 20
73.000031
 11
-125.836601
 21
73.000031
  0
LINE
  8
0
 10
-147.500015
 20
126.000015
 11
-118.500023
 21
126.000015
  0
LINE
  8
0
 10
-147.500015
 20
54.000023
 11
-118.500023
 21
54.000023
  0
LINE
  8
0
  6
CENTER
 62
     2
 10
-133.000046
 20
130.062866
 11
-133.000046
 21
46.688663
  0
LINE
  8
0
 10
-118.500023
 20
126.000038
 11
-118.500023
 21
54.000023
  0
LINE
  8
0
 10
-147.500046
 20
126.000038
 11
-147.500046
 21
54.000023
  0
LINE
  8
0
 10
-148.000046
 20
125.785713
 11
-148.000046
 21
119.800018
  0
LINE
  8
0
 10
-118.000053
 20
125.785736
 11
-118.000053
 21
119.800018
  0
LINE
  8
0
  6
CENTER
 62
     2
 10
-136.192947
 20
57.000008
 11
-129.546326
 21
57.000008
  0
LINE
  8
0
 10
-148.000046
 20
94.099991
 11
-148.000046
 21
54.214298
  0
LINE
  8
0
 10
-131.400024
 20
126.500000
 11
-118.714317
 21
126.500000
  0
LINE
  8
0
 10
-118.000053
 20
94.099991
 11
-118.000053
 21
54.214298
  0
LINE
  8
0
 10
-147.285721
 20
53.500008
 11
-118.714317
 21
53.500008
  0
LINE
  8
0
 10
-130.500061
 20
74.443398
 11
-130.500061
 21
71.556656
  0
LINE
  8
0
 10
-135.500046
 20
74.443398
 11
-135.500046
 21
71.556656
  0
LINE
  8
0
 10
-135.500061
 20
74.443436
 11
-133.000046
 21
75.886818
  0
LINE
  8
0
 10
-133.000031
 20
70.113304
 11
-130.500046
 21
71.556686
  0
LINE
  8
0
 10
-133.000031
 20
75.886780
 11
-130.500031
 21
74.443405
  0
LINE
  8
0
 10
-135.500031
 20
71.556656
 11
-133.000031
 21
70.113281
  0
LINE
  8
0
 10
-135.500046
 20
108.443466
 11
-133.000061
 21
109.886833
  0
LINE
  8
0
 10
-135.500046
 20
108.443405
 11
-135.500046
 21
105.556656
  0
LINE
  8
0
 10
-135.500061
 20
105.556664
 11
-133.000031
 21
104.113274
  0
LINE
  8
0
 10
-133.000061
 20
104.113319
 11
-130.500076
 21
105.556686
  0
LINE
  8
0
 10
-130.500061
 20
108.443405
 11
-130.500061
 21
105.556656
  0
LINE
  8
0
 10
-133.000015
 20
109.886765
 11
-130.500031
 21
108.443398
  0
LINE
  8
0
  6
CENTER
 62
     2
 10
-136.621109
 20
123.000023
 11
-129.148834
 21
123.000023
  0
LINE
  8
0
 10
-118.000023
 20
82.100021
 11
-118.000023
 21
85.100029
  0
LINE
  8
0
 10
-147.285736
 20
126.499947
 11
-148.000015
 21
125.785645
  0
LINE
  8
0
 10
-118.714363
 20
126.500031
 11
-118.000069
 21
125.785736
  0
LINE
  8
0
 10
-148.000015
 20
54.214310
 11
-147.285736
 21
53.500042
  0
LINE
  8
0
 10
-118.000023
 20
54.214291
 11
-118.714302
 21
53.500004
  0
LINE
  8
0
 10
-118.000038
 20
97.300018
 11
-118.500023
 21
97.300018
  0
LINE
  8
0
 10
-118.000038
 20
94.099991
 11
-118.500023
 21
94.099991
  0
LINE
  8
0
 10
-148.000046
 20
116.599991
 11
-147.500046
 21
116.599991
  0
LINE
  8
0
 10
-148.000046
 20
119.800018
 11
-147.500046
 21
119.800018
  0
LINE
  8
0
 10
-134.600052
 20
126.500000
 11
-134.600052
 21
126.000015
  0
LINE
  8
0
 10
-131.400024
 20
126.500000
 11
-131.400024
 21
126.000015
  0
LINE
  8
0
 10
-148.000046
 20
94.099991
 11
-147.500046
 21
94.099991
  0
LINE
  8
0
 10
-148.000046
 20
97.300018
 11
-147.500046
 21
97.300018
  0
LINE
  8
0
 10
-148.000046
 20
116.599991
 11
-148.000046
 21
97.300018
  0
LINE
  8
0
 10
-118.000053
 20
119.800018
 11
-118.500023
 21
119.800018
  0
LINE
  8
0
 10
-118.000053
 20
116.599991
 11
-118.500023
 21
116.599991
  0
LINE
  8
0
 10
-118.000053
 20
116.599991
 11
-118.000053
 21
97.300018
  0
LINE
  8
0
 10
-142.500015
 20
49.500031
 11
-123.500023
 21
49.500031
  0
LINE
  8
0
 10
-123.500023
 20
53.500015
 11
-123.500023
 21
49.500031
  0
LINE
  8
0
 10
-142.500015
 20
53.500015
 11
-142.500015
 21
52.000031
  0
LINE
  8
0
 10
-137.550522
 20
52.000031
 11
-137.550522
 21
49.500031
  0
LINE
  8
0
 10
-137.550522
 20
52.000031
 11
-142.775284
 21
52.000031
  0
LINE
  8
0
 10
-142.775284
 20
51.211739
 11
-142.775284
 21
52.000031
  0
LINE
  8
0
 10
-142.500015
 20
50.549900
 11
-142.500015
 21
49.500031
  0
LINE
  8
0
  6
CENTER
 62
     2
 10
144.000122
 20
129.554932
 11
144.000122
 21
45.086029
  0
LINE
  8
0
 10
129.000122
 20
125.785774
 11
129.000122
 21
119.800056
  0
LINE
  8
0
 10
159.000122
 20
125.785774
 11
159.000122
 21
119.800034
  0
LINE
  8
0
 10
129.714417
 20
53.500046
 11
158.285858
 21
53.500046
  0
LINE
  8
0
 10
129.714417
 20
126.500038
 11
142.400116
 21
126.500038
  0
LINE
  8
0
  6
CENTER
 62
     2
 10
126.885345
 20
90.000053
 11
161.431091
 21
90.000053
  0
LINE
  8
0
  6
CENTER
 62
     2
 10
126.885345
 20
73.000069
 11
160.726074
 21
73.000069
  0
LINE
  8
0
  6
CENTER
 62
     2
 10
127.590393
 20
107.000046
 11
160.867096
 21
107.000046
  0
LINE
  8
0
 10
129.000122
 20
94.100029
 11
129.000122
 21
54.214336
  0
LINE
  8
0
 10
159.000122
 20
94.100006
 11
159.000122
 21
54.214336
  0
LINE
  8
0
 10
145.600128
 20
126.500038
 11
158.285858
 21
126.500038
  0
LINE
  8
0
 10
129.714417
 20
126.500053
 11
129.000122
 21
125.785774
  0
LINE
  8
0
 10
158.285797
 20
126.500053
 11
159.000092
 21
125.785774
  0
LINE
  8
0
 10
129.000137
 20
54.214355
 11
129.714432
 21
53.500069
  0
LINE
  8
0
 10
159.000092
 20
54.214367
 11
158.285812
 21
53.500072
  0
LINE
  8
0
 10
129.000122
 20
97.300056
 11
129.000122
 21
97.500053
  0
LINE
  8
0
 10
130.000275
 20
93.600044
 11
131.570160
 21
93.600044
  0
LINE
  8
0
 10
129.000183
 20
94.100044
 11
129.500153
 21
94.100044
  0
LINE
  8
0
 10
129.000183
 20
97.300056
 11
129.499847
 21
97.300056
  0
LINE
  8
0
 10
129.500092
 20
94.100082
 11
130.000076
 21
93.600090
  0
LINE
  8
0
 10
130.000153
 20
93.600044
 11
131.600159
 21
93.600044
  0
LINE
  8
0
 10
130.000153
 20
97.800041
 11
131.600159
 21
97.800041
  0
LINE
  8
0
 10
129.499969
 20
97.300148
 11
130.000000
 21
97.800179
  0
LINE
  8
0
 10
157.983673
 20
93.599998
 11
156.383667
 21
93.599998
  0
LINE
  8
0
 10
158.483475
 20
94.100212
 11
157.983490
 21
93.600235
  0
LINE
  8
0
 10
157.983673
 20
97.799995
 11
156.383667
 21
97.799995
  0
LINE
  8
0
 10
157.983719
 20
97.800102
 11
158.483719
 21
97.300110
  0
LINE
  8
0
 10
159.000153
 20
97.300034
 11
158.483704
 21
97.300034
  0
LINE
  8
0
 10
159.000153
 20
94.100006
 11
158.483673
 21
94.100006
  0
LINE
  8
0
  6
CENTER
 62
     2
 10
126.885345
 20
95.700043
 11
161.431091
 21
95.700043
  0
LINE
  8
0
  6
CENTER
 62
     2
 10
126.789948
 20
118.200043
 11
161.431091
 21
118.200043
  0
LINE
  8
0
 10
142.400085
 20
126.500038
 11
142.400085
 21
125.983574
  0
LINE
  8
0
 10
145.600128
 20
126.500038
 11
145.600128
 21
125.983574
  0
LINE
  8
0
 10
146.100128
 20
125.483566
 11
146.100128
 21
123.883575
  0
LINE
  8
0
 10
145.599960
 20
125.983360
 11
146.099945
 21
125.483368
  0
LINE
  8
0
 10
141.900146
 20
125.483589
 11
141.900146
 21
123.883575
  0
LINE
  8
0
 10
141.900208
 20
125.483566
 11
142.400192
 21
125.983559
  0
LINE
  8
0
 10
159.000153
 20
119.800034
 11
158.483704
 21
119.800034
  0
LINE
  8
0
 10
159.000153
 20
116.600006
 11
158.483673
 21
116.600006
  0
LINE
  8
0
 10
157.983673
 20
116.099998
 11
156.383667
 21
116.099998
  0
LINE
  8
0
 10
158.483490
 20
116.600204
 11
157.983505
 21
116.100212
  0
LINE
  8
0
 10
157.983673
 20
120.300003
 11
156.383667
 21
120.300003
  0
LINE
  8
0
 10
157.983704
 20
120.300125
 11
158.483688
 21
119.800133
  0
LINE
  8
0
 10
159.000122
 20
116.600006
 11
159.000122
 21
97.300041
  0
LINE
  8
0
 10
129.000122
 20
116.600029
 11
129.000122
 21
97.300056
  0
LINE
  8
0
 10
129.000122
 20
119.800056
 11
129.000122
 21
120.000038
  0
LINE
  8
0
 10
130.000275
 20
116.100037
 11
131.570160
 21
116.100037
  0
LINE
  8
0
 10
129.000183
 20
116.600044
 11
129.500153
 21
116.600044
  0
LINE
  8
0
 10
129.000183
 20
119.800056
 11
129.499847
 21
119.800056
  0
LINE
  8
0
 10
129.500107
 20
116.600060
 11
130.000092
 21
116.100067
  0
LINE
  8
0
 10
130.000153
 20
116.100037
 11
131.600159
 21
116.100037
  0
LINE
  8
0
 10
130.000153
 20
120.300041
 11
131.600159
 21
120.300041
  0
LINE
  8
0
 10
129.499954
 20
119.800133
 11
129.999985
 21
120.300163
  0
LINE
  8
0
 10
134.500153
 20
49.500069
 11
153.500122
 21
49.500069
  0
LINE
  8
0
 10
153.500122
 20
53.500053
 11
153.500122
 21
49.500069
  0
LINE
  8
0
 10
134.500153
 20
53.500053
 11
134.500153
 21
52.000069
  0
LINE
  8
0
 10
139.449646
 20
52.000069
 11
139.449646
 21
49.500069
  0
LINE
  8
0
 10
139.449646
 20
52.000069
 11
134.224884
 21
52.000069
  0
LINE
  8
0
 10
134.224884
 20
51.211777
 11
134.224884
 21
52.000069
  0
LINE
  8
0
 10
134.500153
 20
50.452110
 11
134.500153
 21
49.500069
  0
LINE
  8
0
 10
147.157288
 20
53.500053
 11
147.157288
 21
49.500069
  0
LINE
  8
0
 10
140.842987
 20
53.500053
 11
140.842987
 21
49.500069
  0
LINE
  8
0
  6
PHANTOM
 62
     3
 10
7.499998
 20
31.750000
 11
7.499998
 21
-13.500008
  0
LINE
  8
0
  6
PHANTOM
 62
     3
 10
-40.500000
 20
31.750000
 11
-40.500000
 21
-13.500008
  0
LINE
  8
0
  6
PHANTOM
 62
     3
 10
29.499998
 20
31.750000
 11
29.499998
 21
-13.500008
  0
LINE
  8
0
 10
-47.000000
 20
21.500004
 11
-47.000000
 21
12.100002
  0
LINE
  8
0
 10
-46.000015
 20
1.900005
 11
-46.000015
 21
-3.999973
  0
LINE
  8
0
 10
-28.000002
 20
21.285725
 11
-28.000002
 21
-7.285709
  0
LINE
  8
0
 10
63.999992
 20
21.285725
 11
63.999992
 21
-7.285709
  0
LINE
  8
0
 10
-27.285715
 20
22.000011
 11
63.285690
 21
22.000011
  0
LINE
  8
0
 10
-27.285715
 20
-7.999989
 11
63.999992
 21
-7.999989
  0
LINE
  8
0
  6
CENTER
 62
     2
 10
-59.399994
 20
7.000011
 11
68.595940
 21
7.000011
  0
LINE
  8
0
 10
-57.000008
 20
-7.500004
 11
-47.000008
 21
-7.500004
  0
LINE
  8
0
 10
-57.000008
 20
21.499996
 11
-47.000008
 21
21.499996
  0
LINE
  8
0
 10
-44.999992
 20
13.000011
 11
-28.000002
 21
13.000011
  0
LINE
  8
0
 10
-44.999992
 20
1.000011
 11
-28.000002
 21
1.000011
  0
LINE
  8
0
 10
-48.000000
 20
12.100002
 11
-48.000000
 21
1.900005
  0
LINE
  8
0
 10
-48.000000
 20
1.900005
 11
-44.999992
 21
1.900005
  0
LINE
  8
0
 10
-48.000000
 20
12.100002
 11
-44.999992
 21
12.100002
  0
LINE
  8
0
 10
-45.000000
 20
13.000011
 11
-45.000000
 21
12.100002
  0
LINE
  8
0
 10
-47.000000
 20
1.900005
 11
-47.000000
 21
-7.499973
  0
LINE
  8
0
  6
CENTER
 62
     2
 10
1.999998
 20
10.562679
 11
1.999998
 21
2.880154
  0
LINE
  8
0
  6
CENTER
 62
     2
 10
52.000000
 20
10.802746
 11
52.000000
 21
3.120251
  0
LINE
  8
0
 10
-47.000008
 20
-3.999989
 11
-46.000008
 21
-3.999989
  0
LINE
  8
0
 10
-45.000000
 20
1.900005
 11
-45.000000
 21
1.000027
  0
LINE
  8
0
 10
-36.000015
 20
0.000027
 11
-36.000015
 21
-3.500004
  0
LINE
  8
0
 10
-35.711311
 20
-3.999989
 11
-32.500015
 21
-3.999989
  0
LINE
  8
0
 10
-32.500015
 20
0.000027
 11
-32.500015
 21
-3.999973
  0
LINE
  8
0
 10
-30.480013
 20
0.000027
 11
-30.480013
 21
-3.500004
  0
LINE
  8
0
 10
-35.999989
 20
-3.499983
 11
-35.711315
 21
-3.999980
  0
LINE
  8
0
 10
-30.479982
 20
-3.499979
 11
-30.191309
 21
-3.999975
  0
LINE
  8
0
 10
-28.000015
 20
-3.499957
 11
-28.288691
 21
-3.999962
  0
LINE
  8
0
 10
-30.191339
 20
-3.999989
 11
-28.288675
 21
-3.999989
  0
LINE
  8
0
 10
-32.500015
 20
-2.499973
 11
-30.480013
 21
-2.499973
  0
LINE
  8
0
 62
     2
 10
-32.500015
 20
-2.094990
 11
-30.480013
 21
-2.094990
  0
LINE
  8
0
 10
-36.000015
 20
0.000027
 11
-36.000015
 21
1.000027
  0
LINE
  8
0
 10
-32.500015
 20
0.000027
 11
-32.500015
 21
1.000027
  0
LINE
  8
0
 10
-30.480013
 20
0.000027
 11
-30.480013
 21
1.000027
  0
LINE
  8
0
 10
-35.711311
 20
0.000027
 11
-32.500015
 21
0.000027
  0
LINE
  8
0
 10
-30.191339
 20
0.000027
 11
-28.288675
 21
0.000027
  0
LINE
  8
0
 10
-57.000000
 20
21.500004
 11
-57.000000
 21
-7.499973
  0
LINE
  8
0
 10
-27.285732
 20
22.000013
 11
-28.000021
 21
21.285727
  0
LINE
  8
0
 10
63.285656
 20
21.999990
 11
63.999947
 21
21.285696
  0
LINE
  8
0
 10
-28.000029
 20
-7.285715
 11
-27.285748
 21
-7.999996
  0
LINE
  8
0
 10
63.999966
 20
-7.285676
 11
63.285679
 21
-7.999961
  0
LINE
  8
0
 10
48.499992
 20
16.500004
 11
48.499992
 21
15.145657
  0
LINE
  8
0
 10
35.500015
 20
16.500004
 11
35.500015
 21
1.145657
  0
LINE
  8
0
 10
35.500008
 20
-2.500004
 11
36.854355
 21
-2.500004
  0
LINE
  8
0
 10
35.500008
 20
16.499996
 11
44.854340
 21
16.499996
  0
LINE
  8
0
  6
CENTER
 62
     2
 10
41.999992
 20
18.000011
 11
41.999992
 21
-3.999973
  0
LINE
  8
0
 10
47.145645
 20
16.499996
 11
48.500000
 21
16.499996
  0
LINE
  8
0
 10
48.499992
 20
12.854366
 11
48.499992
 21
11.582577
  0
LINE
  8
0
 10
35.500015
 20
-1.145634
 11
35.500015
 21
-2.500004
  0
LINE
  8
0
 10
39.145638
 20
-2.500004
 11
48.500000
 21
-2.500004
  0
LINE
  8
0
 10
48.499992
 20
2.417446
 11
48.499992
 21
-2.500004
  0
LINE
  8
0
 10
14.171568
 20
22.000011
 11
14.171568
 21
16.000019
  0
LINE
  8
0
 10
19.828428
 20
22.000011
 11
19.828428
 21
16.000019
  0
LINE
  8
0
 10
14.171568
 20
16.000011
 11
19.828436
 21
16.000011
  0
LINE
  8
0
 10
14.171568
 20
-1.999989
 11
19.828436
 21
-1.999989
  0
LINE
  8
0
 10
19.828428
 20
-1.999989
 11
19.828428
 21
-7.999989
  0
LINE
  8
0
 10
14.171568
 20
-1.999989
 11
14.171568
 21
-7.999989
  0
LINE
  8
0
 10
36.833309
 20
-1.166726
 11
39.166759
 21
1.166723
  0
LINE
  8
0
 10
36.833279
 20
1.166756
 11
39.166721
 21
-1.166689
  0
LINE
  8
0
 10
44.833256
 20
15.166739
 11
47.166721
 21
12.833273
  0
LINE
  8
0
 10
44.833275
 20
12.833250
 11
47.166729
 21
15.166704
  0
LINE
  8
0
 62
     4
 10
-37.341675
 20
-97.309509
 11
-32.596375
 21
-97.309509
  0
LINE
  8
0
 62
     4
 10
-41.096405
 20
-99.909515
 11
-37.340607
 21
-99.909515
  0
LINE
  8
0
 62
     4
 10
-35.840576
 20
-99.909515
 11
-32.596375
 21
-99.909515
  0
LINE
  8
0
 62
     4
 10
-63.096405
 20
-96.309525
 11
-41.096405
 21
-96.309525
  0
LINE
  8
0
 62
     4
 10
-58.396393
 20
-100.909523
 11
-41.096405
 21
-100.909523
  0
LINE
  8
0
 62
     4
 10
-41.096405
 20
-96.309525
 11
-41.096405
 21
-100.909523
  0
LINE
  8
0
 62
     4
 10
-63.096405
 20
-98.109520
 11
-63.096405
 21
-96.309525
  0
LINE
  8
0
 62
     4
 10
-58.396393
 20
-99.351486
 11
-58.396393
 21
-100.909523
  0
LINE
  8
0
 62
     4
 10
-63.096405
 20
-98.109520
 11
-58.846390
 21
-98.109520
  0
LINE
  8
0
  6
CENTER
 62
     1
 10
-61.096390
 20
-95.502808
 11
-61.096390
 21
-101.741425
  0
LINE
  8
0
 62
     4
 10
-58.846390
 20
-98.109520
 11
-58.846390
 21
-99.351486
  0
LINE
  8
0
 62
     4
 10
-59.096390
 20
-98.109520
 11
-59.096390
 21
-98.909523
  0
LINE
  8
0
 62
     4
 10
-63.096405
 20
-98.109520
 11
-63.096405
 21
-98.909523
  0
LINE
  8
0
 62
     4
 10
-63.096405
 20
-98.909523
 11
-59.096390
 21
-98.909523
  0
LINE
  8
0
 62
     4
 10
-58.896393
 20
-98.109520
 11
-58.896393
 21
-100.109520
  0
LINE
  8
0
 62
     4
 10
-58.896393
 20
-100.109520
 11
-58.396393
 21
-100.109520
  0
LINE
  8
0
 62
     4
 10
-58.846390
 20
-99.351486
 11
-58.396393
 21
-99.351486
  0
LINE
  8
0
 62
     4
 10
-32.596375
 20
-97.309509
 11
-32.596375
 21
-99.909515
  0
LINE
  8
0
  6
CENTER
 62
     1
 10
-34.319275
 20
-98.159439
 11
-22.387207
 21
-98.159439
  0
LINE
  8
0
  6
CENTER
 62
     1
 10
-34.268982
 20
-99.059433
 11
-22.345337
 21
-99.059433
  0
LINE
  8
0
 62
     4
 10
-22.596375
 20
-97.909454
 11
-22.596375
 21
-98.409454
  0
LINE
  8
0
 62
     4
 10
-22.596375
 20
-98.809448
 11
-22.596375
 21
-99.309448
  0
LINE
  8
0
 62
     4
 10
-25.596375
 20
-97.709442
 11
-25.596375
 21
-99.509460
  0
LINE
  8
0
 62
     4
 10
-32.596375
 20
-99.509445
 11
-28.590820
 21
-99.509445
  0
LINE
  8
0
 62
     4
 10
-32.596375
 20
-98.609421
 11
-29.110413
 21
-98.609421
  0
LINE
  8
0
 62
     4
 10
-27.610413
 20
-98.609421
 11
-25.596375
 21
-98.609421
  0
LINE
  8
0
 62
     4
 10
-27.090820
 20
-99.509445
 11
-25.596375
 21
-99.509445
  0
LINE
  8
0
 62
     4
 10
-32.596375
 20
-97.709427
 11
-29.630066
 21
-97.709427
  0
LINE
  8
0
 62
     4
 10
-28.130066
 20
-97.709427
 11
-25.596375
 21
-97.709427
  0
LINE
  8
0
 62
     4
 10
-25.596375
 20
-97.909439
 11
-22.596375
 21
-97.909439
  0
LINE
  8
0
 62
     4
 10
-25.596375
 20
-98.409439
 11
-22.596375
 21
-98.409439
  0
LINE
  8
0
 62
     4
 10
-25.596375
 20
-98.809433
 11
-22.596375
 21
-98.809433
  0
LINE
  8
0
 62
     4
 10
-25.596375
 20
-99.309433
 11
-22.596375
 21
-99.309433
  0
LINE
  8
0
 62
     1
 10
-28.860390
 20
-96.444504
 11
-26.360388
 21
-100.774628
  0
LINE
  8
0
  6
CENTER
 62
     1
 10
-42.410767
 20
-98.609512
 11
-32.596375
 21
-98.609512
  0
LINE
  8
0
 62
     1
 10
-30.360456
 20
-96.444473
 11
-27.860455
 21
-100.774597
  0
LINE
  8
0
 62
     1
 10
-37.841129
 20
-96.444450
 11
-35.341129
 21
-100.774582
  0
LINE
  8
0
 62
     1
 10
-39.341110
 20
-96.444519
 11
-36.841114
 21
-100.774635
  0
LINE
  8
0
 62
     4
 10
-62.121399
 20
-100.309525
 11
-60.071396
 21
-100.309525
  0
LINE
  8
0
 62
     4
 10
-60.070972
 20
-100.309967
 11
-59.845989
 21
-100.084976
  0
LINE
  8
0
 62
     4
 10
-62.121357
 20
-100.309540
 11
-62.346352
 21
-100.084549
  0
LINE
  8
0
 62
     4
 10
-62.346390
 20
-98.908707
 11
-62.346390
 21
-100.084526
  0
LINE
  8
0
 62
     1
 10
-62.121399
 20
-98.908707
 11
-62.121399
 21
-100.309525
  0
LINE
  8
0
 62
     1
 10
-60.071396
 20
-98.908707
 11
-60.071396
 21
-100.309525
  0
LINE
  8
0
 62
     4
 10
-59.846390
 20
-98.908707
 11
-59.846390
 21
-100.084518
  0
LINE
  8
0
 62
     4
 10
-62.346390
 20
-100.084526
 11
-59.846390
 21
-100.084526
  0
LINE
  8
0
 62
     4
 10
-62.346390
 20
-95.809525
 11
-62.346390
 21
-96.309525
  0
LINE
  8
0
 62
     1
 10
-62.121399
 20
-95.809525
 11
-62.121399
 21
-96.309525
  0
LINE
  8
0
 62
     1
 10
-60.071396
 20
-95.809525
 11
-60.071396
 21
-96.309525
  0
LINE
  8
0
 62
     4
 10
-59.846390
 20
-95.809525
 11
-59.846390
 21
-96.309525
  0
LINE
  8
0
 62
     4
 10
-62.346390
 20
-95.809525
 11
-59.846390
 21
-95.809525
  0
LINE
  8
0
 62
     4
 10
-63.096405
 20
-97.309525
 11
-41.096405
 21
-97.309525
  0
LINE
  8
0
 62
     4
 10
-63.096405
 20
-96.759506
 11
-41.096405
 21
-96.759506
  0
LINE
  8
0
 62
     4
 10
-41.096405
 20
-97.309509
 11
-38.841705
 21
-97.309509
  0
LINE
  8
0
 62
     4
 10
-108.889130
 20
-95.809525
 11
-106.389130
 21
-95.809525
  0
LINE
  8
0
  6
CENTER
 62
     1
 10
-107.639130
 20
-94.256554
 11
-107.639130
 21
-102.969315
  0
LINE
  8
0
 62
     4
 10
-109.689117
 20
-97.309525
 11
-109.689117
 21
-98.859520
  0
LINE
  8
0
 62
     4
 10
-109.689186
 20
-97.309502
 11
-109.139183
 21
-96.759491
  0
LINE
  8
0
 62
     4
 10
-109.139130
 20
-96.309525
 11
-109.139130
 21
-96.759521
  0
LINE
  8
0
 62
     4
 10
-109.139130
 20
-96.309525
 11
-106.139130
 21
-96.309525
  0
LINE
  8
0
 62
     4
 10
-106.139130
 20
-96.309525
 11
-106.139130
 21
-96.759521
  0
LINE
  8
0
 62
     4
 10
-105.589119
 20
-97.309471
 11
-106.139114
 21
-96.759460
  0
LINE
  8
0
 62
     4
 10
-105.589127
 20
-97.309525
 11
-105.589127
 21
-98.859520
  0
LINE
  8
0
 62
     4
 10
-109.689117
 20
-98.109520
 11
-105.589127
 21
-98.109520
  0
LINE
  8
0
 62
     4
 10
-109.689133
 20
-98.908707
 11
-105.589127
 21
-98.908707
  0
LINE
  8
0
 62
     4
 10
-108.664139
 20
-100.309525
 11
-106.614136
 21
-100.309525
  0
LINE
  8
0
 62
     4
 10
-106.613701
 20
-100.309998
 11
-106.388702
 21
-100.084984
  0
LINE
  8
0
 62
     4
 10
-108.664116
 20
-100.309563
 11
-108.889114
 21
-100.084564
  0
LINE
  8
0
 62
     4
 10
-108.889130
 20
-98.908707
 11
-108.889130
 21
-100.084526
  0
LINE
  8
0
 62
     1
 10
-108.664139
 20
-98.908707
 11
-108.664139
 21
-100.309525
  0
LINE
  8
0
 62
     1
 10
-106.614136
 20
-98.908707
 11
-106.614136
 21
-100.309525
  0
LINE
  8
0
 62
     4
 10
-106.389130
 20
-98.908707
 11
-106.389130
 21
-100.084518
  0
LINE
  8
0
 62
     4
 10
-108.889130
 20
-100.084526
 11
-106.389130
 21
-100.084526
  0
LINE
  8
0
 62
     4
 10
-108.889130
 20
-95.809525
 11
-108.889130
 21
-96.309525
  0
LINE
  8
0
 62
     1
 10
-108.664139
 20
-95.809525
 11
-108.664139
 21
-96.309525
  0
LINE
  8
0
 62
     1
 10
-106.614136
 20
-95.809525
 11
-106.614136
 21
-96.309525
  0
LINE
  8
0
 62
     4
 10
-106.389130
 20
-95.809525
 11
-106.389130
 21
-96.309525
  0
LINE
  8
0
  6
CENTER
 62
     1
 10
-65.896942
 20
-53.759521
 11
-35.688889
 21
-53.759521
  0
LINE
  8
0
 62
     4
 10
-63.096405
 20
-55.259521
 11
-41.096405
 21
-55.259521
  0
LINE
  8
0
 62
     4
 10
-63.096405
 20
-52.259521
 11
-41.096405
 21
-52.259521
  0
LINE
  8
0
 62
     4
 10
-63.096405
 20
-55.809525
 11
-41.096405
 21
-55.809525
  0
LINE
  8
0
 62
     4
 10
-63.096405
 20
-51.709518
 11
-41.096405
 21
-51.709518
  0
LINE
  8
0
 62
     4
 10
-63.096405
 20
-51.709518
 11
-63.096405
 21
-55.809525
  0
LINE
  8
0
 62
     4
 10
-41.096428
 20
-51.709518
 11
-41.096428
 21
-55.809525
  0
LINE
  8
0
  6
CENTER
 62
     1
 10
-61.096390
 20
-50.923019
 11
-61.096390
 21
-56.512344
  0
LINE
  8
0
 62
     4
 10
-62.141674
 20
-54.472595
 11
-60.408337
 21
-52.739258
  0
LINE
  8
0
 62
     4
 10
-61.788120
 20
-54.826176
 11
-60.154781
 21
-53.192837
  0
LINE
  8
0
 62
     1
 10
-40.007179
 20
-51.594425
 11
-37.507179
 21
-55.924553
  0
LINE
  8
0
 62
     4
 10
-41.096405
 20
-52.459518
 11
-39.507751
 21
-52.459518
  0
LINE
  8
0
 62
     4
 10
-41.096405
 20
-55.059525
 11
-38.006622
 21
-55.059525
  0
LINE
  8
0
 62
     4
 10
112.821899
 20
-85.654793
 11
112.821899
 21
-80.909485
  0
LINE
  8
0
 62
     4
 10
112.821899
 20
-89.409523
 11
112.821899
 21
-87.154778
  0
LINE
  8
0
 62
     4
 10
115.421875
 20
-84.153694
 11
115.421875
 21
-80.909485
  0
LINE
  8
0
 62
     4
 10
94.714539
 20
-96.309525
 11
110.814545
 21
-96.309525
  0
LINE
  8
0
 62
     4
 10
99.414520
 20
-100.909523
 11
116.714539
 21
-100.909523
  0
LINE
  8
0
 62
     4
 10
116.714539
 20
-89.409523
 11
116.714539
 21
-100.909523
  0
LINE
  8
0
 62
     4
 10
94.714539
 20
-98.909523
 11
94.714539
 21
-96.309525
  0
LINE
  8
0
 62
     4
 10
99.414520
 20
-99.291679
 11
99.414520
 21
-100.909523
  0
LINE
  8
0
  6
CENTER
 62
     1
 10
96.714539
 20
-95.579269
 11
96.714539
 21
-101.482193
  0
LINE
  8
0
 62
     4
 10
110.814514
 20
-89.409523
 11
110.814514
 21
-96.309525
  0
LINE
  8
0
 62
     4
 10
94.714539
 20
-98.109528
 11
98.988342
 21
-98.109528
  0
LINE
  8
0
 62
     4
 10
94.714539
 20
-98.909523
 11
98.714539
 21
-98.909523
  0
LINE
  8
0
 62
     4
 10
98.714539
 20
-98.109520
 11
98.714539
 21
-98.909523
  0
LINE
  8
0
 62
     4
 10
110.814545
 20
-89.409523
 11
116.714539
 21
-89.409523
  0
LINE
  8
0
 62
     4
 10
98.914520
 20
-100.109528
 11
99.414520
 21
-100.109528
  0
LINE
  8
0
 62
     4
 10
98.914520
 20
-98.109528
 11
98.914520
 21
-100.109528
  0
LINE
  8
0
 62
     4
 10
98.988342
 20
-99.291679
 11
99.414520
 21
-99.291679
  0
LINE
  8
0
 62
     4
 10
98.988342
 20
-98.109528
 11
98.988342
 21
-99.291679
  0
LINE
  8
0
 62
     4
 10
94.714539
 20
-97.309525
 11
116.714539
 21
-97.309525
  0
LINE
  8
0
 62
     4
 10
94.714539
 20
-96.759521
 11
116.714539
 21
-96.759521
  0
LINE
  8
0
 62
     4
 10
110.814514
 20
-95.159508
 11
116.714539
 21
-95.159508
  0
LINE
  8
0
 62
     4
 10
110.814514
 20
-95.909508
 11
116.714539
 21
-95.909508
  0
LINE
  8
0
 62
     4
 10
110.814514
 20
-90.909523
 11
116.714539
 21
-90.909523
  0
LINE
  8
0
 62
     4
 10
112.821899
 20
-80.909485
 11
115.421875
 21
-80.909485
  0
LINE
  8
0
  6
CENTER
 62
     1
 10
113.671814
 20
-82.632416
 11
113.671814
 21
-70.700333
  0
LINE
  8
0
  6
CENTER
 62
     1
 10
114.571808
 20
-82.582123
 11
114.571808
 21
-70.658478
  0
LINE
  8
0
 62
     4
 10
113.421814
 20
-70.909485
 11
113.921814
 21
-70.909485
  0
LINE
  8
0
 62
     4
 10
114.321808
 20
-70.909485
 11
114.821808
 21
-70.909485
  0
LINE
  8
0
 62
     4
 10
113.221802
 20
-73.909485
 11
115.021820
 21
-73.909485
  0
LINE
  8
0
 62
     4
 10
115.021820
 20
-80.909485
 11
115.021820
 21
-76.903938
  0
LINE
  8
0
 62
     4
 10
114.121796
 20
-80.909485
 11
114.121796
 21
-77.423553
  0
LINE
  8
0
 62
     4
 10
114.121796
 20
-75.923553
 11
114.121796
 21
-73.909485
  0
LINE
  8
0
 62
     4
 10
115.021820
 20
-75.403938
 11
115.021820
 21
-73.909485
  0
LINE
  8
0
 62
     4
 10
113.221802
 20
-80.909485
 11
113.221802
 21
-77.943176
  0
LINE
  8
0
 62
     4
 10
113.221802
 20
-76.443176
 11
113.221802
 21
-73.909485
  0
LINE
  8
0
 62
     4
 10
113.421814
 20
-73.909485
 11
113.421814
 21
-70.909485
  0
LINE
  8
0
 62
     4
 10
113.921814
 20
-73.909485
 11
113.921814
 21
-70.909485
  0
LINE
  8
0
 62
     4
 10
114.321808
 20
-73.909485
 11
114.321808
 21
-70.909485
  0
LINE
  8
0
 62
     4
 10
114.821808
 20
-73.909485
 11
114.821808
 21
-70.909485
  0
LINE
  8
0
 62
     1
 10
111.956955
 20
-77.173668
 11
116.287102
 21
-74.673645
  0
LINE
  8
0
  6
CENTER
 62
     1
 10
114.121887
 20
-90.723892
 11
114.121887
 21
-80.909485
  0
LINE
  8
0
 62
     1
 10
111.956856
 20
-78.673660
 11
116.287010
 21
-76.173645
  0
LINE
  8
0
 62
     1
 10
111.956825
 20
-86.154358
 11
116.286949
 21
-83.654350
  0
LINE
  8
0
 62
     1
 10
111.956871
 20
-87.654343
 11
116.286987
 21
-85.154350
  0
LINE
  8
0
 62
     4
 10
95.689514
 20
-100.309525
 11
97.739532
 21
-100.309525
  0
LINE
  8
0
 62
     4
 10
97.740097
 20
-100.310066
 11
97.965088
 21
-100.085068
  0
LINE
  8
0
 62
     4
 10
95.689598
 20
-100.309395
 11
95.464615
 21
-100.084412
  0
LINE
  8
0
 62
     4
 10
95.464539
 20
-98.909523
 11
95.464539
 21
-100.084526
  0
LINE
  8
0
 62
     1
 10
95.689514
 20
-98.909523
 11
95.689514
 21
-100.309525
  0
LINE
  8
0
 62
     1
 10
97.739532
 20
-98.909523
 11
97.739532
 21
-100.309525
  0
LINE
  8
0
 62
     4
 10
97.964539
 20
-98.909523
 11
97.964539
 21
-100.084518
  0
LINE
  8
0
 62
     4
 10
95.464539
 20
-100.084526
 11
97.964539
 21
-100.084526
  0
LINE
  8
0
 62
     4
 10
95.464539
 20
-95.809525
 11
95.464539
 21
-96.309525
  0
LINE
  8
0
 62
     1
 10
95.689514
 20
-95.809525
 11
95.689514
 21
-96.309525
  0
LINE
  8
0
 62
     1
 10
97.739532
 20
-95.809525
 11
97.739532
 21
-96.309525
  0
LINE
  8
0
 62
     4
 10
97.964539
 20
-95.809525
 11
97.964539
 21
-96.309525
  0
LINE
  8
0
 62
     4
 10
95.464539
 20
-95.809525
 11
97.964539
 21
-95.809525
  0
LINE
  8
0
 62
     4
 10
115.421875
 20
-89.409523
 11
115.421875
 21
-85.653687
  0
LINE
  8
0
 62
     4
 10
52.971802
 20
-85.653702
 11
52.971802
 21
-89.409523
  0
LINE
  8
0
 62
     4
 10
49.421814
 20
-90.909523
 11
53.921814
 21
-90.909523
  0
LINE
  8
0
 62
     4
 10
49.421814
 20
-89.409523
 11
49.421814
 21
-95.159523
  0
LINE
  8
0
 62
     4
 10
50.171764
 20
-95.909492
 11
49.421799
 21
-95.159531
  0
LINE
  8
0
 62
     4
 10
50.171814
 20
-96.759521
 11
50.171814
 21
-95.909523
  0
LINE
  8
0
 62
     4
 10
49.621777
 20
-97.309456
 11
50.171787
 21
-96.759445
  0
LINE
  8
0
 62
     4
 10
49.621796
 20
-97.309525
 11
49.621796
 21
-98.859520
  0
LINE
  8
0
 62
     4
 10
53.721802
 20
-97.309525
 11
53.721802
 21
-98.859520
  0
LINE
  8
0
 62
     4
 10
53.721794
 20
-97.309555
 11
53.171791
 21
-96.759552
  0
LINE
  8
0
 62
     4
 10
53.171814
 20
-96.759521
 11
53.171814
 21
-95.909523
  0
LINE
  8
0
 62
     4
 10
53.171894
 20
-95.909630
 11
53.921890
 21
-95.159630
  0
LINE
  8
0
 62
     4
 10
53.921814
 20
-89.409523
 11
53.921814
 21
-95.159523
  0
LINE
  8
0
  6
CENTER
 62
     1
 10
51.671814
 20
-83.748566
 11
51.671814
 21
-102.376190
  0
LINE
  8
0
 62
     4
 10
50.171814
 20
-96.309525
 11
53.171814
 21
-96.309525
  0
LINE
  8
0
 62
     4
 10
49.621796
 20
-98.109520
 11
53.721802
 21
-98.109520
  0
LINE
  8
0
 62
     4
 10
49.621796
 20
-98.911972
 11
53.721802
 21
-98.911972
  0
LINE
  8
0
 62
     4
 10
49.421814
 20
-89.409523
 11
53.921814
 21
-89.409523
  0
LINE
  8
0
 62
     1
 10
49.506836
 20
-87.654343
 11
53.836964
 21
-85.154350
  0
LINE
  8
0
 62
     4
 10
50.646790
 20
-100.309525
 11
52.696808
 21
-100.309525
  0
LINE
  8
0
 62
     4
 10
52.697315
 20
-100.310051
 11
52.922310
 21
-100.085052
  0
LINE
  8
0
 62
     4
 10
50.646858
 20
-100.309448
 11
50.421852
 21
-100.084442
  0
LINE
  8
0
 62
     4
 10
50.421814
 20
-98.911972
 11
50.421814
 21
-100.084526
  0
LINE
  8
0
 62
     1
 10
50.646790
 20
-98.911972
 11
50.646790
 21
-100.309525
  0
LINE
  8
0
 62
     1
 10
52.696808
 20
-98.911972
 11
52.696808
 21
-100.309525
  0
LINE
  8
0
 62
     4
 10
52.921814
 20
-98.911972
 11
52.921814
 21
-100.084518
  0
LINE
  8
0
 62
     4
 10
50.421814
 20
-100.084526
 11
52.921814
 21
-100.084526
  0
LINE
  8
0
 62
     4
 10
50.421814
 20
-95.809525
 11
50.421814
 21
-96.309525
  0
LINE
  8
0
 62
     1
 10
50.646790
 20
-95.809525
 11
50.646790
 21
-96.309525
  0
LINE
  8
0
 62
     1
 10
52.696808
 20
-95.809525
 11
52.696808
 21
-96.309525
  0
LINE
  8
0
 62
     4
 10
52.921814
 20
-95.809525
 11
52.921814
 21
-96.309525
  0
LINE
  8
0
 62
     4
 10
50.421814
 20
-95.809525
 11
52.921814
 21
-95.809525
  0
LINE
  8
0
 62
     4
 10
50.371826
 20
-87.154800
 11
50.371826
 21
-89.409523
  0
LINE
  8
0
  6
CENTER
 62
     1
 10
93.385345
 20
-48.709511
 11
118.294525
 21
-48.709511
  0
LINE
  8
0
 62
     4
 10
94.714539
 20
-50.209511
 11
111.275146
 21
-50.209511
  0
LINE
  8
0
 62
     4
 10
94.714539
 20
-47.209511
 11
111.275146
 21
-47.209511
  0
LINE
  8
0
 62
     4
 10
94.714539
 20
-50.759506
 11
111.628510
 21
-50.759506
  0
LINE
  8
0
 62
     4
 10
94.714539
 20
-46.659508
 11
111.628510
 21
-46.659508
  0
LINE
  8
0
 62
     4
 10
94.714539
 20
-46.659500
 11
94.714539
 21
-50.759506
  0
LINE
  8
0
  6
CENTER
 62
     1
 10
96.714539
 20
-45.873001
 11
96.714539
 21
-51.462326
  0
LINE
  8
0
 62
     4
 10
111.800507
 20
-46.459511
 11
116.714539
 21
-46.459511
  0
LINE
  8
0
 62
     4
 10
111.800507
 20
-50.959511
 11
116.714539
 21
-50.959511
  0
LINE
  8
0
 62
     4
 10
116.714539
 20
-46.459503
 11
116.714539
 21
-50.959503
  0
LINE
  8
0
 62
     4
 10
96.068794
 20
-49.779846
 11
97.784897
 21
-48.063740
  0
LINE
  8
0
 62
     4
 10
95.644516
 20
-49.355518
 11
97.360611
 21
-47.639423
  0
LINE
  8
0
 10
-281.250000
 20
195.500000
 11
282.099976
 21
195.500000
  0
LINE
  8
0
 10
-281.250000
 20
195.500000
 11
-281.250000
 21
-195.000000
  0
LINE
  8
0
 10
282.099976
 20
195.500000
 11
282.099976
 21
-195.000000
  0
LINE
  8
0
 10
-281.250000
 20
-195.000000
 11
282.099976
 21
-195.000000
  0
LINE
  8
0
 10
162.099976
 20
-175.000000
 11
162.099976
 21
-195.000000
  0
LINE
  8
0
 10
162.099976
 20
-175.000000
 11
282.099976
 21
-175.000000
  0
LINE
  8
0
 10
162.099976
 20
175.500000
 11
282.099976
 21
175.500000
  0
LINE
  8
0
 10
-281.250000
 20
175.500000
 11
-161.250000
 21
175.500000
  0
LINE
  8
0
 10
162.099976
 20
195.500000
 11
162.099976
 21
175.500000
  0
LINE
  8
0
 10
-161.250000
 20
195.500000
 11
-161.250000
 21
175.500000
  0
LINE
  8
0
 10
-271.250000
 20
-133.000000
 11
-271.250000
 21
-185.000000
  0
LINE
  8
0
 10
-271.250000
 20
-185.000000
 11
-50.250000
 21
-185.000000
  0
LINE
  8
0
 10
-271.250000
 20
-155.000015
 11
-50.250000
 21
-155.000015
  0
LINE
  8
0
 10
-271.250000
 20
-133.000000
 11
-50.250000
 21
-133.000000
  0
LINE
  8
0
 10
-226.250000
 20
-133.000000
 11
-226.250000
 21
-185.000000
  0
LINE
  8
0
 10
-204.250000
 20
-133.000000
 11
-204.250000
 21
-185.000000
  0
LINE
  8
0
 10
-182.250000
 20
-133.000000
 11
-182.250000
 21
-185.000000
  0
LINE
  8
0
 10
-160.250000
 20
-133.000000
 11
-160.250000
 21
-185.000000
  0
LINE
  8
0
 10
-138.250000
 20
-133.000000
 11
-138.250000
 21
-185.000000
  0
LINE
  8
0
 10
-116.250000
 20
-133.000000
 11
-116.250000
 21
-185.000000
  0
LINE
  8
0
 10
-94.250000
 20
-133.000000
 11
-94.250000
 21
-185.000000
  0
LINE
  8
0
 10
-50.250000
 20
-133.000000
 11
-50.250000
 21
-185.000000
  0
LINE
  8
0
 10
-271.250000
 20
-175.000015
 11
-50.250000
 21
-175.000015
  0
LINE
  8
0
 10
-271.250031
 20
-165.000000
 11
-50.250000
 21
-165.000000
  0
LINE
  8
0
 10
-271.250000
 20
-141.000000
 11
-234.517441
 21
-141.000000
  0
LINE
  8
0
 10
-234.517502
 20
-141.000046
 11
-226.250092
 21
-155.000061
  0
LINE
  8
0
 10
-72.250000
 20
-133.000000
 11
-72.250000
 21
-185.000000
  0
ARC
  8
0
 10
44.208595
 20
51.211708
 40
0.933333
 50
225.164093
 51
252.575348
  0
ARC
  8
0
 10
47.841949
 20
51.211708
 40
0.933332
 50
287.424652
 51
0.000000
  0
ARC
  8
0
 10
46.025284
 20
57.000000
 40
7.000000
 50
252.575424
 51
287.424591
  0
CIRCLE
  8
0
 62
     2
 10
-51.999977
 20
117.999992
 40
2.500000
  0
CIRCLE
  8
0
 62
     2
 10
-51.999977
 20
61.999977
 40
2.500000
  0
CIRCLE
  8
0
 10
-12.999977
 20
89.999985
 40
2.250000
  0
CIRCLE
  8
0
 10
17.000023
 20
56.999977
 40
2.250000
  0
CIRCLE
  8
0
 10
47.000023
 20
89.999985
 40
2.250000
  0
CIRCLE
  8
0
 10
17.000023
 20
122.999992
 40
2.250000
  0
ARC
  8
0
 10
-30.453728
 20
86.535889
 40
2.453746
 50
331.927582
 51
28.072393
  0
ARC
  8
0
 10
-30.453728
 20
93.464081
 40
2.453746
 50
331.927582
 51
28.072393
  0
ARC
  8
0
 10
-37.381950
 20
89.999985
 40
9.381962
 50
345.750000
 51
14.249960
  0
ARC
  8
0
 10
-33.546242
 20
93.464081
 40
2.453748
 50
151.927612
 51
208.072388
  0
ARC
  8
0
 10
-26.618034
 20
89.999985
 40
9.381963
 50
165.749985
 51
194.249908
  0
ARC
  8
0
 10
-33.546242
 20
86.535889
 40
2.453748
 50
151.927612
 51
208.072388
  0
ARC
  8
0
 10
-28.026237
 20
93.464081
 40
2.453748
 50
151.927612
 51
208.072388
  0
ARC
  8
0
 10
-21.098015
 20
89.999985
 40
9.381963
 50
165.749985
 51
194.249908
  0
ARC
  8
0
 10
-28.026237
 20
86.535889
 40
2.453748
 50
151.927612
 51
208.072388
  0
ARC
  8
0
 10
17.000023
 20
56.999977
 40
4.500000
 50
308.942535
 51
231.057495
  0
CIRCLE
  8
0
 10
-12.999977
 20
89.999985
 40
4.500000
  0
CIRCLE
  8
0
 10
47.000023
 20
89.999985
 40
4.500000
  0
ARC
  8
0
 10
17.000023
 20
122.999992
 40
4.499997
 50
128.943008
 51
51.056984
  0
CIRCLE
  8
0
 10
-51.999977
 20
117.999992
 40
2.100000
  0
CIRCLE
  8
0
 10
-51.999977
 20
61.999977
 40
2.100000
  0
ARC
  8
0
 10
-141.841965
 20
51.211739
 40
0.933334
 50
180.000000
 51
252.575790
  0
ARC
  8
0
 10
-140.025284
 20
57.000031
 40
7.000003
 50
252.575348
 51
287.424530
  0
ARC
  8
0
 10
-138.208633
 20
51.211739
 40
0.933330
 50
287.424225
 51
314.836395
  0
CIRCLE
  8
0
 10
-133.000046
 20
107.000008
 40
5.500000
  0
CIRCLE
  8
0
 10
-133.000046
 20
73.000031
 40
5.500000
  0
CIRCLE
  8
0
 62
     2
 10
-133.000046
 20
123.000023
 40
2.000000
  0
CIRCLE
  8
0
 62
     2
 10
-133.000046
 20
57.000008
 40
2.000000
  0
CIRCLE
  8
0
 10
-133.000046
 20
107.000008
 40
5.000000
  0
CIRCLE
  8
0
 10
-133.000046
 20
73.000031
 40
5.000000
  0
CIRCLE
  8
0
 10
-133.000046
 20
107.000008
 40
4.500000
  0
CIRCLE
  8
0
 10
-133.000046
 20
73.000031
 40
4.500000
  0
ARC
  8
0
 10
-138.208633
 20
51.211739
 40
0.933330
 50
287.424225
 51
314.836395
  0
CIRCLE
  8
0
 10
-133.000046
 20
123.000023
 40
1.650000
  0
CIRCLE
  8
0
 10
-133.000046
 20
57.000008
 40
1.650000
  0
ARC
  8
0
 10
135.158234
 20
51.211777
 40
0.933334
 50
180.000000
 51
252.575790
  0
ARC
  8
0
 10
138.791565
 20
51.211777
 40
0.933330
 50
287.424225
 51
314.835236
  0
CIRCLE
  8
0
 10
144.000122
 20
107.000046
 40
14.000001
  0
CIRCLE
  8
0
 10
144.000122
 20
73.000069
 40
14.000001
  0
ARC
  8
0
 10
131.600098
 20
95.700043
 40
2.099998
 50
270.000000
 51
90.000000
  0
ARC
  8
0
 10
156.383698
 20
95.700043
 40
2.099998
 50
90.000000
 51
270.000000
  0
ARC
  8
0
 10
144.000122
 20
123.883568
 40
2.100006
 50
180.000000
 51
0.000000
  0
ARC
  8
0
 10
156.383698
 20
118.200043
 40
2.099998
 50
90.000000
 51
270.000000
  0
ARC
  8
0
 10
131.600098
 20
118.200043
 40
2.099998
 50
270.000000
 51
90.000000
  0
ARC
  8
0
 10
136.974915
 20
57.000069
 40
7.000003
 50
252.575348
 51
287.424530
  0
ARC
  8
0
 10
50.500000
 20
7.000011
 40
5.000000
 50
113.578224
 51
246.421768
  0
ARC
  8
0
 10
41.999992
 20
7.000011
 40
5.250000
 50
326.954285
 51
33.045715
  0
CIRCLE
  8
0
 62
     2
 10
1.999998
 20
7.000011
 40
2.500000
  0
ARC
  8
0
 10
-35.072556
 20
-1.999989
 40
7.072560
 50
343.573639
 51
16.426317
  0
ARC
  8
0
 10
-28.927446
 20
-1.999989
 40
7.072558
 50
163.573624
 51
196.426300
  0
ARC
  8
0
 10
-23.407457
 20
-1.999989
 40
7.072560
 50
163.573639
 51
196.426300
  0
ARC
  8
0
 10
-28.927446
 20
2.000011
 40
7.072561
 50
188.128342
 51
196.426315
  0
ARC
  8
0
 10
-23.407457
 20
2.000011
 40
7.072559
 50
188.128342
 51
196.426315
  0
ARC
  8
0
 10
-35.072556
 20
2.000011
 40
7.072559
 50
343.573608
 51
351.871674
  0
CIRCLE
  8
0
 10
41.999992
 20
7.000011
 40
1.749999
  0
ARC
  8
0
 10
45.999992
 20
13.999996
 40
3.500000
 50
134.415314
 51
288.648743
  0
ARC
  8
0
 10
37.999985
 20
0.000027
 40
3.500000
 50
0.000000
 51
135.584534
  0
ARC
  8
0
 10
37.999985
 20
0.000027
 40
3.499999
 50
314.415161
 51
0.000000
  0
CIRCLE
  8
0
 10
45.999992
 20
13.999996
 40
2.749999
  0
CIRCLE
  8
0
 10
38.000008
 20
0.000027
 40
2.749999
  0
CIRCLE
  8
0
 62
     2
 10
52.000000
 20
7.000011
 40
2.500000
  0
CIRCLE
  8
0
 10
1.999998
 20
7.000011
 40
2.100000
  0
CIRCLE
  8
0
 10
52.000000
 20
7.000011
 40
2.100000
  0
ARC
  8
0
 62
     4
 10
-107.639130
 20
-98.859520
 40
2.050003
 50
180.000000
 51
270.000000
  0
ARC
  8
0
 62
     4
 10
-107.639130
 20
-98.859520
 40
2.050003
 50
270.000000
 51
0.000000
  0
CIRCLE
  8
0
 62
     4
 10
-61.096390
 20
-53.759521
 40
1.250000
  0
CIRCLE
  8
0
 62
     4
 10
-61.096390
 20
-53.759521
 40
1.400000
  0
ARC
  8
0
 62
     4
 10
51.671814
 20
-98.859520
 40
2.049999
 50
180.000000
 51
270.000000
  0
ARC
  8
0
 62
     4
 10
51.671814
 20
-98.859520
 40
2.050003
 50
271.259888
 51
0.000000
  0
CIRCLE
  8
0
 62
     4
 10
114.443695
 20
-49.050514
 40
0.250000
  0
CIRCLE
  8
0
 62
     4
 10
113.831818
 20
-48.391357
 40
0.450000
  0
CIRCLE
  8
0
 62
     4
 10
113.831818
 20
-48.391357
 40
0.250000
  0
ARC
  8
0
 62
     4
 10
114.214539
 20
-48.709511
 40
3.300002
 50
137.014145
 51
222.985855
  0
CIRCLE
  8
0
 62
     4
 10
96.714539
 20
-48.709511
 40
1.250000
  0
CIRCLE
  8
0
 62
     4
 10
96.714539
 20
-48.709511
 40
1.400000
  0
CIRCLE
  8
0
 62
     4
 10
114.121887
 20
-48.709511
 40
1.300000
  0
CIRCLE
  8
0
 62
     4
 10
114.443695
 20
-49.050514
 40
0.450000
  0
TEXT
  8
0
 10
196.250259
 20
180.830002
 40
6.300000
  1
Ver. 1.0
 50
0.000000
 41
1.052632
 51
0.000000
  7
STANDARD
  0
TEXT
  8
0
 10
167.564667
 20
-192.100006
 40
9.000000
  1
KOGANEI CORP.
 50
0.000000
 41
1.052632
 51
0.000000
  7
STANDARD
  0
TEXT
  8
0
 10
-275.449738
 20
180.830002
 40
6.300000
  1
TWIN ROD CYLINDER
 50
0.000000
 41
1.052632
 51
0.000000
  7
STANDARD
  0
TEXT
  8
0
 10
-258.127045
 20
-154.550003
 40
4.500000
  1
PLACE
 50
0.000000
 41
1.052632
 51
0.000000
  7
STANDARD
  0
TEXT
  8
0
 10
-220.142654
 20
-147.050003
 40
4.500000
  1
10
 50
0.000000
 41
1.052632
 51
0.000000
  7
STANDARD
  0
TEXT
  8
0
 10
-212.642654
 20
-131.050003
 40
4.500000
  1
STRETCH LIST
 50
0.000000
 41
1.052632
 51
0.000000
  7
STANDARD
  0
TEXT
  8
0
 10
-270.049713
 20
155.830002
 40
6.300000
  1
MODEL:TBDAK25*ST(10)-HL
 50
0.000000
 41
1.052632
 51
0.000000
  7
STANDARD
  0
TEXT
  8
0
 10
-70.642654
 20
-132.050003
 40
4.500000
  1
(mm)
 50
0.000000
 41
1.052632
 51
0.000000
  7
STANDARD
  0
TEXT
  8
0
 10
-267.127045
 20
-140.050003
 40
4.500000
  1
STROKE
 50
0.000000
 41
1.052632
 51
0.000000
  7
STANDARD
  0
TEXT
  8
0
 10
-267.127045
 20
-148.550003
 40
4.500000
  1
STRETCH
 50
0.000000
 41
1.052632
 51
0.000000
  7
STANDARD
  0
TEXT
  8
0
 10
-251.585724
 20
-163.320007
 40
4.800000
  1
A
 50
0.000000
 41
1.052632
 51
0.000000
  7
STANDARD
  0
TEXT
  8
0
 10
-251.585724
 20
-173.320007
 40
4.800000
  1
B
 50
0.000000
 41
1.052632
 51
0.000000
  7
STANDARD
  0
TEXT
  8
0
 10
-251.585724
 20
-183.320007
 40
4.800000
  1
C
 50
0.000000
 41
1.052632
 51
0.000000
  7
STANDARD
  0
TEXT
  8
0
 10
-198.142853
 20
-147.050003
 40
4.500000
  1
20
 50
0.000000
 41
1.052632
 51
0.000000
  7
STANDARD
  0
TEXT
  8
0
 10
-176.142853
 20
-147.050003
 40
4.500000
  1
30
 50
0.000000
 41
1.052632
 51
0.000000
  7
STANDARD
  0
TEXT
  8
0
 10
-154.142853
 20
-147.050003
 40
4.500000
  1
40
 50
0.000000
 41
1.052632
 51
0.000000
  7
STANDARD
  0
TEXT
  8
0
 10
-132.142853
 20
-147.050003
 40
4.500000
  1
50
 50
0.000000
 41
1.052632
 51
0.000000
  7
STANDARD
  0
TEXT
  8
0
 10
-110.142853
 20
-147.050003
 40
4.500000
  1
60
 50
0.000000
 41
1.052632
 51
0.000000
  7
STANDARD
  0
TEXT
  8
0
 10
-217.892853
 20
-163.050003
 40
4.500000
  1
0
 50
0.000000
 41
1.052632
 51
0.000000
  7
STANDARD
  0
TEXT
  8
0
 10
-217.892853
 20
-173.049988
 40
4.500000
  1
0
 50
0.000000
 41
1.052632
 51
0.000000
  7
STANDARD
  0
TEXT
  8
0
 10
-217.892853
 20
-183.049973
 40
4.500000
  1
0
 50
0.000000
 41
1.052632
 51
0.000000
  7
STANDARD
  0
TEXT
  8
0
 10
-198.142853
 20
-183.049973
 40
4.500000
  1
10
 50
0.000000
 41
1.052632
 51
0.000000
  7
STANDARD
  0
TEXT
  8
0
 10
-176.142853
 20
-183.049973
 40
4.500000
  1
20
 50
0.000000
 41
1.052632
 51
0.000000
  7
STANDARD
  0
TEXT
  8
0
 10
-154.142853
 20
-183.049973
 40
4.500000
  1
30
 50
0.000000
 41
1.052632
 51
0.000000
  7
STANDARD
  0
TEXT
  8
0
 10
-132.142853
 20
-183.049973
 40
4.500000
  1
40
 50
0.000000
 41
1.052632
 51
0.000000
  7
STANDARD
  0
TEXT
  8
0
 10
-110.142853
 20
-183.049973
 40
4.500000
  1
50
 50
0.000000
 41
1.052632
 51
0.000000
  7
STANDARD
  0
TEXT
  8
0
 62
     3
 10
-52.862728
 20
157.753006
 40
4.500000
  1
STRETCH LINE C
 50
0.000000
 41
1.052632
 51
0.000000
  7
STANDARD
  0
TEXT
  8
0
 62
     3
 10
-4.862728
 20
147.753006
 40
4.500000
  1
STRETCH LINE A
 50
0.000000
 41
1.052632
 51
0.000000
  7
STANDARD
  0
TEXT
  8
0
 62
     3
 10
17.137272
 20
137.753006
 40
4.500000
  1
STRETCH LINE B
 50
0.000000
 41
1.052632
 51
0.000000
  7
STANDARD
  0
TEXT
  8
0
 10
-88.142853
 20
-183.049973
 40
4.500000
  1
60
 50
0.000000
 41
1.052632
 51
0.000000
  7
STANDARD
  0
TEXT
  8
0
 10
-88.142853
 20
-147.050003
 40
4.500000
  1
70
 50
0.000000
 41
1.052632
 51
0.000000
  7
STANDARD
  0
TEXT
  8
0
 10
-66.142853
 20
-183.049973
 40
4.500000
  1
70
 50
0.000000
 41
1.052632
 51
0.000000
  7
STANDARD
  0
TEXT
  8
0
 10
-66.142853
 20
-147.050003
 40
4.500000
  1
80
 50
0.000000
 41
1.052632
 51
0.000000
  7
STANDARD
  0
TEXT
  8
0
 10
-195.892853
 20
-163.050003
 40
4.500000
  1
5
 50
0.000000
 41
1.052632
 51
0.000000
  7
STANDARD
  0
TEXT
  8
0
 10
-195.892853
 20
-173.049988
 40
4.500000
  1
5
 50
0.000000
 41
1.052632
 51
0.000000
  7
STANDARD
  0
TEXT
  8
0
 10
-176.142853
 20
-163.050003
 40
4.500000
  1
10
 50
0.000000
 41
1.052632
 51
0.000000
  7
STANDARD
  0
TEXT
  8
0
 10
-176.142853
 20
-173.049988
 40
4.500000
  1
10
 50
0.000000
 41
1.052632
 51
0.000000
  7
STANDARD
  0
TEXT
  8
0
 10
-154.142853
 20
-173.049988
 40
4.500000
  1
15
 50
0.000000
 41
1.052632
 51
0.000000
  7
STANDARD
  0
TEXT
  8
0
 10
-132.142853
 20
-173.049988
 40
4.500000
  1
20
 50
0.000000
 41
1.052632
 51
0.000000
  7
STANDARD
  0
TEXT
  8
0
 10
-110.142853
 20
-173.049988
 40
4.500000
  1
25
 50
0.000000
 41
1.052632
 51
0.000000
  7
STANDARD
  0
TEXT
  8
0
 10
-88.142853
 20
-173.049988
 40
4.500000
  1
30
 50
0.000000
 41
1.052632
 51
0.000000
  7
STANDARD
  0
TEXT
  8
0
 10
-66.142853
 20
-173.049988
 40
4.500000
  1
35
 50
0.000000
 41
1.052632
 51
0.000000
  7
STANDARD
  0
TEXT
  8
0
 10
-154.142853
 20
-163.050003
 40
4.500000
  1
15
 50
0.000000
 41
1.052632
 51
0.000000
  7
STANDARD
  0
TEXT
  8
0
 10
-132.142853
 20
-163.050003
 40
4.500000
  1
20
 50
0.000000
 41
1.052632
 51
0.000000
  7
STANDARD
  0
TEXT
  8
0
 10
-110.142853
 20
-163.050003
 40
4.500000
  1
25
 50
0.000000
 41
1.052632
 51
0.000000
  7
STANDARD
  0
TEXT
  8
0
 10
-88.142853
 20
-163.050003
 40
4.500000
  1
30
 50
0.000000
 41
1.052632
 51
0.000000
  7
STANDARD
  0
TEXT
  8
0
 10
-66.142853
 20
-163.050003
 40
4.500000
  1
35
 50
0.000000
 41
1.052632
 51
0.000000
  7
STANDARD
  0
ENDSEC
  0
EOF
