  0
SECTION
  2
HEADER
  0
ENDSEC
  0
SECTION
  2
TABLES
  0
TABLE
  2
LTYPE
 70
     4
  0
LTYPE
  2
CONTINUOUS
 70
    64
  3
Solid line
 72
    65
 73
     0
 40
0.000000
  0
LTYPE
  2
DASHED
 70
    64
  3
__ __ __ __ __ __ __ __ __ __ __ __ __ __ __
 72
    65
 73
     2
 40
3.500000
 49
2.000000
 49
-1.500000
  0
LTYPE
  2
CENTER
 70
    64
  3
____ _ ____ _ ____ _ ____ _ ____ _ ____ _ ____
 72
    65
 73
     4
 40
17.500000
 49
13.000000
 49
-1.500000
 49
1.500000
 49
-1.500000
  0
LTYPE
  2
PHANTOM
 70
    64
  3
_____ _ _ _____ _ _ _____ _ _ _____ _ _ ____  
 72
    65
 73
     6
 40
15.500000
 49
8.000000
 49
-1.500000
 49
1.500000
 49
-1.500000
 49
1.500000
 49
-1.500000
  0
LTYPE
  2
DASHED1
 70
    64
  3
__ __ __ __ __ __ __ __ __ __ __ __ __ __ __
 72
    65
 73
     2
 40
1.500000
 49
1.000000
 49
-0.500000
  0
LTYPE
  2
DASHED2
 70
    64
  3
__ __ __ __ __ __ __ __ __ __ __ __ __ __ __
 72
    65
 73
     2
 40
3.500000
 49
2.500000
 49
-1.000000
  0
LTYPE
  2
DASHED3
 70
    64
  3
__ __ __ __ __ __ __ __ __ __ __ __ __ __ __
 72
    65
 73
     2
 40
6.000000
 49
4.000000
 49
-2.000000
  0
LTYPE
  2
DASHED4
 70
    64
  3
__ __ __ __ __ __ __ __ __ __ __ __ __ __ __
 72
    65
 73
     2
 40
12.000000
 49
10.000000
 49
-2.000000
  0
LTYPE
  2
DASHED5
 70
    64
  3
__ __ __ __ __ __ __ __ __ __ __ __ __ __ __
 72
    65
 73
     2
 40
17.000000
 49
15.000000
 49
-2.000000
  0
LTYPE
  2
DASHED6
 70
    64
  3
__ __ __ __ __ __ __ __ __ __ __ __ __ __ __
 72
    65
 73
     2
 40
29.000000
 49
27.000000
 49
-2.000000
  0
LTYPE
  2
PHANTOM1
 70
    64
  3
_____ _ _ _____ _ _ _____ _ _ _____ _ _ ____  
 72
    65
 73
     6
 40
31.000000
 49
25.000000
 49
-1.500000
 49
1.000000
 49
-1.000000
 49
1.000000
 49
-1.500000
  0
LTYPE
  2
PHANTOM2
 70
    64
  3
_____ _ _ _____ _ _ _____ _ _ _____ _ _ ____  
 72
    65
 73
     6
 40
36.000000
 49
27.000000
 49
-1.500000
 49
2.500000
 49
-1.000000
 49
2.500000
 49
-1.500000
  0
LTYPE
  2
PHANTOM3
 70
    64
  3
_____ _ _ _____ _ _ _____ _ _ _____ _ _ ____  
 72
    65
 73
     6
 40
78.000000
 49
64.000000
 49
-2.000000
 49
4.000000
 49
-2.000000
 49
4.000000
 49
-2.000000
  0
LTYPE
  2
CENTER1
 70
    64
  3
____ _ ____ _ ____ _ ____ _ ____ _ ____ _ ____
 72
    65
 73
     4
 40
19.000000
 49
14.000000
 49
-1.000000
 49
3.000000
 49
-1.000000
  0
LTYPE
  2
CENTER2
 70
    64
  3
____ _ ____ _ ____ _ ____ _ ____ _ ____ _ ____
 72
    65
 73
     4
 40
28.500000
 49
25.000000
 49
-1.000000
 49
1.500000
 49
-1.000000
  0
LTYPE
  2
CENTER3
 70
    64
  3
____ _ ____ _ ____ _ ____ _ ____ _ ____ _ ____
 72
    65
 73
     4
 40
31.500000
 49
27.000000
 49
-1.000000
 49
2.500000
 49
-1.000000
  0
LTYPE
  2
CENTER4
 70
    64
  3
____ _ ____ _ ____ _ ____ _ ____ _ ____ _ ____
 72
    65
 73
     4
 40
50.000000
 49
45.000000
 49
-1.000000
 49
3.000000
 49
-1.000000
  0
LTYPE
  2
CENTER5
 70
    64
  3
____ _ ____ _ ____ _ ____ _ ____ _ ____ _ ____
 72
    65
 73
     4
 40
100.000000
 49
92.000000
 49
-2.000000
 49
4.000000
 49
-2.000000
  0
LTYPE
  2
SBK1
 70
    64
  3
______ _ _ _ ______ _ _ _ ______ _ _ _ _____  
 72
    65
 73
     8
 40
60.500000
 49
45.000000
 49
-2.000000
 49
2.500000
 49
-2.000000
 49
2.500000
 49
-2.000000
 49
2.500000
 49
-2.000000
  0
LTYPE
  2
SBK2
 70
    64
  3
______ _ _ _ ______ _ _ _ ______ _ _ _ _____  
 72
    65
 73
     8
 40
84.000000
 49
64.000000
 49
-2.000000
 49
4.000000
 49
-2.000000
 49
4.000000
 49
-2.000000
 49
4.000000
 49
-2.000000
  0
LTYPE
  2
STCH
 70
    64
  3
__ __ __ __ __ __ __ __ __ __ __ __ __ __ __
 72
    65
 73
     2
 40
3.000000
 49
1.000000
 49
-2.000000
  0
LTYPE
  2
MTCH
 70
    64
  3
_____ _ _ _____ _ _ _____ _ _ _____ _ _ ____  
 72
    65
 73
     6
 40
80.000000
 49
66.000000
 49
-2.000000
 49
4.000000
 49
-2.000000
 49
4.000000
 49
-2.000000
  0
ENDTAB
  0
TABLE
  2
LAYER
 70
     1
  0
LAYER
  2
0
 70
     0
 62
     7
  6
CONTINUOUS
  0
ENDTAB
  0
TABLE
  2
STYLE
 70
     1
  0
STYLE
  2
STANDARD
 70
     0
 40
0.000000
 41
1.000000
 50
0.000000
 71
     0
 42
0.200000
  3
txt
  4
BIGFONT
  0
ENDTAB
  0
TABLE
  2
VIEW
 70
     0
  0
ENDTAB
  0
ENDSEC
  0
SECTION
  2
BLOCKS
  0
ENDSEC
  0
SECTION
  2
ENTITIES
  0
LINE
  8
0
  6
PHANTOM
 62
     3
 10
-36.500000
 20
147.000000
 11
-36.500000
 21
43.750000
  0
LINE
  8
0
  6
PHANTOM
 62
     3
 10
19.500002
 20
127.000000
 11
19.500002
 21
43.750000
  0
LINE
  8
0
  6
PHANTOM
 62
     3
 10
-3.000000
 20
137.000000
 11
-3.000000
 21
43.750000
  0
LINE
  8
0
 10
-27.500006
 20
62.999977
 11
54.500023
 21
62.999977
  0
LINE
  8
0
 10
-27.999975
 20
116.499977
 11
-27.999975
 21
63.499977
  0
LINE
  8
0
 10
55.000023
 20
116.499977
 11
55.000023
 21
63.499977
  0
LINE
  8
0
 10
-44.999977
 20
116.499977
 11
-44.999977
 21
63.499977
  0
LINE
  8
0
 10
-52.999977
 20
116.499977
 11
-52.999977
 21
63.499977
  0
LINE
  8
0
 10
-27.499945
 20
116.999977
 11
54.500023
 21
116.999977
  0
LINE
  8
0
 10
-52.999977
 20
116.499977
 11
-44.999977
 21
116.499977
  0
LINE
  8
0
 10
-52.999977
 20
63.499977
 11
-44.999977
 21
63.499977
  0
LINE
  8
0
 10
54.999943
 20
116.499924
 11
54.499943
 21
116.999924
  0
LINE
  8
0
 10
54.499989
 20
63.000015
 11
54.999989
 21
63.500015
  0
LINE
  8
0
 10
-27.999983
 20
63.499943
 11
-27.499983
 21
62.999943
  0
LINE
  8
0
 10
-27.999983
 20
116.499954
 11
-27.499981
 21
116.999954
  0
LINE
  8
0
 10
-44.999977
 20
105.999977
 11
-27.999975
 21
105.999977
  0
LINE
  8
0
 10
-44.999977
 20
97.999977
 11
-27.999975
 21
97.999977
  0
LINE
  8
0
 10
-44.999977
 20
81.999977
 11
-27.999975
 21
81.999977
  0
LINE
  8
0
 10
-44.999977
 20
73.999977
 11
-27.999975
 21
73.999977
  0
LINE
  8
0
  6
CENTER
 62
     2
 10
-55.833305
 20
101.999977
 11
-25.467077
 21
101.999977
  0
LINE
  8
0
  6
CENTER
 62
     2
 10
-57.196541
 20
89.999977
 11
59.226860
 21
89.999977
  0
LINE
  8
0
  6
CENTER
 62
     2
 10
-55.499977
 20
77.999977
 11
-26.008612
 21
77.999977
  0
LINE
  8
0
  6
CENTER
 62
     2
 10
7.000025
 20
66.499977
 11
17.000025
 21
66.499977
  0
LINE
  8
0
  6
CENTER
 62
     2
 10
7.000025
 20
113.499977
 11
17.000025
 21
113.499977
  0
LINE
  8
0
  6
CENTER
 62
     2
 10
-12.999975
 20
94.999977
 11
-12.999975
 21
84.999977
  0
LINE
  8
0
  6
CENTER
 62
     2
 10
12.000025
 20
118.499977
 11
12.000025
 21
108.499977
  0
LINE
  8
0
  6
CENTER
 62
     2
 10
37.000023
 20
94.999977
 11
37.000023
 21
84.999977
  0
LINE
  8
0
  6
CENTER
 62
     2
 10
12.000025
 20
71.499977
 11
12.000025
 21
61.499977
  0
LINE
  8
0
  6
CENTER
 62
     2
 10
-48.999977
 20
75.999977
 11
-48.999977
 21
69.999977
  0
LINE
  8
0
  6
CENTER
 62
     2
 10
-48.999977
 20
109.999977
 11
-48.999977
 21
103.999977
  0
LINE
  8
0
  6
CENTER
 62
     2
 10
-51.999977
 20
72.999977
 11
-45.999977
 21
72.999977
  0
LINE
  8
0
  6
CENTER
 62
     2
 10
-51.999977
 20
106.999977
 11
-45.999977
 21
106.999977
  0
LINE
  8
0
 10
-30.399984
 20
93.499977
 11
-30.399984
 21
86.499977
  0
LINE
  8
0
 10
-33.999977
 20
93.499977
 11
-33.999977
 21
86.499977
  0
LINE
  8
0
 10
-33.687370
 20
94.041420
 11
-31.199987
 21
94.041420
  0
LINE
  8
0
 10
-33.687370
 20
92.020699
 11
-31.199987
 21
92.020699
  0
LINE
  8
0
 10
-33.687370
 20
87.979240
 11
-31.199987
 21
87.979240
  0
LINE
  8
0
 10
-33.687370
 20
85.958519
 11
-31.199987
 21
85.958519
  0
LINE
  8
0
 10
-31.199987
 20
94.041420
 11
-31.199987
 21
85.958519
  0
LINE
  8
0
 10
-30.399939
 20
93.499931
 11
-30.087330
 21
94.041382
  0
LINE
  8
0
 10
-30.400034
 20
86.499916
 11
-30.087427
 21
85.958466
  0
LINE
  8
0
 10
-33.999950
 20
93.499947
 11
-33.687340
 21
94.041397
  0
LINE
  8
0
 10
-34.000027
 20
86.499931
 11
-33.687412
 21
85.958466
  0
LINE
  8
0
 10
-27.999994
 20
93.499939
 11
-28.312601
 21
94.041389
  0
LINE
  8
0
 10
-27.999971
 20
86.499954
 11
-28.312578
 21
85.958504
  0
LINE
  8
0
 10
-30.087378
 20
94.041420
 11
-28.312597
 21
94.041420
  0
LINE
  8
0
 10
-30.087378
 20
85.958519
 11
-28.312582
 21
85.958519
  0
LINE
  8
0
 10
-30.087378
 20
87.979240
 11
-28.312582
 21
87.979240
  0
LINE
  8
0
 10
-30.087378
 20
92.020699
 11
-28.312582
 21
92.020699
  0
LINE
  8
0
 10
-31.199987
 20
91.999977
 11
-30.399984
 21
91.999977
  0
LINE
  8
0
 10
-31.199987
 20
87.999977
 11
-30.399984
 21
87.999977
  0
LINE
  8
0
 62
     2
 10
-31.199987
 20
91.729469
 11
-30.399984
 21
91.729469
  0
LINE
  8
0
 62
     2
 10
-31.199987
 20
88.270470
 11
-30.399984
 21
88.270470
  0
LINE
  8
0
 10
-42.999977
 20
104.527824
 11
-42.999977
 21
99.472130
  0
LINE
  8
0
 10
-44.999977
 20
75.472115
 11
-42.999977
 21
75.472115
  0
LINE
  8
0
 10
-44.999977
 20
80.527809
 11
-42.999977
 21
80.527809
  0
LINE
  8
0
 10
-44.999977
 20
104.527809
 11
-42.999977
 21
104.527809
  0
LINE
  8
0
 10
-44.999977
 20
99.472115
 11
-42.999977
 21
99.472115
  0
LINE
  8
0
 10
-42.999977
 20
80.527824
 11
-42.999977
 21
75.472115
  0
LINE
  8
0
 62
     2
 10
-42.999950
 20
80.527809
 11
-44.999950
 21
75.472115
  0
LINE
  8
0
 62
     2
 10
-42.999966
 20
75.472107
 11
-44.999966
 21
80.527817
  0
LINE
  8
0
 62
     2
 10
-44.999981
 20
104.527809
 11
-42.999977
 21
99.472099
  0
LINE
  8
0
 62
     2
 10
-42.999924
 20
104.527802
 11
-44.999920
 21
99.472099
  0
LINE
  8
0
 10
-44.999977
 20
92.749977
 11
-43.999977
 21
92.749977
  0
LINE
  8
0
 10
-44.999977
 20
87.249977
 11
-43.999977
 21
87.249977
  0
LINE
  8
0
 10
-43.999977
 20
92.749977
 11
-43.999977
 21
87.249977
  0
LINE
  8
0
 10
-27.999975
 20
94.399971
 11
55.000023
 21
94.399971
  0
LINE
  8
0
 10
-27.999975
 20
91.199974
 11
-16.815741
 21
91.199974
  0
LINE
  8
0
 10
-27.999975
 20
109.699974
 11
10.751032
 21
109.699974
  0
LINE
  8
0
 10
-27.999975
 20
112.899971
 11
8.045282
 21
112.899971
  0
LINE
  8
0
 10
-9.184210
 20
91.199974
 11
33.184258
 21
91.199974
  0
LINE
  8
0
 10
15.954767
 20
112.899971
 11
55.000023
 21
112.899971
  0
LINE
  8
0
 10
40.815773
 20
91.199974
 11
55.000023
 21
91.199974
  0
LINE
  8
0
 10
13.249018
 20
109.699974
 11
55.000023
 21
109.699974
  0
LINE
  8
0
 10
25.500025
 20
58.999977
 11
38.500023
 21
58.999977
  0
LINE
  8
0
 10
25.500025
 20
58.999977
 11
25.500025
 21
62.999977
  0
LINE
  8
0
 10
38.500023
 20
58.999977
 11
38.500023
 21
60.049843
  0
LINE
  8
0
 10
33.550529
 20
61.499977
 11
38.775276
 21
61.499977
  0
LINE
  8
0
 10
33.550529
 20
58.999977
 11
33.550529
 21
61.499977
  0
LINE
  8
0
 10
38.775246
 20
60.711689
 11
38.775246
 21
61.499973
  0
LINE
  8
0
 10
38.500023
 20
61.499977
 11
38.500023
 21
62.999977
  0
LINE
  8
0
 10
-117.500031
 20
116.500015
 11
-117.500031
 21
63.500015
  0
LINE
  8
0
 10
-137.500031
 20
116.500015
 11
-137.500031
 21
63.500015
  0
LINE
  8
0
 10
-137.500031
 20
116.500015
 11
-117.500031
 21
116.500015
  0
LINE
  8
0
 10
-137.500031
 20
63.500015
 11
-117.500031
 21
63.500015
  0
LINE
  8
0
  6
CENTER
 62
     2
 10
-132.589264
 20
102.000015
 11
-122.701859
 21
102.000015
  0
LINE
  8
0
  6
CENTER
 62
     2
 10
-139.000031
 20
90.000015
 11
-115.333359
 21
90.000015
  0
LINE
  8
0
  6
CENTER
 62
     2
 10
-132.472260
 20
78.000015
 11
-122.643341
 21
78.000015
  0
LINE
  8
0
  6
CENTER
 62
     2
 10
-127.500031
 20
119.666687
 11
-127.500031
 21
56.205261
  0
LINE
  8
0
 10
-117.000031
 20
91.199997
 11
-117.000031
 21
63.500015
  0
LINE
  8
0
 10
-129.100037
 20
117.000015
 11
-137.500046
 21
117.000015
  0
LINE
  8
0
 10
-117.000031
 20
116.500015
 11
-117.000031
 21
112.900024
  0
LINE
  8
0
 10
-138.000031
 20
116.500015
 11
-138.000031
 21
112.900024
  0
LINE
  8
0
 10
-117.500031
 20
117.000015
 11
-125.900024
 21
117.000015
  0
LINE
  8
0
 10
-117.500031
 20
63.000015
 11
-137.500031
 21
63.000015
  0
LINE
  8
0
 10
-117.500046
 20
117.000015
 11
-117.000046
 21
116.500015
  0
LINE
  8
0
 10
-137.999969
 20
116.499977
 11
-137.499985
 21
116.999977
  0
LINE
  8
0
 10
-137.999985
 20
63.500031
 11
-137.499985
 21
63.000031
  0
LINE
  8
0
 10
-117.000015
 20
63.500004
 11
-117.499992
 21
63.000015
  0
LINE
  8
0
 10
-138.000031
 20
91.199997
 11
-138.000031
 21
63.500015
  0
LINE
  8
0
  6
CENTER
 62
     2
 10
-130.500031
 20
66.500015
 11
-124.500031
 21
66.500015
  0
LINE
  8
0
  6
CENTER
 62
     2
 10
-130.500031
 20
113.500015
 11
-124.500031
 21
113.500015
  0
LINE
  8
0
 10
-129.000031
 20
102.866028
 11
-129.000031
 21
101.133987
  0
LINE
  8
0
 10
-126.000031
 20
102.866043
 11
-126.000031
 21
101.133987
  0
LINE
  8
0
 10
-129.000031
 20
102.866081
 11
-127.500031
 21
103.732109
  0
LINE
  8
0
 10
-127.500023
 20
100.267998
 11
-126.000023
 21
101.134018
  0
LINE
  8
0
 10
-129.000031
 20
78.866066
 11
-127.500038
 21
79.732086
  0
LINE
  8
0
 10
-127.500031
 20
76.267990
 11
-126.000038
 21
77.134010
  0
LINE
  8
0
 10
-127.500031
 20
103.732063
 11
-126.000031
 21
102.866035
  0
LINE
  8
0
 10
-129.000046
 20
101.133995
 11
-127.500023
 21
100.267960
  0
LINE
  8
0
 10
-127.500046
 20
79.732071
 11
-126.000038
 21
78.866043
  0
LINE
  8
0
 10
-129.000031
 20
77.133995
 11
-127.500053
 21
76.267975
  0
LINE
  8
0
 10
-129.000031
 20
78.866043
 11
-129.000031
 21
77.133987
  0
LINE
  8
0
 10
-126.000031
 20
78.866043
 11
-126.000031
 21
77.133987
  0
LINE
  8
0
 10
-138.000031
 20
94.400024
 11
-137.500031
 21
94.400024
  0
LINE
  8
0
 10
-138.000031
 20
91.199997
 11
-137.500031
 21
91.199997
  0
LINE
  8
0
 10
-117.000015
 20
94.400024
 11
-117.500031
 21
94.400024
  0
LINE
  8
0
 10
-117.000015
 20
91.199997
 11
-117.500031
 21
91.199997
  0
LINE
  8
0
 10
-125.900024
 20
117.000015
 11
-125.900024
 21
116.500015
  0
LINE
  8
0
 10
-129.100037
 20
117.000015
 11
-129.100037
 21
116.500015
  0
LINE
  8
0
 10
-117.000031
 20
112.900024
 11
-117.500031
 21
112.900024
  0
LINE
  8
0
 10
-117.000031
 20
109.700012
 11
-117.500031
 21
109.700012
  0
LINE
  8
0
 10
-117.000031
 20
109.700012
 11
-117.000031
 21
94.400024
  0
LINE
  8
0
 10
-138.000031
 20
112.900024
 11
-137.500031
 21
112.900024
  0
LINE
  8
0
 10
-138.000031
 20
109.700012
 11
-137.500031
 21
109.700012
  0
LINE
  8
0
 10
-138.000031
 20
109.700012
 11
-138.000031
 21
94.400024
  0
LINE
  8
0
 10
-118.000031
 20
59.000015
 11
-137.000031
 21
59.000015
  0
LINE
  8
0
 10
-137.000031
 20
63.000015
 11
-137.000031
 21
61.500015
  0
LINE
  8
0
 10
-118.000031
 20
63.000015
 11
-118.000031
 21
59.000015
  0
LINE
  8
0
 10
-132.040634
 20
61.500015
 11
-137.270325
 21
61.500015
  0
LINE
  8
0
 10
-132.040634
 20
59.000015
 11
-132.040634
 21
61.500015
  0
LINE
  8
0
 10
-137.270340
 20
60.711735
 11
-137.270340
 21
61.500004
  0
LINE
  8
0
 10
-137.000031
 20
60.054840
 11
-137.000031
 21
59.000015
  0
LINE
  8
0
 10
108.000107
 20
116.500023
 11
108.000107
 21
112.900032
  0
LINE
  8
0
 10
129.000107
 20
116.500023
 11
129.000107
 21
112.900032
  0
LINE
  8
0
 10
108.500107
 20
117.000023
 11
116.900101
 21
117.000023
  0
LINE
  8
0
 10
108.500107
 20
63.000023
 11
128.500107
 21
63.000023
  0
LINE
  8
0
 10
108.500084
 20
117.000031
 11
108.000099
 21
116.500046
  0
LINE
  8
0
 10
129.000107
 20
116.499969
 11
128.500107
 21
116.999977
  0
LINE
  8
0
 10
129.000061
 20
63.500050
 11
128.500076
 21
63.000057
  0
LINE
  8
0
 10
108.000061
 20
63.499981
 11
108.500053
 21
62.999989
  0
LINE
  8
0
  6
CENTER
 62
     2
 10
106.500107
 20
102.000023
 11
131.500122
 21
102.000023
  0
LINE
  8
0
  6
CENTER
 62
     2
 10
106.166763
 20
90.000023
 11
131.500122
 21
90.000023
  0
LINE
  8
0
  6
CENTER
 62
     2
 10
106.166763
 20
78.000023
 11
131.833466
 21
78.000023
  0
LINE
  8
0
  6
CENTER
 62
     2
 10
118.500107
 20
120.333351
 11
118.500107
 21
56.007866
  0
LINE
  8
0
 10
120.100113
 20
117.000023
 11
128.500076
 21
117.000023
  0
LINE
  8
0
 10
108.000107
 20
91.200020
 11
108.000107
 21
63.500023
  0
LINE
  8
0
 10
129.000107
 20
91.200005
 11
129.000107
 21
63.500023
  0
LINE
  8
0
 10
120.600113
 20
115.983559
 11
120.600113
 21
114.383568
  0
LINE
  8
0
 10
120.100029
 20
116.483421
 11
120.600021
 21
115.983429
  0
LINE
  8
0
 10
116.400101
 20
115.983574
 11
116.400101
 21
114.383568
  0
LINE
  8
0
 10
128.000107
 20
90.700005
 11
126.400101
 21
90.700005
  0
LINE
  8
0
 10
128.500153
 20
91.199959
 11
128.000168
 21
90.699966
  0
LINE
  8
0
 10
128.499939
 20
94.399933
 11
127.999947
 21
94.899925
  0
LINE
  8
0
 10
128.000107
 20
94.900032
 11
126.400101
 21
94.900032
  0
LINE
  8
0
 10
116.900101
 20
117.000023
 11
116.900101
 21
116.483574
  0
LINE
  8
0
 10
120.100113
 20
117.000023
 11
120.100113
 21
116.483559
  0
LINE
  8
0
 10
129.000107
 20
94.400032
 11
128.500107
 21
94.400032
  0
LINE
  8
0
 10
129.000107
 20
91.200005
 11
128.500107
 21
91.200005
  0
LINE
  8
0
 10
108.999924
 20
94.900032
 11
110.570114
 21
94.900032
  0
LINE
  8
0
 10
116.400108
 20
115.983597
 11
116.900108
 21
116.483597
  0
LINE
  8
0
  6
CENTER
 62
     2
 10
106.166763
 20
92.800011
 11
130.666718
 21
92.800011
  0
LINE
  8
0
  6
CENTER
 62
     2
 10
106.166763
 20
111.300026
 11
130.333405
 21
111.300026
  0
LINE
  8
0
 10
108.000107
 20
109.700020
 11
108.000107
 21
94.400032
  0
LINE
  8
0
 10
128.000107
 20
109.200020
 11
126.400101
 21
109.200020
  0
LINE
  8
0
 10
128.500168
 20
109.699982
 11
128.000168
 21
109.199989
  0
LINE
  8
0
 10
128.499954
 20
112.899940
 11
127.999969
 21
113.399933
  0
LINE
  8
0
 10
128.000107
 20
113.400032
 11
126.400101
 21
113.400032
  0
LINE
  8
0
 10
129.000107
 20
112.900032
 11
128.500107
 21
112.900032
  0
LINE
  8
0
 10
129.000107
 20
109.700020
 11
128.500107
 21
109.700020
  0
LINE
  8
0
 10
129.000107
 20
109.700020
 11
129.000107
 21
94.400032
  0
LINE
  8
0
 10
109.000107
 20
94.900017
 11
110.600082
 21
94.900017
  0
LINE
  8
0
 10
108.000107
 20
94.400032
 11
108.000107
 21
94.600014
  0
LINE
  8
0
 10
109.000229
 20
90.700020
 11
110.570114
 21
90.700020
  0
LINE
  8
0
 10
108.000107
 20
91.200020
 11
108.500198
 21
91.200020
  0
LINE
  8
0
 10
108.000107
 20
94.400032
 11
108.499878
 21
94.400032
  0
LINE
  8
0
 10
108.500092
 20
91.200089
 11
109.000092
 21
90.700089
  0
LINE
  8
0
 10
109.000107
 20
90.700020
 11
110.600082
 21
90.700020
  0
LINE
  8
0
 10
108.499962
 20
94.400108
 11
108.999992
 21
94.900146
  0
LINE
  8
0
 10
109.000107
 20
59.000023
 11
128.000107
 21
59.000023
  0
LINE
  8
0
 10
128.000107
 20
63.000023
 11
128.000107
 21
59.000023
  0
LINE
  8
0
 10
113.959503
 20
61.500023
 11
108.729813
 21
61.500023
  0
LINE
  8
0
 10
113.959503
 20
59.000023
 11
113.959503
 21
61.500023
  0
LINE
  8
0
 10
108.729813
 20
60.711739
 11
108.729813
 21
61.500023
  0
LINE
  8
0
 10
109.000107
 20
60.054863
 11
109.000107
 21
59.000023
  0
LINE
  8
0
 10
109.000107
 20
63.000023
 11
109.000107
 21
61.500023
  0
LINE
  8
0
 10
122.480103
 20
63.000023
 11
122.480103
 21
59.000023
  0
LINE
  8
0
 10
114.520111
 20
63.000023
 11
114.520111
 21
59.000023
  0
LINE
  8
0
 10
108.999924
 20
113.400047
 11
110.570114
 21
113.400047
  0
LINE
  8
0
 10
109.000107
 20
113.400032
 11
110.600082
 21
113.400032
  0
LINE
  8
0
 10
108.000107
 20
112.900047
 11
108.000107
 21
113.100029
  0
LINE
  8
0
 10
109.000229
 20
109.200035
 11
110.570114
 21
109.200035
  0
LINE
  8
0
 10
108.000107
 20
109.700035
 11
108.500198
 21
109.700035
  0
LINE
  8
0
 10
108.000107
 20
112.900047
 11
108.499878
 21
112.900047
  0
LINE
  8
0
 10
108.500107
 20
109.700104
 11
109.000107
 21
109.200104
  0
LINE
  8
0
 10
109.000107
 20
109.200035
 11
110.600082
 21
109.200035
  0
LINE
  8
0
 10
108.499947
 20
112.900124
 11
108.999985
 21
113.400162
  0
LINE
  8
0
  6
PHANTOM
 62
     3
 10
-3.000000
 20
43.750000
 11
6.500002
 21
43.750000
  0
LINE
  8
0
  6
PHANTOM
 62
     3
 10
6.500002
 20
43.750000
 11
6.500002
 21
-3.500008
  0
LINE
  8
0
  6
PHANTOM
 62
     3
 10
-36.500000
 20
43.750000
 11
-36.500000
 21
-3.500008
  0
LINE
  8
0
  6
PHANTOM
 62
     3
 10
19.500002
 20
43.750000
 11
19.500002
 21
-3.500008
  0
LINE
  8
0
 62
     2
 10
-5.999975
 20
15.999977
 11
-5.999975
 21
8.999977
  0
LINE
  8
0
 10
-27.499975
 20
22.999977
 11
54.499992
 21
22.999977
  0
LINE
  8
0
 10
-27.499975
 20
1.999977
 11
54.499977
 21
1.999977
  0
LINE
  8
0
 10
-52.999977
 20
22.499977
 11
-44.999977
 21
22.499977
  0
LINE
  8
0
 10
-52.999977
 20
2.499977
 11
-44.999977
 21
2.499977
  0
LINE
  8
0
 10
-52.999977
 20
22.499977
 11
-52.999977
 21
2.499977
  0
LINE
  8
0
 10
-44.999977
 20
22.499977
 11
-44.999977
 21
15.599983
  0
LINE
  8
0
 10
-27.999975
 20
22.499977
 11
-27.999975
 21
2.499977
  0
LINE
  8
0
 10
55.000023
 20
22.499977
 11
55.000023
 21
2.499977
  0
LINE
  8
0
 10
54.999985
 20
22.499956
 11
54.499996
 21
22.999949
  0
LINE
  8
0
 10
54.999973
 20
2.500001
 11
54.499973
 21
2.000000
  0
LINE
  8
0
 10
-27.999989
 20
22.499992
 11
-27.499987
 21
22.999992
  0
LINE
  8
0
 10
-27.999971
 20
2.499995
 11
-27.499971
 21
1.999995
  0
LINE
  8
0
  6
CENTER
 62
     2
 10
-54.833305
 20
12.499977
 11
59.012962
 21
12.499977
  0
LINE
  8
0
 10
-42.999977
 20
16.499977
 11
-27.999975
 21
16.499977
  0
LINE
  8
0
 10
-42.999977
 20
8.499977
 11
-27.999975
 21
8.499977
  0
LINE
  8
0
 10
-30.399969
 20
8.499977
 11
-30.399969
 21
5.541435
  0
LINE
  8
0
 10
-31.199972
 20
8.499977
 11
-31.199972
 21
4.999977
  0
LINE
  8
0
 10
-33.999977
 20
8.499977
 11
-33.999977
 21
5.541435
  0
LINE
  8
0
 10
-33.687370
 20
4.999977
 11
-31.199972
 21
4.999977
  0
LINE
  8
0
 10
-30.087364
 20
4.999990
 11
-30.399971
 21
5.541440
  0
LINE
  8
0
 10
-33.687359
 20
4.999981
 11
-33.999966
 21
5.541432
  0
LINE
  8
0
 10
-28.312626
 20
4.999998
 11
-28.000023
 21
5.541449
  0
LINE
  8
0
 10
-30.087362
 20
4.999977
 11
-28.312582
 21
4.999977
  0
LINE
  8
0
 10
-31.199972
 20
6.499977
 11
-30.399969
 21
6.499977
  0
LINE
  8
0
 62
     2
 10
-31.199972
 20
6.770485
 11
-30.399969
 21
6.770485
  0
LINE
  8
0
 10
-42.999977
 20
16.499977
 11
-42.999977
 21
15.599983
  0
LINE
  8
0
 10
-45.999977
 20
15.599983
 11
-42.999977
 21
15.599983
  0
LINE
  8
0
 10
-45.999977
 20
9.399986
 11
-42.999977
 21
9.399986
  0
LINE
  8
0
 10
-42.999977
 20
9.399986
 11
-42.999977
 21
8.499977
  0
LINE
  8
0
 10
-44.999977
 20
5.749977
 11
-43.999977
 21
5.749977
  0
LINE
  8
0
 10
-43.999977
 20
9.399986
 11
-43.999977
 21
5.749977
  0
LINE
  8
0
  6
CENTER
 62
     2
 10
-5.999975
 20
15.999977
 11
-5.999975
 21
8.999977
  0
LINE
  8
0
  6
CENTER
 62
     2
 10
45.000023
 20
15.999977
 11
45.000023
 21
8.999977
  0
LINE
  8
0
 10
25.500025
 20
21.999977
 11
25.500025
 21
6.645622
  0
LINE
  8
0
 10
38.500023
 20
21.999977
 11
38.500023
 21
20.645622
  0
LINE
  8
0
 10
25.500025
 20
2.999977
 11
26.854380
 21
2.999977
  0
LINE
  8
0
 10
25.500025
 20
21.999977
 11
34.854378
 21
21.999977
  0
LINE
  8
0
  6
CENTER
 62
     2
 10
32.000023
 20
23.499977
 11
32.000023
 21
1.499977
  0
LINE
  8
0
 10
25.500025
 20
4.354332
 11
25.500025
 21
2.999977
  0
LINE
  8
0
 10
29.145670
 20
2.999977
 11
38.500023
 21
2.999977
  0
LINE
  8
0
 10
37.145668
 20
21.999977
 11
38.500023
 21
21.999977
  0
LINE
  8
0
 10
38.500023
 20
18.354347
 11
38.500023
 21
16.468605
  0
LINE
  8
0
 10
38.500023
 20
8.531349
 11
38.500023
 21
2.999977
  0
LINE
  8
0
 10
10.063532
 20
22.999977
 11
10.063532
 21
17.499977
  0
LINE
  8
0
 10
13.936518
 20
22.999977
 11
13.936518
 21
17.499977
  0
LINE
  8
0
 10
10.063532
 20
7.499977
 11
10.063532
 21
1.999977
  0
LINE
  8
0
 10
13.936518
 20
7.499977
 11
13.936518
 21
1.999977
  0
LINE
  8
0
 10
10.063532
 20
17.499977
 11
13.936518
 21
17.499977
  0
LINE
  8
0
 10
10.063532
 20
7.499977
 11
13.936518
 21
7.499977
  0
LINE
  8
0
 10
-45.999977
 20
15.599983
 11
-45.999977
 21
9.399986
  0
LINE
  8
0
 10
-44.999977
 20
9.399986
 11
-44.999977
 21
2.499977
  0
LINE
  8
0
 10
26.833315
 20
4.333239
 11
29.166769
 21
6.666694
  0
LINE
  8
0
 10
26.833309
 20
6.666718
 11
29.166763
 21
4.333262
  0
LINE
  8
0
 10
34.833302
 20
18.333248
 11
37.166756
 21
20.666704
  0
LINE
  8
0
 10
34.833321
 20
20.666716
 11
37.166775
 21
18.333261
  0
LINE
  8
0
 62
     4
 10
-63.096405
 20
-96.759506
 11
-41.096405
 21
-96.759506
  0
LINE
  8
0
 62
     4
 10
-63.096405
 20
-97.309525
 11
-41.096405
 21
-97.309525
  0
LINE
  8
0
 62
     4
 10
-41.096405
 20
-97.309509
 11
-38.841705
 21
-97.309509
  0
LINE
  8
0
 62
     4
 10
-37.341675
 20
-97.309509
 11
-32.596375
 21
-97.309509
  0
LINE
  8
0
 62
     4
 10
-41.096405
 20
-99.909515
 11
-37.340607
 21
-99.909515
  0
LINE
  8
0
 62
     4
 10
-35.840576
 20
-99.909515
 11
-32.596375
 21
-99.909515
  0
LINE
  8
0
 62
     4
 10
-63.096405
 20
-96.309525
 11
-41.096405
 21
-96.309525
  0
LINE
  8
0
 62
     4
 10
-58.396393
 20
-100.909523
 11
-41.096405
 21
-100.909523
  0
LINE
  8
0
 62
     4
 10
-41.096405
 20
-96.309525
 11
-41.096405
 21
-100.909523
  0
LINE
  8
0
 62
     4
 10
-63.096405
 20
-98.109520
 11
-63.096405
 21
-96.309525
  0
LINE
  8
0
 62
     4
 10
-58.396393
 20
-99.351486
 11
-58.396393
 21
-100.909523
  0
LINE
  8
0
 62
     4
 10
-63.096405
 20
-98.109520
 11
-58.846390
 21
-98.109520
  0
LINE
  8
0
  6
CENTER
 62
     1
 10
-61.096390
 20
-95.502808
 11
-61.096390
 21
-101.741425
  0
LINE
  8
0
 62
     4
 10
-58.846390
 20
-98.109520
 11
-58.846390
 21
-99.351486
  0
LINE
  8
0
 62
     4
 10
-59.096390
 20
-98.109520
 11
-59.096390
 21
-98.909523
  0
LINE
  8
0
 62
     4
 10
-63.096405
 20
-98.109520
 11
-63.096405
 21
-98.909523
  0
LINE
  8
0
 62
     4
 10
-63.096405
 20
-98.909523
 11
-59.096390
 21
-98.909523
  0
LINE
  8
0
 62
     4
 10
-58.896393
 20
-98.109520
 11
-58.896393
 21
-100.109520
  0
LINE
  8
0
 62
     4
 10
-58.896393
 20
-100.109520
 11
-58.396393
 21
-100.109520
  0
LINE
  8
0
 62
     4
 10
-58.846390
 20
-99.351486
 11
-58.396393
 21
-99.351486
  0
LINE
  8
0
 62
     4
 10
-32.596375
 20
-97.309509
 11
-32.596375
 21
-99.909515
  0
LINE
  8
0
  6
CENTER
 62
     1
 10
-34.319275
 20
-98.159439
 11
-22.387207
 21
-98.159439
  0
LINE
  8
0
  6
CENTER
 62
     1
 10
-34.268982
 20
-99.059433
 11
-22.345337
 21
-99.059433
  0
LINE
  8
0
 62
     4
 10
-22.596375
 20
-97.909454
 11
-22.596375
 21
-98.409454
  0
LINE
  8
0
 62
     4
 10
-22.596375
 20
-98.809448
 11
-22.596375
 21
-99.309448
  0
LINE
  8
0
 62
     4
 10
-25.596375
 20
-97.709442
 11
-25.596375
 21
-99.509460
  0
LINE
  8
0
 62
     4
 10
-32.596375
 20
-99.509445
 11
-28.590820
 21
-99.509445
  0
LINE
  8
0
 62
     4
 10
-32.596375
 20
-98.609421
 11
-29.110413
 21
-98.609421
  0
LINE
  8
0
 62
     4
 10
-27.610413
 20
-98.609421
 11
-25.596375
 21
-98.609421
  0
LINE
  8
0
 62
     4
 10
-27.090820
 20
-99.509445
 11
-25.596375
 21
-99.509445
  0
LINE
  8
0
 62
     4
 10
-32.596375
 20
-97.709427
 11
-29.630066
 21
-97.709427
  0
LINE
  8
0
 62
     4
 10
-28.130066
 20
-97.709427
 11
-25.596375
 21
-97.709427
  0
LINE
  8
0
 62
     4
 10
-25.596375
 20
-97.909439
 11
-22.596375
 21
-97.909439
  0
LINE
  8
0
 62
     4
 10
-25.596375
 20
-98.409439
 11
-22.596375
 21
-98.409439
  0
LINE
  8
0
 62
     4
 10
-25.596375
 20
-98.809433
 11
-22.596375
 21
-98.809433
  0
LINE
  8
0
 62
     4
 10
-25.596375
 20
-99.309433
 11
-22.596375
 21
-99.309433
  0
LINE
  8
0
 62
     1
 10
-28.860390
 20
-96.444504
 11
-26.360388
 21
-100.774628
  0
LINE
  8
0
  6
CENTER
 62
     1
 10
-42.410767
 20
-98.609512
 11
-32.596375
 21
-98.609512
  0
LINE
  8
0
 62
     1
 10
-30.360472
 20
-96.444481
 11
-27.860474
 21
-100.774612
  0
LINE
  8
0
 62
     1
 10
-37.841129
 20
-96.444450
 11
-35.341129
 21
-100.774582
  0
LINE
  8
0
 62
     1
 10
-39.341106
 20
-96.444527
 11
-36.841110
 21
-100.774643
  0
LINE
  8
0
 62
     4
 10
-62.121399
 20
-100.309525
 11
-60.071396
 21
-100.309525
  0
LINE
  8
0
 62
     4
 10
-60.070976
 20
-100.309967
 11
-59.845982
 21
-100.084976
  0
LINE
  8
0
 62
     4
 10
-62.121357
 20
-100.309540
 11
-62.346352
 21
-100.084549
  0
LINE
  8
0
 62
     4
 10
-62.346390
 20
-98.908707
 11
-62.346390
 21
-100.084526
  0
LINE
  8
0
 62
     1
 10
-62.121399
 20
-98.908707
 11
-62.121399
 21
-100.309525
  0
LINE
  8
0
 62
     1
 10
-60.071396
 20
-98.908707
 11
-60.071396
 21
-100.309525
  0
LINE
  8
0
 62
     4
 10
-59.846390
 20
-98.908707
 11
-59.846390
 21
-100.084518
  0
LINE
  8
0
 62
     4
 10
-62.346390
 20
-100.084526
 11
-59.846390
 21
-100.084526
  0
LINE
  8
0
 62
     4
 10
-62.346390
 20
-95.809525
 11
-62.346390
 21
-96.309525
  0
LINE
  8
0
 62
     1
 10
-62.121399
 20
-95.809525
 11
-62.121399
 21
-96.309525
  0
LINE
  8
0
 62
     1
 10
-60.071396
 20
-95.809525
 11
-60.071396
 21
-96.309525
  0
LINE
  8
0
 62
     4
 10
-59.846390
 20
-95.809525
 11
-59.846390
 21
-96.309525
  0
LINE
  8
0
 62
     4
 10
-62.346390
 20
-95.809525
 11
-59.846390
 21
-95.809525
  0
LINE
  8
0
 62
     4
 10
-106.389130
 20
-95.809525
 11
-106.389130
 21
-96.309525
  0
LINE
  8
0
 62
     4
 10
-108.889130
 20
-95.809525
 11
-106.389130
 21
-95.809525
  0
LINE
  8
0
  6
CENTER
 62
     1
 10
-107.639130
 20
-94.256554
 11
-107.639130
 21
-102.969315
  0
LINE
  8
0
 62
     4
 10
-109.689117
 20
-97.309525
 11
-109.689117
 21
-98.859520
  0
LINE
  8
0
 62
     4
 10
-109.689178
 20
-97.309486
 11
-109.139168
 21
-96.759476
  0
LINE
  8
0
 62
     4
 10
-109.139130
 20
-96.309525
 11
-109.139130
 21
-96.759521
  0
LINE
  8
0
 62
     4
 10
-109.139130
 20
-96.309525
 11
-106.139130
 21
-96.309525
  0
LINE
  8
0
 62
     4
 10
-106.139130
 20
-96.309525
 11
-106.139130
 21
-96.759521
  0
LINE
  8
0
 62
     4
 10
-105.589119
 20
-97.309471
 11
-106.139114
 21
-96.759460
  0
LINE
  8
0
 62
     4
 10
-105.589127
 20
-97.309525
 11
-105.589127
 21
-98.859520
  0
LINE
  8
0
 62
     4
 10
-109.689117
 20
-98.109520
 11
-105.589127
 21
-98.109520
  0
LINE
  8
0
 62
     4
 10
-109.689133
 20
-98.908707
 11
-105.589127
 21
-98.908707
  0
LINE
  8
0
 62
     4
 10
-108.664139
 20
-100.309525
 11
-106.614136
 21
-100.309525
  0
LINE
  8
0
 62
     4
 10
-106.613701
 20
-100.309998
 11
-106.388702
 21
-100.084984
  0
LINE
  8
0
 62
     4
 10
-108.664116
 20
-100.309563
 11
-108.889114
 21
-100.084564
  0
LINE
  8
0
 62
     4
 10
-108.889130
 20
-98.908707
 11
-108.889130
 21
-100.084526
  0
LINE
  8
0
 62
     1
 10
-108.664139
 20
-98.908707
 11
-108.664139
 21
-100.309525
  0
LINE
  8
0
 62
     1
 10
-106.614136
 20
-98.908707
 11
-106.614136
 21
-100.309525
  0
LINE
  8
0
 62
     4
 10
-106.389130
 20
-98.908707
 11
-106.389130
 21
-100.084518
  0
LINE
  8
0
 62
     4
 10
-108.889130
 20
-100.084526
 11
-106.389130
 21
-100.084526
  0
LINE
  8
0
 62
     4
 10
-108.889130
 20
-95.809525
 11
-108.889130
 21
-96.309525
  0
LINE
  8
0
 62
     1
 10
-108.664139
 20
-95.809525
 11
-108.664139
 21
-96.309525
  0
LINE
  8
0
 62
     1
 10
-106.614136
 20
-95.809525
 11
-106.614136
 21
-96.309525
  0
LINE
  8
0
 62
     4
 10
-41.096405
 20
-55.059525
 11
-38.006622
 21
-55.059525
  0
LINE
  8
0
  6
CENTER
 62
     1
 10
-65.896942
 20
-53.759521
 11
-35.688889
 21
-53.759521
  0
LINE
  8
0
 62
     4
 10
-63.096405
 20
-55.259521
 11
-41.096405
 21
-55.259521
  0
LINE
  8
0
 62
     4
 10
-63.096405
 20
-52.259521
 11
-41.096405
 21
-52.259521
  0
LINE
  8
0
 62
     4
 10
-63.096405
 20
-55.809525
 11
-41.096405
 21
-55.809525
  0
LINE
  8
0
 62
     4
 10
-63.096405
 20
-51.709518
 11
-41.096405
 21
-51.709518
  0
LINE
  8
0
 62
     4
 10
-63.096405
 20
-51.709518
 11
-63.096405
 21
-55.809525
  0
LINE
  8
0
 62
     4
 10
-41.096405
 20
-51.709518
 11
-41.096405
 21
-55.809525
  0
LINE
  8
0
  6
CENTER
 62
     1
 10
-61.096390
 20
-50.923019
 11
-61.096390
 21
-56.512344
  0
LINE
  8
0
 62
     4
 10
-62.141674
 20
-54.472591
 11
-60.408337
 21
-52.739254
  0
LINE
  8
0
 62
     4
 10
-61.788120
 20
-54.826176
 11
-60.154781
 21
-53.192837
  0
LINE
  8
0
 62
     1
 10
-40.007179
 20
-51.594429
 11
-37.507179
 21
-55.924557
  0
LINE
  8
0
 62
     4
 10
-41.096405
 20
-52.459518
 11
-39.507751
 21
-52.459518
  0
LINE
  8
0
 62
     4
 10
95.464539
 20
-95.809525
 11
97.964539
 21
-95.809525
  0
LINE
  8
0
 62
     4
 10
97.964539
 20
-95.809525
 11
97.964539
 21
-96.309525
  0
LINE
  8
0
 62
     4
 10
115.421875
 20
-89.409523
 11
115.421875
 21
-85.653687
  0
LINE
  8
0
 62
     4
 10
112.821899
 20
-85.654793
 11
112.821899
 21
-80.909485
  0
LINE
  8
0
 62
     4
 10
112.821899
 20
-89.409523
 11
112.821899
 21
-87.154778
  0
LINE
  8
0
 62
     4
 10
115.421875
 20
-84.153694
 11
115.421875
 21
-80.909485
  0
LINE
  8
0
 62
     4
 10
94.714539
 20
-96.309525
 11
110.814545
 21
-96.309525
  0
LINE
  8
0
 62
     4
 10
99.414520
 20
-100.909523
 11
116.714539
 21
-100.909523
  0
LINE
  8
0
 62
     4
 10
116.714539
 20
-89.409523
 11
116.714539
 21
-100.909523
  0
LINE
  8
0
 62
     4
 10
94.714539
 20
-98.909523
 11
94.714539
 21
-96.309525
  0
LINE
  8
0
 62
     4
 10
99.414520
 20
-99.291679
 11
99.414520
 21
-100.909523
  0
LINE
  8
0
  6
CENTER
 62
     1
 10
96.714539
 20
-95.579269
 11
96.714539
 21
-101.482193
  0
LINE
  8
0
 62
     4
 10
110.814514
 20
-89.409523
 11
110.814514
 21
-96.309525
  0
LINE
  8
0
 62
     4
 10
94.714539
 20
-98.109528
 11
98.988342
 21
-98.109528
  0
LINE
  8
0
 62
     4
 10
94.714539
 20
-98.909523
 11
98.714539
 21
-98.909523
  0
LINE
  8
0
 62
     4
 10
98.714539
 20
-98.109520
 11
98.714539
 21
-98.909523
  0
LINE
  8
0
 62
     4
 10
110.814545
 20
-89.409523
 11
116.714539
 21
-89.409523
  0
LINE
  8
0
 62
     4
 10
98.914520
 20
-100.109528
 11
99.414520
 21
-100.109528
  0
LINE
  8
0
 62
     4
 10
98.914520
 20
-98.109528
 11
98.914520
 21
-100.109528
  0
LINE
  8
0
 62
     4
 10
98.988342
 20
-99.291679
 11
99.414520
 21
-99.291679
  0
LINE
  8
0
 62
     4
 10
98.988342
 20
-98.109528
 11
98.988342
 21
-99.291679
  0
LINE
  8
0
 62
     4
 10
94.714539
 20
-97.309525
 11
116.714539
 21
-97.309525
  0
LINE
  8
0
 62
     4
 10
94.714539
 20
-96.759521
 11
116.714539
 21
-96.759521
  0
LINE
  8
0
 62
     4
 10
110.814514
 20
-95.159508
 11
116.714539
 21
-95.159508
  0
LINE
  8
0
 62
     4
 10
110.814514
 20
-95.909508
 11
116.714539
 21
-95.909508
  0
LINE
  8
0
 62
     4
 10
110.814514
 20
-90.909523
 11
116.714539
 21
-90.909523
  0
LINE
  8
0
 62
     4
 10
112.821899
 20
-80.909485
 11
115.421875
 21
-80.909485
  0
LINE
  8
0
  6
CENTER
 62
     1
 10
113.671814
 20
-82.632416
 11
113.671814
 21
-70.700333
  0
LINE
  8
0
  6
CENTER
 62
     1
 10
114.571808
 20
-82.582123
 11
114.571808
 21
-70.658478
  0
LINE
  8
0
 62
     4
 10
113.421814
 20
-70.909485
 11
113.921814
 21
-70.909485
  0
LINE
  8
0
 62
     4
 10
114.321808
 20
-70.909485
 11
114.821808
 21
-70.909485
  0
LINE
  8
0
 62
     4
 10
113.221802
 20
-73.909485
 11
115.021820
 21
-73.909485
  0
LINE
  8
0
 62
     4
 10
115.021820
 20
-80.909485
 11
115.021820
 21
-76.903938
  0
LINE
  8
0
 62
     4
 10
114.121796
 20
-80.909485
 11
114.121796
 21
-77.423553
  0
LINE
  8
0
 62
     4
 10
114.121796
 20
-75.923553
 11
114.121796
 21
-73.909485
  0
LINE
  8
0
 62
     4
 10
115.021820
 20
-75.403938
 11
115.021820
 21
-73.909485
  0
LINE
  8
0
 62
     4
 10
113.221802
 20
-80.909485
 11
113.221802
 21
-77.943176
  0
LINE
  8
0
 62
     4
 10
113.221802
 20
-76.443176
 11
113.221802
 21
-73.909485
  0
LINE
  8
0
 62
     4
 10
113.421814
 20
-73.909485
 11
113.421814
 21
-70.909485
  0
LINE
  8
0
 62
     4
 10
113.921814
 20
-73.909485
 11
113.921814
 21
-70.909485
  0
LINE
  8
0
 62
     4
 10
114.321808
 20
-73.909485
 11
114.321808
 21
-70.909485
  0
LINE
  8
0
 62
     4
 10
114.821808
 20
-73.909485
 11
114.821808
 21
-70.909485
  0
LINE
  8
0
 62
     1
 10
111.956955
 20
-77.173668
 11
116.287102
 21
-74.673645
  0
LINE
  8
0
  6
CENTER
 62
     1
 10
114.121887
 20
-90.723892
 11
114.121887
 21
-80.909485
  0
LINE
  8
0
 62
     1
 10
111.956863
 20
-78.673676
 11
116.287018
 21
-76.173660
  0
LINE
  8
0
 62
     1
 10
111.956818
 20
-86.154350
 11
116.286949
 21
-83.654350
  0
LINE
  8
0
 62
     1
 10
111.956863
 20
-87.654358
 11
116.286987
 21
-85.154358
  0
LINE
  8
0
 62
     4
 10
95.689514
 20
-100.309525
 11
97.739532
 21
-100.309525
  0
LINE
  8
0
 62
     4
 10
97.740105
 20
-100.310066
 11
97.965096
 21
-100.085068
  0
LINE
  8
0
 62
     4
 10
95.689598
 20
-100.309395
 11
95.464615
 21
-100.084412
  0
LINE
  8
0
 62
     4
 10
95.464539
 20
-98.909523
 11
95.464539
 21
-100.084526
  0
LINE
  8
0
 62
     1
 10
95.689514
 20
-98.909523
 11
95.689514
 21
-100.309525
  0
LINE
  8
0
 62
     1
 10
97.739532
 20
-98.909523
 11
97.739532
 21
-100.309525
  0
LINE
  8
0
 62
     4
 10
97.964539
 20
-98.909523
 11
97.964539
 21
-100.084518
  0
LINE
  8
0
 62
     4
 10
95.464539
 20
-100.084526
 11
97.964539
 21
-100.084526
  0
LINE
  8
0
 62
     4
 10
95.464539
 20
-95.809525
 11
95.464539
 21
-96.309525
  0
LINE
  8
0
 62
     1
 10
95.689514
 20
-95.809525
 11
95.689514
 21
-96.309525
  0
LINE
  8
0
 62
     1
 10
97.739532
 20
-95.809525
 11
97.739532
 21
-96.309525
  0
LINE
  8
0
 62
     4
 10
50.371826
 20
-87.154800
 11
50.371826
 21
-89.409523
  0
LINE
  8
0
 62
     4
 10
52.971802
 20
-85.653702
 11
52.971802
 21
-89.409523
  0
LINE
  8
0
 62
     4
 10
49.421814
 20
-90.909523
 11
53.921814
 21
-90.909523
  0
LINE
  8
0
 62
     4
 10
49.421814
 20
-89.409523
 11
49.421814
 21
-95.159523
  0
LINE
  8
0
 62
     4
 10
50.171764
 20
-95.909492
 11
49.421799
 21
-95.159531
  0
LINE
  8
0
 62
     4
 10
50.171814
 20
-96.759521
 11
50.171814
 21
-95.909523
  0
LINE
  8
0
 62
     4
 10
49.621777
 20
-97.309456
 11
50.171787
 21
-96.759445
  0
LINE
  8
0
 62
     4
 10
49.621796
 20
-97.309525
 11
49.621796
 21
-98.859520
  0
LINE
  8
0
 62
     4
 10
53.721802
 20
-97.309525
 11
53.721802
 21
-98.859520
  0
LINE
  8
0
 62
     4
 10
53.721794
 20
-97.309555
 11
53.171791
 21
-96.759552
  0
LINE
  8
0
 62
     4
 10
53.171814
 20
-96.759521
 11
53.171814
 21
-95.909523
  0
LINE
  8
0
 62
     4
 10
53.171906
 20
-95.909630
 11
53.921898
 21
-95.159637
  0
LINE
  8
0
 62
     4
 10
53.921814
 20
-89.409523
 11
53.921814
 21
-95.159523
  0
LINE
  8
0
  6
CENTER
 62
     1
 10
51.671814
 20
-83.748566
 11
51.671814
 21
-102.376190
  0
LINE
  8
0
 62
     4
 10
50.171814
 20
-96.309525
 11
53.171814
 21
-96.309525
  0
LINE
  8
0
 62
     4
 10
49.621796
 20
-98.109520
 11
53.721802
 21
-98.109520
  0
LINE
  8
0
 62
     4
 10
49.621796
 20
-98.911972
 11
53.721802
 21
-98.911972
  0
LINE
  8
0
 62
     4
 10
49.421814
 20
-89.409523
 11
53.921814
 21
-89.409523
  0
LINE
  8
0
 62
     1
 10
49.506832
 20
-87.654343
 11
53.836960
 21
-85.154343
  0
LINE
  8
0
 62
     4
 10
50.646790
 20
-100.309525
 11
52.696808
 21
-100.309525
  0
LINE
  8
0
 62
     4
 10
52.697304
 20
-100.310043
 11
52.922295
 21
-100.085045
  0
LINE
  8
0
 62
     4
 10
50.646858
 20
-100.309448
 11
50.421852
 21
-100.084442
  0
LINE
  8
0
 62
     4
 10
50.421814
 20
-98.911972
 11
50.421814
 21
-100.084526
  0
LINE
  8
0
 62
     1
 10
50.646790
 20
-98.911972
 11
50.646790
 21
-100.309525
  0
LINE
  8
0
 62
     1
 10
52.696808
 20
-98.911972
 11
52.696808
 21
-100.309525
  0
LINE
  8
0
 62
     4
 10
52.921814
 20
-98.911972
 11
52.921814
 21
-100.084518
  0
LINE
  8
0
 62
     4
 10
50.421814
 20
-100.084526
 11
52.921814
 21
-100.084526
  0
LINE
  8
0
 62
     4
 10
50.421814
 20
-95.809525
 11
50.421814
 21
-96.309525
  0
LINE
  8
0
 62
     1
 10
50.646790
 20
-95.809525
 11
50.646790
 21
-96.309525
  0
LINE
  8
0
 62
     1
 10
52.696808
 20
-95.809525
 11
52.696808
 21
-96.309525
  0
LINE
  8
0
 62
     4
 10
52.921814
 20
-95.809525
 11
52.921814
 21
-96.309525
  0
LINE
  8
0
 62
     4
 10
50.421814
 20
-95.809525
 11
52.921814
 21
-95.809525
  0
LINE
  8
0
  6
CENTER
 62
     1
 10
93.385345
 20
-48.709511
 11
118.294525
 21
-48.709511
  0
LINE
  8
0
 62
     4
 10
94.714539
 20
-50.209511
 11
111.275146
 21
-50.209511
  0
LINE
  8
0
 62
     4
 10
94.714539
 20
-47.209511
 11
111.275146
 21
-47.209511
  0
LINE
  8
0
 62
     4
 10
94.714539
 20
-50.759506
 11
111.628510
 21
-50.759506
  0
LINE
  8
0
 62
     4
 10
94.714539
 20
-46.659508
 11
111.628510
 21
-46.659508
  0
LINE
  8
0
 62
     4
 10
94.714539
 20
-46.659500
 11
94.714539
 21
-50.759506
  0
LINE
  8
0
  6
CENTER
 62
     1
 10
96.714539
 20
-45.873001
 11
96.714539
 21
-51.462326
  0
LINE
  8
0
 62
     4
 10
111.800507
 20
-46.459511
 11
116.714539
 21
-46.459511
  0
LINE
  8
0
 62
     4
 10
111.800507
 20
-50.959511
 11
116.714539
 21
-50.959511
  0
LINE
  8
0
 62
     4
 10
116.714539
 20
-46.459503
 11
116.714539
 21
-50.959503
  0
LINE
  8
0
 62
     4
 10
96.068794
 20
-49.779842
 11
97.784904
 21
-48.063736
  0
LINE
  8
0
 62
     4
 10
95.644516
 20
-49.355518
 11
97.360619
 21
-47.639420
  0
LINE
  8
0
 10
-281.250000
 20
195.500000
 11
282.099976
 21
195.500000
  0
LINE
  8
0
 10
-281.250000
 20
195.500000
 11
-281.250000
 21
-195.000000
  0
LINE
  8
0
 10
282.099976
 20
195.500000
 11
282.099976
 21
-195.000000
  0
LINE
  8
0
 10
-281.250000
 20
-195.000000
 11
282.099976
 21
-195.000000
  0
LINE
  8
0
 10
162.099976
 20
-175.000000
 11
162.099976
 21
-195.000000
  0
LINE
  8
0
 10
162.099976
 20
-175.000000
 11
282.099976
 21
-175.000000
  0
LINE
  8
0
 10
162.099976
 20
175.500000
 11
282.099976
 21
175.500000
  0
LINE
  8
0
 10
-281.250000
 20
175.500000
 11
-161.250000
 21
175.500000
  0
LINE
  8
0
 10
162.099976
 20
195.500000
 11
162.099976
 21
175.500000
  0
LINE
  8
0
 10
-161.250000
 20
195.500000
 11
-161.250000
 21
175.500000
  0
LINE
  8
0
 10
-271.250000
 20
-133.000000
 11
-271.250000
 21
-185.000000
  0
LINE
  8
0
 10
-271.250000
 20
-185.000000
 11
-50.250000
 21
-185.000000
  0
LINE
  8
0
 10
-271.250000
 20
-155.000015
 11
-50.250000
 21
-155.000015
  0
LINE
  8
0
 10
-271.250000
 20
-133.000000
 11
-50.250000
 21
-133.000000
  0
LINE
  8
0
 10
-226.250000
 20
-133.000000
 11
-226.250000
 21
-185.000000
  0
LINE
  8
0
 10
-204.250000
 20
-133.000000
 11
-204.250000
 21
-185.000000
  0
LINE
  8
0
 10
-182.250000
 20
-133.000000
 11
-182.250000
 21
-185.000000
  0
LINE
  8
0
 10
-160.250000
 20
-133.000000
 11
-160.250000
 21
-185.000000
  0
LINE
  8
0
 10
-138.250000
 20
-133.000000
 11
-138.250000
 21
-185.000000
  0
LINE
  8
0
 10
-116.250000
 20
-133.000000
 11
-116.250000
 21
-185.000000
  0
LINE
  8
0
 10
-94.250000
 20
-133.000000
 11
-94.250000
 21
-185.000000
  0
LINE
  8
0
 10
-50.250000
 20
-133.000000
 11
-50.250000
 21
-185.000000
  0
LINE
  8
0
 10
-271.250000
 20
-175.000015
 11
-50.250000
 21
-175.000015
  0
LINE
  8
0
 10
-271.250031
 20
-165.000000
 11
-50.250000
 21
-165.000000
  0
LINE
  8
0
 10
-271.250000
 20
-141.000000
 11
-234.517441
 21
-141.000000
  0
LINE
  8
0
 10
-234.517502
 20
-141.000046
 11
-226.250092
 21
-155.000061
  0
LINE
  8
0
 10
-72.250000
 20
-133.000000
 11
-72.250000
 21
-185.000000
  0
ARC
  8
0
 10
-29.789053
 20
86.968880
 40
1.789075
 50
325.615814
 51
34.384144
  0
ARC
  8
0
 10
36.025276
 20
66.499977
 40
7.000000
 50
252.575424
 51
287.424591
  0
ARC
  8
0
 10
-34.687370
 20
89.999977
 40
6.687391
 50
342.412018
 51
17.587919
  0
ARC
  8
0
 10
37.841942
 20
60.711693
 40
0.933332
 50
287.424652
 51
0.000000
  0
ARC
  8
0
 10
34.208611
 20
60.711693
 40
0.933333
 50
225.163773
 51
252.575348
  0
CIRCLE
  8
0
 10
-12.999975
 20
89.999977
 40
2.250000
  0
CIRCLE
  8
0
 10
12.000025
 20
113.499977
 40
2.250000
  0
CIRCLE
  8
0
 10
37.000023
 20
89.999977
 40
2.250000
  0
CIRCLE
  8
0
 10
12.000025
 20
66.499977
 40
2.250000
  0
CIRCLE
  8
0
 10
-12.999975
 20
89.999977
 40
4.000000
  0
CIRCLE
  8
0
 10
37.000023
 20
89.999977
 40
4.000000
  0
ARC
  8
0
 10
12.000025
 20
66.499977
 40
4.000000
 50
298.955048
 51
241.044937
  0
ARC
  8
0
 10
12.000025
 20
113.499977
 40
4.000001
 50
118.955055
 51
61.044949
  0
CIRCLE
  8
0
 62
     2
 10
-48.999977
 20
106.999977
 40
2.000000
  0
CIRCLE
  8
0
 62
     2
 10
-48.999977
 20
72.999977
 40
2.000000
  0
ARC
  8
0
 10
-28.610907
 20
93.031059
 40
1.789073
 50
145.615784
 51
214.384186
  0
ARC
  8
0
 10
-23.712591
 20
89.999977
 40
6.687389
 50
162.412079
 51
197.587921
  0
ARC
  8
0
 10
-28.610907
 20
86.968880
 40
1.789075
 50
145.615814
 51
214.384140
  0
ARC
  8
0
 10
-32.210899
 20
93.031059
 40
1.789073
 50
145.615784
 51
214.384216
  0
ARC
  8
0
 10
-27.312597
 20
89.999977
 40
6.687390
 50
162.412079
 51
197.587921
  0
ARC
  8
0
 10
-32.210899
 20
86.968880
 40
1.789077
 50
145.615860
 51
214.384140
  0
ARC
  8
0
 10
-29.789053
 20
93.031059
 40
1.789073
 50
325.615784
 51
34.384178
  0
CIRCLE
  8
0
 10
-48.999977
 20
106.999977
 40
1.650000
  0
CIRCLE
  8
0
 10
-48.999977
 20
72.999977
 40
1.650000
  0
ARC
  8
0
 10
-136.336990
 20
60.711731
 40
0.933334
 50
180.000000
 51
252.575790
  0
ARC
  8
0
 10
-134.520325
 20
66.500015
 40
7.000003
 50
252.575348
 51
287.424530
  0
ARC
  8
0
 10
-132.703659
 20
60.711731
 40
0.933330
 50
287.424225
 51
315.266449
  0
CIRCLE
  8
0
 62
     2
 10
-127.500031
 20
113.500015
 40
2.000000
  0
CIRCLE
  8
0
 62
     2
 10
-127.500031
 20
66.500015
 40
2.000000
  0
CIRCLE
  8
0
 10
-127.500031
 20
102.000015
 40
3.500000
  0
CIRCLE
  8
0
 10
-127.500031
 20
78.000015
 40
3.500000
  0
CIRCLE
  8
0
 10
-127.500031
 20
102.000015
 40
2.980377
  0
CIRCLE
  8
0
 10
-127.500031
 20
78.000015
 40
2.980381
  0
CIRCLE
  8
0
 10
-127.500031
 20
78.000015
 40
3.900000
  0
CIRCLE
  8
0
 10
-127.500031
 20
102.000015
 40
3.900000
  0
CIRCLE
  8
0
 10
-127.500031
 20
113.500015
 40
1.650000
  0
CIRCLE
  8
0
 10
-127.500031
 20
66.500015
 40
1.650000
  0
ARC
  8
0
 10
109.663147
 20
60.711739
 40
0.933334
 50
180.000000
 51
252.575348
  0
ARC
  8
0
 10
110.600082
 20
111.300041
 40
2.099998
 50
270.000000
 51
90.000000
  0
CIRCLE
  8
0
 10
118.500107
 20
102.000023
 40
9.000000
  0
CIRCLE
  8
0
 10
118.500107
 20
78.000023
 40
9.000000
  0
ARC
  8
0
 10
118.500107
 20
114.383553
 40
2.099998
 50
180.000000
 51
0.000000
  0
ARC
  8
0
 10
126.400101
 20
92.800011
 40
2.099998
 50
90.000000
 51
270.000000
  0
ARC
  8
0
 10
126.400101
 20
111.300026
 40
2.099998
 50
90.000000
 51
270.000000
  0
ARC
  8
0
 10
110.600082
 20
92.800026
 40
2.099998
 50
270.000000
 51
90.000000
  0
ARC
  8
0
 10
111.479813
 20
66.500023
 40
6.999998
 50
252.575455
 51
287.424591
  0
ARC
  8
0
 10
113.296478
 20
60.711739
 40
0.933332
 50
287.424652
 51
315.266113
  0
CIRCLE
  8
0
 10
28.000025
 20
5.499977
 40
2.750000
  0
ARC
  8
0
 10
28.000025
 20
5.499977
 40
3.500000
 50
314.415314
 51
0.000000
  0
ARC
  8
0
 10
43.000023
 20
12.499977
 40
6.000000
 50
138.590378
 51
221.409607
  0
CIRCLE
  8
0
 10
36.000023
 20
19.499977
 40
2.750000
  0
CIRCLE
  8
0
 62
     2
 10
-5.999975
 20
12.499977
 40
2.500000
  0
CIRCLE
  8
0
 62
     2
 10
45.000023
 20
12.499977
 40
2.500000
  0
ARC
  8
0
 10
-25.345358
 20
6.749977
 40
5.054615
 50
159.743805
 51
200.256119
  0
ARC
  8
0
 10
-28.945364
 20
6.749977
 40
5.054615
 50
159.743805
 51
200.256134
  0
ARC
  8
0
 10
-33.054588
 20
6.749977
 40
5.054614
 50
339.743805
 51
20.256126
  0
CIRCLE
  8
0
 10
32.000023
 20
12.499977
 40
1.750000
  0
ARC
  8
0
 10
28.000025
 20
5.499977
 40
3.500000
 50
0.000000
 51
135.584732
  0
ARC
  8
0
 10
36.000023
 20
19.499977
 40
3.500001
 50
134.415283
 51
315.584686
  0
CIRCLE
  8
0
 10
-5.999975
 20
12.499977
 40
2.100000
  0
CIRCLE
  8
0
 10
45.000023
 20
12.499977
 40
2.100000
  0
ARC
  8
0
 62
     4
 10
-107.639130
 20
-98.859520
 40
2.050003
 50
180.000000
 51
270.000000
  0
ARC
  8
0
 62
     4
 10
-107.639130
 20
-98.859520
 40
2.050003
 50
270.000000
 51
0.000000
  0
CIRCLE
  8
0
 62
     4
 10
-61.096390
 20
-53.759521
 40
1.250000
  0
CIRCLE
  8
0
 62
     4
 10
-61.096390
 20
-53.759521
 40
1.400000
  0
ARC
  8
0
 62
     4
 10
51.671814
 20
-98.859520
 40
2.049999
 50
180.000000
 51
270.000000
  0
ARC
  8
0
 62
     4
 10
51.671814
 20
-98.859520
 40
2.050003
 50
271.259888
 51
0.000000
  0
CIRCLE
  8
0
 62
     4
 10
114.121887
 20
-48.709511
 40
1.300000
  0
CIRCLE
  8
0
 62
     4
 10
96.714539
 20
-48.709511
 40
1.400000
  0
CIRCLE
  8
0
 62
     4
 10
114.443695
 20
-49.050514
 40
0.450000
  0
CIRCLE
  8
0
 62
     4
 10
114.443695
 20
-49.050514
 40
0.250000
  0
CIRCLE
  8
0
 62
     4
 10
113.831818
 20
-48.391357
 40
0.450000
  0
CIRCLE
  8
0
 62
     4
 10
113.831818
 20
-48.391357
 40
0.250000
  0
ARC
  8
0
 62
     4
 10
114.214539
 20
-48.709511
 40
3.300002
 50
137.014145
 51
222.985855
  0
CIRCLE
  8
0
 62
     4
 10
96.714539
 20
-48.709511
 40
1.250000
  0
TEXT
  8
0
 10
196.250259
 20
180.830002
 40
6.300000
  1
Ver. 1.0
 50
0.000000
 41
1.052632
 51
0.000000
  7
STANDARD
  0
TEXT
  8
0
 10
167.564667
 20
-192.100006
 40
9.000000
  1
KOGANEI CORP.
 50
0.000000
 41
1.052632
 51
0.000000
  7
STANDARD
  0
TEXT
  8
0
 10
-275.449738
 20
180.830002
 40
6.300000
  1
TWIN ROD CYLINDER
 50
0.000000
 41
1.052632
 51
0.000000
  7
STANDARD
  0
TEXT
  8
0
 10
-258.127045
 20
-154.550003
 40
4.500000
  1
PLACE
 50
0.000000
 41
1.052632
 51
0.000000
  7
STANDARD
  0
TEXT
  8
0
 10
-220.142654
 20
-147.050003
 40
4.500000
  1
10
 50
0.000000
 41
1.052632
 51
0.000000
  7
STANDARD
  0
TEXT
  8
0
 10
-212.642654
 20
-131.050003
 40
4.500000
  1
STRETCH LIST
 50
0.000000
 41
1.052632
 51
0.000000
  7
STANDARD
  0
TEXT
  8
0
 10
-270.049713
 20
155.830002
 40
6.300000
  1
MODEL:TBDAK16*ST(10)-HL
 50
0.000000
 41
1.052632
 51
0.000000
  7
STANDARD
  0
TEXT
  8
0
 10
-70.642654
 20
-132.050003
 40
4.500000
  1
(mm)
 50
0.000000
 41
1.052632
 51
0.000000
  7
STANDARD
  0
TEXT
  8
0
 10
-267.127045
 20
-140.050003
 40
4.500000
  1
STROKE
 50
0.000000
 41
1.052632
 51
0.000000
  7
STANDARD
  0
TEXT
  8
0
 10
-267.127045
 20
-148.550003
 40
4.500000
  1
STRETCH
 50
0.000000
 41
1.052632
 51
0.000000
  7
STANDARD
  0
TEXT
  8
0
 10
-251.585724
 20
-163.320007
 40
4.800000
  1
A
 50
0.000000
 41
1.052632
 51
0.000000
  7
STANDARD
  0
TEXT
  8
0
 10
-251.585724
 20
-173.320007
 40
4.800000
  1
B
 50
0.000000
 41
1.052632
 51
0.000000
  7
STANDARD
  0
TEXT
  8
0
 10
-251.585724
 20
-183.320007
 40
4.800000
  1
C
 50
0.000000
 41
1.052632
 51
0.000000
  7
STANDARD
  0
TEXT
  8
0
 10
-198.142853
 20
-147.050003
 40
4.500000
  1
20
 50
0.000000
 41
1.052632
 51
0.000000
  7
STANDARD
  0
TEXT
  8
0
 10
-176.142853
 20
-147.050003
 40
4.500000
  1
30
 50
0.000000
 41
1.052632
 51
0.000000
  7
STANDARD
  0
TEXT
  8
0
 10
-154.142853
 20
-147.050003
 40
4.500000
  1
40
 50
0.000000
 41
1.052632
 51
0.000000
  7
STANDARD
  0
TEXT
  8
0
 10
-132.142853
 20
-147.050003
 40
4.500000
  1
50
 50
0.000000
 41
1.052632
 51
0.000000
  7
STANDARD
  0
TEXT
  8
0
 10
-110.142853
 20
-147.050003
 40
4.500000
  1
60
 50
0.000000
 41
1.052632
 51
0.000000
  7
STANDARD
  0
TEXT
  8
0
 10
-217.892853
 20
-163.050003
 40
4.500000
  1
0
 50
0.000000
 41
1.052632
 51
0.000000
  7
STANDARD
  0
TEXT
  8
0
 10
-217.892853
 20
-173.049988
 40
4.500000
  1
0
 50
0.000000
 41
1.052632
 51
0.000000
  7
STANDARD
  0
TEXT
  8
0
 10
-217.892853
 20
-183.049973
 40
4.500000
  1
0
 50
0.000000
 41
1.052632
 51
0.000000
  7
STANDARD
  0
TEXT
  8
0
 10
-198.142853
 20
-183.049973
 40
4.500000
  1
10
 50
0.000000
 41
1.052632
 51
0.000000
  7
STANDARD
  0
TEXT
  8
0
 10
-176.142853
 20
-183.049973
 40
4.500000
  1
20
 50
0.000000
 41
1.052632
 51
0.000000
  7
STANDARD
  0
TEXT
  8
0
 10
-154.142853
 20
-183.049973
 40
4.500000
  1
30
 50
0.000000
 41
1.052632
 51
0.000000
  7
STANDARD
  0
TEXT
  8
0
 10
-132.142853
 20
-183.049973
 40
4.500000
  1
40
 50
0.000000
 41
1.052632
 51
0.000000
  7
STANDARD
  0
TEXT
  8
0
 10
-110.142853
 20
-183.049973
 40
4.500000
  1
50
 50
0.000000
 41
1.052632
 51
0.000000
  7
STANDARD
  0
TEXT
  8
0
 62
     3
 10
-48.862728
 20
147.753006
 40
4.500000
  1
STRETCH LINE C
 50
0.000000
 41
1.052632
 51
0.000000
  7
STANDARD
  0
TEXT
  8
0
 62
     3
 10
-15.362728
 20
137.753006
 40
4.500000
  1
STRETCH LINE A
 50
0.000000
 41
1.052632
 51
0.000000
  7
STANDARD
  0
TEXT
  8
0
 62
     3
 10
7.137272
 20
127.753006
 40
4.500000
  1
STRETCH LINE B
 50
0.000000
 41
1.052632
 51
0.000000
  7
STANDARD
  0
TEXT
  8
0
 10
-88.142853
 20
-183.049973
 40
4.500000
  1
60
 50
0.000000
 41
1.052632
 51
0.000000
  7
STANDARD
  0
TEXT
  8
0
 10
-88.142853
 20
-147.050003
 40
4.500000
  1
70
 50
0.000000
 41
1.052632
 51
0.000000
  7
STANDARD
  0
TEXT
  8
0
 10
-66.142853
 20
-183.049973
 40
4.500000
  1
70
 50
0.000000
 41
1.052632
 51
0.000000
  7
STANDARD
  0
TEXT
  8
0
 10
-66.142853
 20
-147.050003
 40
4.500000
  1
80
 50
0.000000
 41
1.052632
 51
0.000000
  7
STANDARD
  0
TEXT
  8
0
 10
-195.892853
 20
-163.050003
 40
4.500000
  1
5
 50
0.000000
 41
1.052632
 51
0.000000
  7
STANDARD
  0
TEXT
  8
0
 10
-195.892853
 20
-173.049988
 40
4.500000
  1
5
 50
0.000000
 41
1.052632
 51
0.000000
  7
STANDARD
  0
TEXT
  8
0
 10
-176.142853
 20
-163.050003
 40
4.500000
  1
10
 50
0.000000
 41
1.052632
 51
0.000000
  7
STANDARD
  0
TEXT
  8
0
 10
-176.142853
 20
-173.049988
 40
4.500000
  1
10
 50
0.000000
 41
1.052632
 51
0.000000
  7
STANDARD
  0
TEXT
  8
0
 10
-154.142853
 20
-173.049988
 40
4.500000
  1
15
 50
0.000000
 41
1.052632
 51
0.000000
  7
STANDARD
  0
TEXT
  8
0
 10
-132.142853
 20
-173.049988
 40
4.500000
  1
20
 50
0.000000
 41
1.052632
 51
0.000000
  7
STANDARD
  0
TEXT
  8
0
 10
-110.142853
 20
-173.049988
 40
4.500000
  1
25
 50
0.000000
 41
1.052632
 51
0.000000
  7
STANDARD
  0
TEXT
  8
0
 10
-88.142853
 20
-173.049988
 40
4.500000
  1
30
 50
0.000000
 41
1.052632
 51
0.000000
  7
STANDARD
  0
TEXT
  8
0
 10
-66.142853
 20
-173.049988
 40
4.500000
  1
35
 50
0.000000
 41
1.052632
 51
0.000000
  7
STANDARD
  0
TEXT
  8
0
 10
-154.142853
 20
-163.050003
 40
4.500000
  1
15
 50
0.000000
 41
1.052632
 51
0.000000
  7
STANDARD
  0
TEXT
  8
0
 10
-132.142853
 20
-163.050003
 40
4.500000
  1
20
 50
0.000000
 41
1.052632
 51
0.000000
  7
STANDARD
  0
TEXT
  8
0
 10
-110.142853
 20
-163.050003
 40
4.500000
  1
25
 50
0.000000
 41
1.052632
 51
0.000000
  7
STANDARD
  0
TEXT
  8
0
 10
-88.142853
 20
-163.050003
 40
4.500000
  1
30
 50
0.000000
 41
1.052632
 51
0.000000
  7
STANDARD
  0
TEXT
  8
0
 10
-66.142853
 20
-163.050003
 40
4.500000
  1
35
 50
0.000000
 41
1.052632
 51
0.000000
  7
STANDARD
  0
ENDSEC
  0
EOF
