  0
SECTION
  2
HEADER
  0
ENDSEC
  0
SECTION
  2
TABLES
  0
TABLE
  2
LTYPE
 70
     4
  0
LTYPE
  2
CONTINUOUS
 70
    64
  3
Solid line
 72
    65
 73
     0
 40
0.000000
  0
LTYPE
  2
DASHED
 70
    64
  3
__ __ __ __ __ __ __ __ __ __ __ __ __ __ __
 72
    65
 73
     2
 40
3.500000
 49
2.000000
 49
-1.500000
  0
LTYPE
  2
CENTER
 70
    64
  3
____ _ ____ _ ____ _ ____ _ ____ _ ____ _ ____
 72
    65
 73
     4
 40
17.500000
 49
13.000000
 49
-1.500000
 49
1.500000
 49
-1.500000
  0
LTYPE
  2
PHANTOM
 70
    64
  3
_____ _ _ _____ _ _ _____ _ _ _____ _ _ ____  
 72
    65
 73
     6
 40
15.500000
 49
8.000000
 49
-1.500000
 49
1.500000
 49
-1.500000
 49
1.500000
 49
-1.500000
  0
LTYPE
  2
DASHED1
 70
    64
  3
__ __ __ __ __ __ __ __ __ __ __ __ __ __ __
 72
    65
 73
     2
 40
1.500000
 49
1.000000
 49
-0.500000
  0
LTYPE
  2
DASHED2
 70
    64
  3
__ __ __ __ __ __ __ __ __ __ __ __ __ __ __
 72
    65
 73
     2
 40
3.500000
 49
2.500000
 49
-1.000000
  0
LTYPE
  2
DASHED3
 70
    64
  3
__ __ __ __ __ __ __ __ __ __ __ __ __ __ __
 72
    65
 73
     2
 40
6.000000
 49
4.000000
 49
-2.000000
  0
LTYPE
  2
DASHED4
 70
    64
  3
__ __ __ __ __ __ __ __ __ __ __ __ __ __ __
 72
    65
 73
     2
 40
12.000000
 49
10.000000
 49
-2.000000
  0
LTYPE
  2
DASHED5
 70
    64
  3
__ __ __ __ __ __ __ __ __ __ __ __ __ __ __
 72
    65
 73
     2
 40
17.000000
 49
15.000000
 49
-2.000000
  0
LTYPE
  2
DASHED6
 70
    64
  3
__ __ __ __ __ __ __ __ __ __ __ __ __ __ __
 72
    65
 73
     2
 40
29.000000
 49
27.000000
 49
-2.000000
  0
LTYPE
  2
PHANTOM1
 70
    64
  3
_____ _ _ _____ _ _ _____ _ _ _____ _ _ ____  
 72
    65
 73
     6
 40
31.000000
 49
25.000000
 49
-1.500000
 49
1.000000
 49
-1.000000
 49
1.000000
 49
-1.500000
  0
LTYPE
  2
PHANTOM2
 70
    64
  3
_____ _ _ _____ _ _ _____ _ _ _____ _ _ ____  
 72
    65
 73
     6
 40
36.000000
 49
27.000000
 49
-1.500000
 49
2.500000
 49
-1.000000
 49
2.500000
 49
-1.500000
  0
LTYPE
  2
PHANTOM3
 70
    64
  3
_____ _ _ _____ _ _ _____ _ _ _____ _ _ ____  
 72
    65
 73
     6
 40
78.000000
 49
64.000000
 49
-2.000000
 49
4.000000
 49
-2.000000
 49
4.000000
 49
-2.000000
  0
LTYPE
  2
CENTER1
 70
    64
  3
____ _ ____ _ ____ _ ____ _ ____ _ ____ _ ____
 72
    65
 73
     4
 40
19.000000
 49
14.000000
 49
-1.000000
 49
3.000000
 49
-1.000000
  0
LTYPE
  2
CENTER2
 70
    64
  3
____ _ ____ _ ____ _ ____ _ ____ _ ____ _ ____
 72
    65
 73
     4
 40
28.500000
 49
25.000000
 49
-1.000000
 49
1.500000
 49
-1.000000
  0
LTYPE
  2
CENTER3
 70
    64
  3
____ _ ____ _ ____ _ ____ _ ____ _ ____ _ ____
 72
    65
 73
     4
 40
31.500000
 49
27.000000
 49
-1.000000
 49
2.500000
 49
-1.000000
  0
LTYPE
  2
CENTER4
 70
    64
  3
____ _ ____ _ ____ _ ____ _ ____ _ ____ _ ____
 72
    65
 73
     4
 40
50.000000
 49
45.000000
 49
-1.000000
 49
3.000000
 49
-1.000000
  0
LTYPE
  2
CENTER5
 70
    64
  3
____ _ ____ _ ____ _ ____ _ ____ _ ____ _ ____
 72
    65
 73
     4
 40
100.000000
 49
92.000000
 49
-2.000000
 49
4.000000
 49
-2.000000
  0
LTYPE
  2
SBK1
 70
    64
  3
______ _ _ _ ______ _ _ _ ______ _ _ _ _____  
 72
    65
 73
     8
 40
60.500000
 49
45.000000
 49
-2.000000
 49
2.500000
 49
-2.000000
 49
2.500000
 49
-2.000000
 49
2.500000
 49
-2.000000
  0
LTYPE
  2
SBK2
 70
    64
  3
______ _ _ _ ______ _ _ _ ______ _ _ _ _____  
 72
    65
 73
     8
 40
84.000000
 49
64.000000
 49
-2.000000
 49
4.000000
 49
-2.000000
 49
4.000000
 49
-2.000000
 49
4.000000
 49
-2.000000
  0
LTYPE
  2
STCH
 70
    64
  3
__ __ __ __ __ __ __ __ __ __ __ __ __ __ __
 72
    65
 73
     2
 40
3.000000
 49
1.000000
 49
-2.000000
  0
LTYPE
  2
MTCH
 70
    64
  3
_____ _ _ _____ _ _ _____ _ _ _____ _ _ ____  
 72
    65
 73
     6
 40
80.000000
 49
66.000000
 49
-2.000000
 49
4.000000
 49
-2.000000
 49
4.000000
 49
-2.000000
  0
ENDTAB
  0
TABLE
  2
LAYER
 70
     1
  0
LAYER
  2
0
 70
     0
 62
     7
  6
CONTINUOUS
  0
ENDTAB
  0
TABLE
  2
STYLE
 70
     1
  0
STYLE
  2
STANDARD
 70
     0
 40
0.000000
 41
1.000000
 50
0.000000
 71
     0
 42
0.200000
  3
txt
  4
BIGFONT
  0
ENDTAB
  0
TABLE
  2
VIEW
 70
     0
  0
ENDTAB
  0
ENDSEC
  0
SECTION
  2
BLOCKS
  0
ENDSEC
  0
SECTION
  2
ENTITIES
  0
LINE
  8
0
 10
-194.250000
 20
132.600006
 11
194.800003
 21
132.600006
  0
LINE
  8
0
 10
194.800003
 20
132.600006
 11
194.800003
 21
-133.500000
  0
LINE
  8
0
 10
-194.250000
 20
132.600006
 11
-194.250000
 21
-133.500000
  0
LINE
  8
0
 10
-194.250000
 20
-133.500000
 11
194.800003
 21
-133.500000
  0
LINE
  8
0
 10
109.800003
 20
-118.500000
 11
109.800003
 21
-133.500000
  0
LINE
  8
0
 10
109.800003
 20
-118.500000
 11
194.800003
 21
-118.500000
  0
LINE
  8
0
 10
109.800003
 20
132.600006
 11
109.800003
 21
117.600006
  0
LINE
  8
0
 10
109.800003
 20
117.600006
 11
194.800003
 21
117.600006
  0
LINE
  8
0
 10
-194.250000
 20
117.600006
 11
-109.250000
 21
117.600006
  0
LINE
  8
0
 10
-109.250000
 20
132.600006
 11
-109.250000
 21
117.600006
  0
LINE
  8
0
  6
DASHED
 62
     4
 10
-97.096405
 20
-86.709518
 11
-75.096405
 21
-86.709518
  0
LINE
  8
0
  6
DASHED
 62
     4
 10
-97.096405
 20
-90.809525
 11
-75.096405
 21
-90.809525
  0
LINE
  8
0
  6
DASHED
 62
     4
 10
-97.096405
 20
-86.709518
 11
-97.096405
 21
-87.159523
  0
LINE
  8
0
  6
DASHED
 62
     4
 10
-75.096405
 20
-86.709518
 11
-75.096405
 21
-87.159523
  0
LINE
  8
0
  6
DASHED
 62
     4
 10
-97.096405
 20
-90.359520
 11
-97.096405
 21
-90.809525
  0
LINE
  8
0
  6
DASHED
 62
     4
 10
-75.096405
 20
-90.359520
 11
-75.096405
 21
-90.809525
  0
LINE
  8
0
  6
DASHED
 62
     4
 10
41.714737
 20
-85.759506
 11
58.628716
 21
-85.759506
  0
LINE
  8
0
  6
DASHED
 62
     4
 10
41.714737
 20
-81.659515
 11
58.628716
 21
-81.659515
  0
LINE
  8
0
  6
DASHED
 62
     4
 10
41.714737
 20
-82.109512
 11
41.714737
 21
-81.659515
  0
LINE
  8
0
  6
DASHED
 62
     4
 10
41.714737
 20
-85.309509
 11
41.714737
 21
-85.759506
  0
LINE
  8
0
  6
DASHED
 62
     4
 10
-97.096405
 20
-116.309525
 11
-75.096405
 21
-116.309525
  0
LINE
  8
0
  6
DASHED
 62
     4
 10
-92.396393
 20
-120.909523
 11
-75.096405
 21
-120.909523
  0
LINE
  8
0
  6
DASHED
 62
     4
 10
-75.096405
 20
-116.309525
 11
-75.096405
 21
-120.909523
  0
LINE
  8
0
  6
DASHED
 62
     4
 10
-97.096405
 20
-118.109520
 11
-97.096405
 21
-116.309525
  0
LINE
  8
0
  6
DASHED
 62
     4
 10
-92.396393
 20
-119.351486
 11
-92.396393
 21
-120.909523
  0
LINE
  8
0
  6
DASHED
 62
     4
 10
-97.096405
 20
-118.109520
 11
-92.846390
 21
-118.109520
  0
LINE
  8
0
  6
DASHED
 62
     4
 10
-92.846390
 20
-118.109520
 11
-92.846390
 21
-119.351486
  0
LINE
  8
0
  6
DASHED
 62
     4
 10
-93.096390
 20
-118.109520
 11
-93.096390
 21
-118.909523
  0
LINE
  8
0
  6
DASHED
 62
     4
 10
-97.096405
 20
-118.109520
 11
-97.096405
 21
-118.909523
  0
LINE
  8
0
  6
DASHED
 62
     4
 10
-97.096405
 20
-118.909523
 11
-93.096390
 21
-118.909523
  0
LINE
  8
0
  6
DASHED
 62
     4
 10
-92.896393
 20
-118.109520
 11
-92.896393
 21
-120.109520
  0
LINE
  8
0
  6
DASHED
 62
     4
 10
-92.896393
 20
-120.109520
 11
-92.396393
 21
-120.109520
  0
LINE
  8
0
  6
DASHED
 62
     4
 10
-92.846390
 20
-119.351486
 11
-92.396393
 21
-119.351486
  0
LINE
  8
0
  6
DASHED
 62
     4
 10
-66.596375
 20
-117.309509
 11
-66.596375
 21
-119.909515
  0
LINE
  8
0
  6
CENTER
 62
     1
 10
-68.319275
 20
-118.159439
 11
-56.387207
 21
-118.159439
  0
LINE
  8
0
  6
CENTER
 62
     1
 10
-68.268982
 20
-119.059433
 11
-56.345337
 21
-119.059433
  0
LINE
  8
0
  6
DASHED
 62
     4
 10
-56.596375
 20
-117.909454
 11
-56.596375
 21
-118.409454
  0
LINE
  8
0
  6
DASHED
 62
     4
 10
-56.596375
 20
-118.809448
 11
-56.596375
 21
-119.309448
  0
LINE
  8
0
  6
DASHED
 62
     4
 10
-59.596375
 20
-117.709442
 11
-59.596375
 21
-119.509460
  0
LINE
  8
0
  6
DASHED
 62
     4
 10
-66.596375
 20
-119.509445
 11
-62.590820
 21
-119.509445
  0
LINE
  8
0
  6
DASHED
 62
     4
 10
-66.596375
 20
-118.609421
 11
-63.110413
 21
-118.609421
  0
LINE
  8
0
  6
DASHED
 62
     4
 10
-61.610413
 20
-118.609421
 11
-59.596375
 21
-118.609421
  0
LINE
  8
0
  6
DASHED
 62
     4
 10
-61.090820
 20
-119.509445
 11
-59.596375
 21
-119.509445
  0
LINE
  8
0
  6
DASHED
 62
     4
 10
-66.596375
 20
-117.709427
 11
-63.630066
 21
-117.709427
  0
LINE
  8
0
  6
DASHED
 62
     4
 10
-62.130066
 20
-117.709427
 11
-59.596375
 21
-117.709427
  0
LINE
  8
0
  6
DASHED
 62
     4
 10
-59.596375
 20
-117.909439
 11
-56.596375
 21
-117.909439
  0
LINE
  8
0
  6
DASHED
 62
     4
 10
-59.596375
 20
-118.409439
 11
-56.596375
 21
-118.409439
  0
LINE
  8
0
  6
DASHED
 62
     4
 10
-59.596375
 20
-118.809433
 11
-56.596375
 21
-118.809433
  0
LINE
  8
0
  6
DASHED
 62
     4
 10
-59.596375
 20
-119.309433
 11
-56.596375
 21
-119.309433
  0
LINE
  8
0
 62
     1
 10
-62.860397
 20
-116.444527
 11
-60.360401
 21
-120.774643
  0
LINE
  8
0
  6
CENTER
 62
     1
 10
-76.410767
 20
-118.609512
 11
-66.596375
 21
-118.609512
  0
LINE
  8
0
 62
     1
 10
-64.360497
 20
-116.444504
 11
-61.860500
 21
-120.774635
  0
LINE
  8
0
 62
     1
 10
-71.841194
 20
-116.444496
 11
-69.341194
 21
-120.774628
  0
LINE
  8
0
 62
     1
 10
-73.341148
 20
-116.444550
 11
-70.841148
 21
-120.774666
  0
LINE
  8
0
  6
DASHED
 62
     4
 10
-96.121399
 20
-120.309525
 11
-94.071396
 21
-120.309525
  0
LINE
  8
0
  6
DASHED
 62
     4
 10
-94.070999
 20
-120.309998
 11
-93.846001
 21
-120.084991
  0
LINE
  8
0
  6
DASHED
 62
     4
 10
-96.121307
 20
-120.309494
 11
-96.346306
 21
-120.084496
  0
LINE
  8
0
  6
DASHED
 62
     4
 10
-96.346390
 20
-118.908707
 11
-96.346390
 21
-120.084526
  0
LINE
  8
0
 62
     1
 10
-96.121399
 20
-118.908707
 11
-96.121399
 21
-120.309525
  0
LINE
  8
0
 62
     1
 10
-94.071396
 20
-118.908707
 11
-94.071396
 21
-120.309525
  0
LINE
  8
0
  6
DASHED
 62
     4
 10
-93.846390
 20
-118.908707
 11
-93.846390
 21
-120.084518
  0
LINE
  8
0
  6
DASHED
 62
     4
 10
-96.346390
 20
-120.084526
 11
-93.846390
 21
-120.084526
  0
LINE
  8
0
  6
DASHED
 62
     4
 10
-97.096405
 20
-117.309525
 11
-75.096405
 21
-117.309525
  0
LINE
  8
0
  6
DASHED
 62
     4
 10
-97.096405
 20
-116.759506
 11
-75.096405
 21
-116.759506
  0
LINE
  8
0
  6
DASHED
 62
     4
 10
-75.096405
 20
-117.309509
 11
-72.841705
 21
-117.309509
  0
LINE
  8
0
  6
DASHED
 62
     4
 10
-75.096405
 20
-119.909515
 11
-71.340607
 21
-119.909515
  0
LINE
  8
0
  6
DASHED
 62
     4
 10
-71.341675
 20
-117.309509
 11
-66.596375
 21
-117.309509
  0
LINE
  8
0
  6
DASHED
 62
     4
 10
-69.840576
 20
-119.909515
 11
-66.596375
 21
-119.909515
  0
LINE
  8
0
  6
DASHED
 62
     4
 10
41.714737
 20
-116.309525
 11
57.814743
 21
-116.309525
  0
LINE
  8
0
  6
DASHED
 62
     4
 10
46.414719
 20
-120.909523
 11
63.714737
 21
-120.909523
  0
LINE
  8
0
  6
DASHED
 62
     4
 10
41.714737
 20
-118.909523
 11
41.714737
 21
-116.309525
  0
LINE
  8
0
  6
DASHED
 62
     4
 10
46.414719
 20
-119.291679
 11
46.414719
 21
-120.909523
  0
LINE
  8
0
  6
CENTER
 62
     1
 10
43.714737
 20
-115.579269
 11
43.714737
 21
-121.482193
  0
LINE
  8
0
  6
DASHED
 62
     4
 10
41.714737
 20
-118.109528
 11
45.988541
 21
-118.109528
  0
LINE
  8
0
  6
DASHED
 62
     4
 10
41.714737
 20
-118.909523
 11
45.714737
 21
-118.909523
  0
LINE
  8
0
  6
DASHED
 62
     4
 10
45.714737
 20
-118.109520
 11
45.714737
 21
-118.909523
  0
LINE
  8
0
  6
DASHED
 62
     4
 10
45.914719
 20
-120.109528
 11
46.414719
 21
-120.109528
  0
LINE
  8
0
  6
DASHED
 62
     4
 10
45.914719
 20
-118.109528
 11
45.914719
 21
-120.109528
  0
LINE
  8
0
  6
DASHED
 62
     4
 10
45.988541
 20
-119.291679
 11
46.414719
 21
-119.291679
  0
LINE
  8
0
  6
DASHED
 62
     4
 10
45.988541
 20
-118.109528
 11
45.988541
 21
-119.291679
  0
LINE
  8
0
  6
DASHED
 62
     4
 10
41.714737
 20
-117.309525
 11
63.714737
 21
-117.309525
  0
LINE
  8
0
  6
DASHED
 62
     4
 10
41.714737
 20
-116.759521
 11
63.714737
 21
-116.759521
  0
LINE
  8
0
  6
DASHED
 62
     4
 10
42.689713
 20
-120.309525
 11
44.739731
 21
-120.309525
  0
LINE
  8
0
  6
DASHED
 62
     4
 10
44.740276
 20
-120.310036
 11
44.965267
 21
-120.085037
  0
LINE
  8
0
  6
DASHED
 62
     4
 10
42.689819
 20
-120.309395
 11
42.464836
 21
-120.084404
  0
LINE
  8
0
  6
DASHED
 62
     4
 10
42.464737
 20
-118.909523
 11
42.464737
 21
-120.084526
  0
LINE
  8
0
 62
     1
 10
42.689713
 20
-118.909523
 11
42.689713
 21
-120.309525
  0
LINE
  8
0
 62
     1
 10
44.739731
 20
-118.909523
 11
44.739731
 21
-120.309525
  0
LINE
  8
0
  6
DASHED
 62
     4
 10
44.964737
 20
-118.909523
 11
44.964737
 21
-120.084518
  0
LINE
  8
0
  6
DASHED
 62
     4
 10
42.464737
 20
-120.084526
 11
44.964737
 21
-120.084526
  0
LINE
  8
0
 62
     1
 10
42.689713
 20
-115.809525
 11
42.689713
 21
-116.309525
  0
LINE
  8
0
 62
     1
 10
44.739731
 20
-115.809525
 11
44.739731
 21
-116.309525
  0
LINE
  8
0
  6
DASHED
 62
     4
 10
63.714737
 20
-116.309525
 11
63.714737
 21
-120.909523
  0
LINE
  8
0
 10
68.975525
 20
-22.556377
 11
68.975525
 21
-58.556381
  0
LINE
  8
0
 10
80.975525
 20
-22.556377
 11
80.975525
 21
-58.556381
  0
LINE
  8
0
 10
92.975525
 20
-22.556377
 11
92.975525
 21
-58.556381
  0
LINE
  8
0
 10
104.975525
 20
-22.556377
 11
104.975525
 21
-58.556381
  0
LINE
  8
0
 10
116.975525
 20
-22.556377
 11
116.975525
 21
-58.556381
  0
LINE
  8
0
 10
128.975525
 20
-22.556377
 11
128.975525
 21
-58.556381
  0
LINE
  8
0
 10
140.975525
 20
-22.556377
 11
140.975525
 21
-58.556381
  0
LINE
  8
0
 10
188.975525
 20
-22.556377
 11
188.975525
 21
-58.556381
  0
LINE
  8
0
 10
43.975525
 20
-22.556377
 11
188.975525
 21
-22.556377
  0
LINE
  8
0
 10
43.975525
 20
-40.556377
 11
188.975525
 21
-40.556377
  0
LINE
  8
0
 10
43.975525
 20
-46.556377
 11
188.975525
 21
-46.556377
  0
LINE
  8
0
 10
43.975525
 20
-58.556381
 11
188.975525
 21
-58.556381
  0
LINE
  8
0
 10
68.975571
 20
-40.556374
 11
66.859650
 21
-28.556372
  0
LINE
  8
0
 10
43.975525
 20
-28.556377
 11
66.859604
 21
-28.556377
  0
LINE
  8
0
 10
43.975525
 20
-22.556377
 11
43.975525
 21
-58.556381
  0
LINE
  8
0
 10
43.975525
 20
-52.556381
 11
188.975525
 21
-52.556381
  0
LINE
  8
0
 10
152.975525
 20
-22.556377
 11
152.975525
 21
-58.556381
  0
LINE
  8
0
 10
164.975525
 20
-22.556377
 11
164.975525
 21
-58.556381
  0
LINE
  8
0
 10
176.975525
 20
-22.556377
 11
176.975525
 21
-58.556381
  0
LINE
  8
0
 10
34.000000
 20
100.000015
 11
34.000000
 21
6.000008
  0
LINE
  8
0
 10
-76.999992
 20
100.000015
 11
-76.999992
 21
6.000008
  0
LINE
  8
0
 10
-93.999985
 20
100.000015
 11
-93.999985
 21
6.000008
  0
LINE
  8
0
 10
-52.999977
 20
101.000000
 11
32.999969
 21
101.000000
  0
LINE
  8
0
 10
-52.999981
 20
5.000011
 11
32.999996
 21
5.000011
  0
LINE
  8
0
 10
-53.999969
 20
100.000000
 11
-52.999973
 21
100.999992
  0
LINE
  8
0
 10
33.999969
 20
100.000000
 11
32.999969
 21
101.000000
  0
LINE
  8
0
 10
34.000034
 20
5.999964
 11
33.000031
 21
4.999954
  0
LINE
  8
0
 10
-53.999985
 20
6.000015
 11
-52.999981
 21
5.000015
  0
LINE
  8
0
 10
-93.999985
 20
100.000015
 11
-76.999992
 21
100.000015
  0
LINE
  8
0
 10
-93.999985
 20
6.000008
 11
-76.999992
 21
6.000008
  0
LINE
  8
0
  6
CENTER
 62
     2
 10
-98.714272
 20
53.000000
 11
38.043320
 21
53.000000
  0
LINE
  8
0
  6
CENTER
 62
     2
 10
-98.714272
 20
74.000000
 11
-49.457130
 21
74.000000
  0
LINE
  8
0
  6
CENTER
 62
     2
 10
-98.714272
 20
32.000008
 11
-47.571426
 21
32.000008
  0
LINE
  8
0
 10
-76.999992
 20
66.000008
 11
-54.000000
 21
66.000008
  0
LINE
  8
0
 10
-76.999992
 20
82.000008
 11
-54.000000
 21
82.000008
  0
LINE
  8
0
 10
-76.999992
 20
23.999996
 11
-54.000000
 21
23.999996
  0
LINE
  8
0
 10
-76.999992
 20
39.999992
 11
-54.000000
 21
39.999992
  0
LINE
  8
0
  6
CENTER
 62
     2
 10
-15.500008
 20
94.500000
 11
-2.500000
 21
94.500000
  0
LINE
  8
0
  6
CENTER
 62
     2
 10
-15.500008
 20
11.500000
 11
-2.500000
 21
11.500000
  0
LINE
  8
0
  6
CENTER
 62
     2
 10
-37.000008
 20
59.500004
 11
-37.000008
 21
46.499996
  0
LINE
  8
0
  6
CENTER
 62
     2
 10
-9.000000
 20
101.000015
 11
-9.000000
 21
88.000000
  0
LINE
  8
0
  6
CENTER
 62
     2
 10
7.999992
 20
59.500004
 11
7.999992
 21
46.499996
  0
LINE
  8
0
 10
-75.999992
 20
58.000000
 11
-75.999992
 21
48.000000
  0
LINE
  8
0
 10
-76.999992
 20
58.000000
 11
-75.999992
 21
58.000000
  0
LINE
  8
0
 10
-76.999992
 20
48.000000
 11
-75.999992
 21
48.000000
  0
LINE
  8
0
 10
-65.553413
 20
58.773514
 11
-62.000008
 21
58.773514
  0
LINE
  8
0
 10
-66.000000
 20
58.000015
 11
-65.553421
 21
58.773518
  0
LINE
  8
0
 10
-65.999992
 20
58.000000
 11
-65.999992
 21
48.000000
  0
LINE
  8
0
 10
-65.553413
 20
55.886765
 11
-62.000008
 21
55.886765
  0
LINE
  8
0
 10
-65.553413
 20
50.113258
 11
-62.000008
 21
50.113258
  0
LINE
  8
0
 10
-65.999985
 20
48.000008
 11
-65.553406
 21
47.226509
  0
LINE
  8
0
 10
-65.553413
 20
47.226509
 11
-62.000008
 21
47.226509
  0
LINE
  8
0
 10
-62.000011
 20
58.773514
 11
-62.000011
 21
47.226509
  0
LINE
  8
0
 10
-62.000008
 20
56.000008
 11
-58.000008
 21
56.000008
  0
LINE
  8
0
 10
-62.000008
 20
50.000015
 11
-58.000008
 21
50.000015
  0
LINE
  8
0
  6
CENTER
 62
     2
 10
-91.499985
 20
89.000000
 11
-79.247116
 21
89.000000
  0
LINE
  8
0
  6
CENTER
 62
     2
 10
-91.499985
 20
17.000004
 11
-79.389885
 21
17.000004
  0
LINE
  8
0
  6
CENTER
 62
     2
 10
-85.499985
 20
95.361557
 11
-85.499985
 21
82.042885
  0
LINE
  8
0
  6
CENTER
 62
     2
 10
-85.499985
 20
24.396528
 11
-85.499985
 21
10.697231
  0
LINE
  8
0
 10
-57.553425
 20
58.773514
 11
-54.446583
 21
58.773514
  0
LINE
  8
0
 10
-58.000004
 20
58.000004
 11
-57.553410
 21
58.773521
  0
LINE
  8
0
 10
-58.000004
 20
58.000000
 11
-58.000004
 21
48.000000
  0
LINE
  8
0
 10
-57.553425
 20
55.886765
 11
-54.446583
 21
55.886765
  0
LINE
  8
0
 10
-57.553425
 20
50.113258
 11
-54.446583
 21
50.113258
  0
LINE
  8
0
 10
-57.553425
 20
47.226509
 11
-54.446583
 21
47.226509
  0
LINE
  8
0
 10
-57.999985
 20
48.000019
 11
-57.553402
 21
47.226517
  0
LINE
  8
0
 10
-53.999996
 20
48.000011
 11
-54.446575
 21
47.226509
  0
LINE
  8
0
 10
-53.999985
 20
58.000004
 11
-54.446568
 21
58.773506
  0
LINE
  8
0
 10
-54.000000
 20
100.000000
 11
-54.000000
 21
6.000008
  0
LINE
  8
0
 62
     2
 10
-62.000008
 20
55.250015
 11
-58.000008
 21
55.250015
  0
LINE
  8
0
 62
     2
 10
-62.000008
 20
50.750008
 11
-58.000008
 21
50.750008
  0
LINE
  8
0
 10
-74.999992
 20
77.440941
 11
-74.999992
 21
70.559074
  0
LINE
  8
0
 10
-76.999992
 20
77.440941
 11
-74.999992
 21
77.440941
  0
LINE
  8
0
 10
-76.999992
 20
70.559074
 11
-74.999992
 21
70.559074
  0
LINE
  8
0
 10
-74.999962
 20
77.440941
 11
-76.999977
 21
73.999992
  0
LINE
  8
0
 10
-76.999985
 20
73.999992
 11
-74.999985
 21
70.559059
  0
LINE
  8
0
 10
-76.999992
 20
28.559082
 11
-74.999992
 21
28.559082
  0
LINE
  8
0
 10
-75.000000
 20
28.559065
 11
-77.000015
 21
32.000019
  0
LINE
  8
0
 10
-76.999947
 20
31.999996
 11
-74.999947
 21
35.440929
  0
LINE
  8
0
 10
-76.999992
 20
35.440948
 11
-74.999992
 21
35.440948
  0
LINE
  8
0
 10
-74.999992
 20
35.440948
 11
-74.999992
 21
28.559082
  0
LINE
  8
0
 10
-54.000000
 20
58.500008
 11
34.000000
 21
58.500008
  0
LINE
  8
0
 10
-54.000000
 20
55.300003
 11
-40.867828
 21
55.300003
  0
LINE
  8
0
 10
-54.000000
 20
92.500000
 11
-13.031136
 21
92.500000
  0
LINE
  8
0
 10
-54.000000
 20
89.300003
 11
34.000000
 21
89.300003
  0
LINE
  8
0
 10
-4.968872
 20
92.500000
 11
34.000000
 21
92.500000
  0
LINE
  8
0
 10
11.867805
 20
55.300003
 11
34.000000
 21
55.300003
  0
LINE
  8
0
 10
-33.132210
 20
55.300003
 11
4.132179
 21
55.300003
  0
LINE
  8
0
  6
CENTER
 62
     2
 10
-9.000000
 20
4.999985
 11
-9.000000
 21
18.000000
  0
LINE
  8
0
  6
PHANTOM
 62
     3
 10
-70.999992
 20
111.000000
 11
-70.999992
 21
-5.306561
  0
LINE
  8
0
  6
PHANTOM
 62
     3
 10
-23.000004
 20
119.940231
 11
-23.000004
 21
-5.306561
  0
LINE
  8
0
  6
PHANTOM
 62
     3
 10
-0.500004
 20
111.000000
 11
-0.500004
 21
-5.306561
  0
LINE
  8
0
  6
CENTER
 62
     2
 10
-148.000000
 20
103.675072
 11
-148.000000
 21
1.443623
  0
LINE
  8
0
  6
CENTER
 62
     2
 10
-170.143280
 20
53.000000
 11
-126.235458
 21
53.000000
  0
LINE
  8
0
 10
-128.999985
 20
100.000015
 11
-128.999985
 21
6.000008
  0
LINE
  8
0
 10
-167.000000
 20
100.000015
 11
-167.000000
 21
6.000008
  0
LINE
  8
0
 10
-167.000000
 20
6.000008
 11
-128.999985
 21
6.000008
  0
LINE
  8
0
 10
-167.000000
 20
100.000015
 11
-128.999985
 21
100.000015
  0
LINE
  8
0
  6
CENTER
 62
     2
 10
-153.499985
 20
94.500000
 11
-142.499985
 21
94.500000
  0
LINE
  8
0
  6
CENTER
 62
     2
 10
-158.999985
 20
74.000000
 11
-137.000000
 21
74.000000
  0
LINE
  8
0
  6
CENTER
 62
     2
 10
-158.999985
 20
32.000008
 11
-137.000000
 21
32.000008
  0
LINE
  8
0
  6
CENTER
 62
     2
 10
-153.499985
 20
11.500019
 11
-142.499985
 21
11.500019
  0
LINE
  8
0
 10
-129.000000
 20
100.999992
 11
-127.999992
 21
99.999992
  0
LINE
  8
0
 10
-128.999985
 20
101.000000
 11
-146.399994
 21
101.000000
  0
LINE
  8
0
 10
-149.600021
 20
101.000000
 11
-167.000000
 21
101.000000
  0
LINE
  8
0
 10
-167.999954
 20
99.999969
 11
-166.999939
 21
100.999977
  0
LINE
  8
0
 10
-168.000000
 20
100.000015
 11
-168.000000
 21
92.500015
  0
LINE
  8
0
 10
-128.000000
 20
100.000015
 11
-128.000000
 21
92.500015
  0
LINE
  8
0
 10
-128.000000
 20
55.299980
 11
-128.000000
 21
6.000008
  0
LINE
  8
0
 10
-168.000000
 20
55.299980
 11
-168.000000
 21
6.000008
  0
LINE
  8
0
 10
-128.999985
 20
5.000011
 11
-167.000000
 21
5.000011
  0
LINE
  8
0
 10
-167.999969
 20
6.000053
 11
-166.999969
 21
5.000033
  0
LINE
  8
0
 10
-127.999947
 20
5.999996
 11
-128.999954
 21
4.999996
  0
LINE
  8
0
 10
-147.999985
 20
78.618797
 11
-143.999985
 21
76.309395
  0
LINE
  8
0
 10
-152.000015
 20
76.309456
 11
-148.000000
 21
78.618858
  0
LINE
  8
0
 10
-152.000000
 20
71.690613
 11
-152.000000
 21
76.309410
  0
LINE
  8
0
 10
-147.999985
 20
69.381226
 11
-151.999969
 21
71.690620
  0
LINE
  8
0
 10
-144.000031
 20
71.690674
 11
-148.000031
 21
69.381287
  0
LINE
  8
0
 10
-144.000031
 20
76.309387
 11
-144.000031
 21
71.690598
  0
LINE
  8
0
 10
-152.000000
 20
29.690615
 11
-148.000015
 21
27.381218
  0
LINE
  8
0
 10
-151.999985
 20
34.309402
 11
-151.999985
 21
29.690609
  0
LINE
  8
0
 10
-147.999954
 20
36.618752
 11
-151.999954
 21
34.309357
  0
LINE
  8
0
 10
-144.000031
 20
34.309391
 11
-148.000000
 21
36.618782
  0
LINE
  8
0
 10
-147.999939
 20
27.381222
 11
-143.999954
 21
29.690624
  0
LINE
  8
0
 10
-143.999985
 20
29.690632
 11
-143.999985
 21
34.309422
  0
LINE
  8
0
 10
-128.500259
 20
58.500023
 11
-129.000107
 21
58.999859
  0
LINE
  8
0
 10
-128.499939
 20
55.299988
 11
-128.999985
 21
54.799934
  0
LINE
  8
0
 10
-127.999985
 20
58.500008
 11
-128.500259
 21
58.500008
  0
LINE
  8
0
 10
-127.999985
 20
55.299980
 11
-128.500000
 21
55.299980
  0
LINE
  8
0
 10
-150.083527
 20
100.000061
 11
-149.600021
 21
100.483574
  0
LINE
  8
0
 10
-149.600037
 20
101.000015
 11
-149.600037
 21
100.483566
  0
LINE
  8
0
 10
-146.400009
 20
101.000015
 11
-146.400009
 21
100.483551
  0
LINE
  8
0
 10
-146.400085
 20
100.483368
 11
-145.916718
 21
100.000008
  0
LINE
  8
0
 10
-167.483322
 20
58.499912
 11
-166.999969
 21
58.983269
  0
LINE
  8
0
 10
-167.000076
 20
54.816483
 11
-167.483566
 21
55.299973
  0
LINE
  8
0
 10
-167.999985
 20
55.299980
 11
-167.483551
 21
55.299980
  0
LINE
  8
0
 10
-167.999985
 20
58.500008
 11
-167.483521
 21
58.500008
  0
LINE
  8
0
 10
-167.999985
 20
89.299988
 11
-167.483551
 21
89.299988
  0
LINE
  8
0
 10
-167.000061
 20
88.816498
 11
-167.483551
 21
89.299988
  0
LINE
  8
0
 10
-167.999985
 20
92.500000
 11
-167.483521
 21
92.500000
  0
LINE
  8
0
 10
-167.483322
 20
92.499870
 11
-166.999969
 21
92.983223
  0
LINE
  8
0
 10
-168.000000
 20
89.299988
 11
-168.000000
 21
58.500011
  0
LINE
  8
0
 10
-128.500122
 20
92.499878
 11
-129.000107
 21
92.999870
  0
LINE
  8
0
 10
-128.499954
 20
89.299995
 11
-129.000015
 21
88.799942
  0
LINE
  8
0
 10
-127.999985
 20
92.500000
 11
-128.469955
 21
92.500000
  0
LINE
  8
0
 10
-127.999985
 20
89.299988
 11
-128.469955
 21
89.299988
  0
LINE
  8
0
 10
-128.500122
 20
92.499878
 11
-128.999985
 21
92.999741
  0
LINE
  8
0
 10
-128.499954
 20
89.299995
 11
-129.000015
 21
88.799942
  0
LINE
  8
0
 10
-127.999985
 20
92.500000
 11
-128.500244
 21
92.500000
  0
LINE
  8
0
 10
-127.999985
 20
89.299988
 11
-128.500000
 21
89.299988
  0
LINE
  8
0
 10
-128.000000
 20
89.299988
 11
-128.000000
 21
58.500011
  0
LINE
  8
0
  6
CENTER
 62
     2
 10
-170.000000
 20
94.500000
 11
-166.000000
 21
94.500000
  0
LINE
  8
0
  6
CENTER
 62
     2
 10
-170.000000
 20
11.500000
 11
-166.000000
 21
11.500000
  0
LINE
  8
0
 10
106.000000
 20
100.000015
 11
106.000000
 21
92.500015
  0
LINE
  8
0
  6
CENTER
 62
     2
 10
86.000015
 20
106.557175
 11
86.000015
 21
-2.185699
  0
LINE
  8
0
 10
67.000015
 20
101.000000
 11
84.399979
 21
101.000000
  0
LINE
  8
0
 10
67.000015
 20
5.000011
 11
105.000015
 21
5.000011
  0
LINE
  8
0
 10
67.000008
 20
101.000038
 11
66.000008
 21
100.000038
  0
LINE
  8
0
 10
105.999985
 20
99.999977
 11
104.999977
 21
100.999985
  0
LINE
  8
0
 10
106.000092
 20
5.999979
 11
105.000084
 21
4.999964
  0
LINE
  8
0
 10
66.000015
 20
6.000017
 11
67.000015
 21
5.000013
  0
LINE
  8
0
  6
CENTER
 62
     2
 10
60.428619
 20
53.000000
 11
110.714340
 21
53.000000
  0
LINE
  8
0
  6
CENTER
 62
     2
 10
60.428619
 20
32.000008
 11
110.714340
 21
32.000008
  0
LINE
  8
0
  6
CENTER
 62
     2
 10
60.428619
 20
74.000000
 11
110.714340
 21
74.000000
  0
LINE
  8
0
 10
87.600006
 20
101.000000
 11
105.000015
 21
101.000000
  0
LINE
  8
0
 10
66.000015
 20
55.300003
 11
66.000015
 21
6.000008
  0
LINE
  8
0
 10
106.000000
 20
55.300003
 11
106.000000
 21
6.000008
  0
LINE
  8
0
 10
105.000061
 20
54.799995
 11
103.400070
 21
54.799995
  0
LINE
  8
0
 10
105.500031
 20
55.299992
 11
105.000046
 21
54.799999
  0
LINE
  8
0
 10
105.499825
 20
58.499802
 11
104.999832
 21
58.999790
  0
LINE
  8
0
 10
105.000061
 20
59.000000
 11
103.400070
 21
59.000000
  0
LINE
  8
0
 10
106.000046
 20
58.500008
 11
105.500076
 21
58.500008
  0
LINE
  8
0
 10
106.000046
 20
55.300003
 11
105.500076
 21
55.300003
  0
LINE
  8
0
 10
66.000061
 20
55.300003
 11
66.499893
 21
55.300003
  0
LINE
  8
0
 10
66.000061
 20
58.500008
 11
66.499649
 21
58.500008
  0
LINE
  8
0
 10
66.499893
 20
55.299946
 11
66.999886
 21
54.799957
  0
LINE
  8
0
 10
67.000031
 20
59.000000
 11
68.600021
 21
59.000000
  0
LINE
  8
0
 10
66.499763
 20
58.500130
 11
66.999779
 21
59.000141
  0
LINE
  8
0
 10
83.900009
 20
99.983551
 11
83.900009
 21
98.383545
  0
LINE
  8
0
 10
83.900032
 20
99.983521
 11
84.400017
 21
100.483505
  0
LINE
  8
0
 10
84.399979
 20
101.000015
 11
84.399979
 21
100.483566
  0
LINE
  8
0
 10
87.600006
 20
101.000015
 11
87.600006
 21
100.483551
  0
LINE
  8
0
 10
87.599892
 20
100.483307
 11
88.099876
 21
99.983315
  0
LINE
  8
0
 10
105.499825
 20
58.499802
 11
104.999832
 21
58.999790
  0
LINE
  8
0
 10
106.000046
 20
58.500008
 11
105.500076
 21
58.500008
  0
LINE
  8
0
 10
67.000168
 20
54.799995
 11
68.599976
 21
54.799995
  0
LINE
  8
0
 10
88.100006
 20
99.983536
 11
88.100006
 21
98.383545
  0
LINE
  8
0
  6
CENTER
 62
     2
 10
62.666626
 20
56.899994
 11
108.380905
 21
56.899994
  0
LINE
  8
0
  6
CENTER
 62
     2
 10
60.975464
 20
90.899994
 11
108.380905
 21
90.899994
  0
LINE
  8
0
 10
66.000015
 20
92.499985
 11
66.000015
 21
100.000046
  0
LINE
  8
0
 10
66.000015
 20
89.299988
 11
66.499893
 21
89.299988
  0
LINE
  8
0
 10
66.000015
 20
92.499985
 11
66.499664
 21
92.499985
  0
LINE
  8
0
 10
66.499901
 20
89.299988
 11
66.999901
 21
88.799988
  0
LINE
  8
0
 10
66.999893
 20
88.799988
 11
68.600021
 21
88.799988
  0
LINE
  8
0
 10
66.999649
 20
92.999969
 11
68.600021
 21
92.999969
  0
LINE
  8
0
 10
66.499657
 20
92.499992
 11
66.999649
 21
92.999985
  0
LINE
  8
0
 10
105.000061
 20
88.799988
 11
103.400070
 21
88.799988
  0
LINE
  8
0
 10
105.500031
 20
89.299965
 11
105.000046
 21
88.799973
  0
LINE
  8
0
 10
105.499817
 20
92.499809
 11
104.999825
 21
92.999802
  0
LINE
  8
0
 10
105.000061
 20
93.000000
 11
103.400070
 21
93.000000
  0
LINE
  8
0
 10
106.000046
 20
92.500000
 11
105.500076
 21
92.500000
  0
LINE
  8
0
 10
106.000046
 20
89.299988
 11
105.500076
 21
89.299988
  0
LINE
  8
0
 10
106.000000
 20
89.299988
 11
106.000000
 21
58.500011
  0
LINE
  8
0
 10
66.000015
 20
89.299988
 11
66.000015
 21
58.500011
  0
LINE
  8
0
  6
CENTER
 62
     2
 10
104.000000
 20
94.500000
 11
108.000000
 21
94.500000
  0
LINE
  8
0
  6
CENTER
 62
     2
 10
104.000000
 20
11.500000
 11
108.000000
 21
11.500000
  0
LINE
  8
0
 10
-53.000000
 20
-13.306561
 11
32.999985
 21
-13.306561
  0
LINE
  8
0
 10
-53.000000
 20
-53.306561
 11
33.000000
 21
-53.306561
  0
LINE
  8
0
 10
33.999969
 20
-14.306561
 11
33.999969
 21
-52.306576
  0
LINE
  8
0
  6
CENTER
 62
     2
 10
-98.714279
 20
-33.306561
 11
40.028603
 21
-33.306561
  0
LINE
  8
0
 10
-54.000011
 20
-14.306556
 11
-53.000011
 21
-13.306553
  0
LINE
  8
0
 10
33.999962
 20
-14.306617
 11
32.999947
 21
-13.306607
  0
LINE
  8
0
 10
-53.999981
 20
-52.306564
 11
-52.999985
 21
-53.306561
  0
LINE
  8
0
 10
34.000080
 20
-52.306679
 11
33.000069
 21
-53.306694
  0
LINE
  8
0
 10
-93.999992
 20
-14.306561
 11
-93.999992
 21
-52.306576
  0
LINE
  8
0
 10
-77.000000
 20
-14.306561
 11
-77.000000
 21
-26.306576
  0
LINE
  8
0
 10
-93.999992
 20
-52.306576
 11
-77.000000
 21
-52.306576
  0
LINE
  8
0
 10
-93.999992
 20
-14.306561
 11
-77.000000
 21
-14.306561
  0
LINE
  8
0
 10
-75.000000
 20
-25.306561
 11
-53.999992
 21
-25.306561
  0
LINE
  8
0
  6
CENTER
 62
     2
 10
-18.000000
 20
-26.806561
 11
-18.000000
 21
-39.806568
  0
LINE
  8
0
  6
CENTER
 62
     2
 10
18.999969
 20
-26.806561
 11
18.999969
 21
-39.806568
  0
LINE
  8
0
 10
-76.000000
 20
-40.306576
 11
-76.000000
 21
-46.306576
  0
LINE
  8
0
 10
-65.999985
 20
-41.306576
 11
-65.999985
 21
-46.306576
  0
LINE
  8
0
 10
-65.999985
 20
-46.306576
 11
-62.000000
 21
-46.306576
  0
LINE
  8
0
 10
-62.000004
 20
-41.306576
 11
-62.000004
 21
-46.306576
  0
LINE
  8
0
 10
-62.000000
 20
-44.306561
 11
-58.000000
 21
-44.306561
  0
LINE
  8
0
 10
-77.000000
 20
-46.306576
 11
-76.000000
 21
-46.306576
  0
LINE
  8
0
 10
-57.999996
 20
-41.306576
 11
-57.999996
 21
-46.306576
  0
LINE
  8
0
 10
-58.000000
 20
-46.306576
 11
-53.999992
 21
-46.306576
  0
LINE
  8
0
 10
-53.999992
 20
-14.306561
 11
-53.999992
 21
-52.306576
  0
LINE
  8
0
 10
-75.000000
 20
-41.306576
 11
-53.999992
 21
-41.306576
  0
LINE
  8
0
 62
     2
 10
-62.000000
 20
-43.556576
 11
-58.000000
 21
-43.556576
  0
LINE
  8
0
 10
-79.000000
 20
-26.306576
 11
-75.000000
 21
-26.306576
  0
LINE
  8
0
 10
-79.000000
 20
-40.306576
 11
-75.000000
 21
-40.306576
  0
LINE
  8
0
 10
-75.000000
 20
-25.306553
 11
-75.000000
 21
-26.306576
  0
LINE
  8
0
 10
-75.000000
 20
-40.306576
 11
-75.000000
 21
-41.306576
  0
LINE
  8
0
 10
-79.000000
 20
-26.306576
 11
-79.000000
 21
-40.306576
  0
LINE
  8
0
 10
-77.000000
 20
-40.306576
 11
-77.000000
 21
-52.306576
  0
LINE
  8
0
  6
CENTER
 62
     2
 10
-36.999992
 20
-51.306561
 11
-36.999992
 21
-55.306561
  0
LINE
  8
0
  6
CENTER
 62
     2
 10
-8.999992
 20
-51.306561
 11
-8.999992
 21
-55.306561
  0
LINE
  8
0
  6
CENTER
 62
     2
 10
7.999985
 20
-51.306561
 11
7.999985
 21
-55.306561
  0
LINE
  8
0
  6
PHANTOM
 62
     3
 10
-70.999992
 20
-5.306561
 11
-70.999992
 21
-50.696674
  0
LINE
  8
0
  6
PHANTOM
 62
     3
 10
-10.999996
 20
-5.306561
 11
-10.999996
 21
-59.440811
  0
LINE
  8
0
  6
PHANTOM
 62
     3
 10
-0.500004
 20
-5.306561
 11
-0.500004
 21
-59.440811
  0
LINE
  8
0
  6
PHANTOM
 62
     3
 10
-10.999996
 20
-5.306561
 11
-22.999992
 21
-5.306561
  0
LINE
  8
0
  6
CENTER
 62
     1
 10
-95.096390
 20
-115.502808
 11
-95.096390
 21
-121.741425
  0
LINE
  8
0
 62
     4
 10
-96.346390
 20
-115.809525
 11
-96.346390
 21
-116.309525
  0
LINE
  8
0
 62
     1
 10
-96.121399
 20
-115.809525
 11
-96.121399
 21
-116.309525
  0
LINE
  8
0
 62
     1
 10
-94.071396
 20
-115.809525
 11
-94.071396
 21
-116.309525
  0
LINE
  8
0
 62
     4
 10
-93.846390
 20
-115.809525
 11
-93.846390
 21
-116.309525
  0
LINE
  8
0
 62
     4
 10
-96.346390
 20
-115.809525
 11
-93.846390
 21
-115.809525
  0
LINE
  8
0
  6
CENTER
 62
     1
 10
-141.639130
 20
-114.256554
 11
-141.639130
 21
-121.579163
  0
LINE
  8
0
 62
     4
 10
-143.689117
 20
-117.309525
 11
-143.689117
 21
-118.859520
  0
LINE
  8
0
 62
     4
 10
-143.689194
 20
-117.309486
 11
-143.139191
 21
-116.759476
  0
LINE
  8
0
 62
     4
 10
-143.139130
 20
-116.309525
 11
-143.139130
 21
-116.759521
  0
LINE
  8
0
 62
     4
 10
-143.139130
 20
-116.309525
 11
-140.139130
 21
-116.309525
  0
LINE
  8
0
 62
     4
 10
-140.139130
 20
-116.309525
 11
-140.139130
 21
-116.759521
  0
LINE
  8
0
 62
     4
 10
-139.589142
 20
-117.309479
 11
-140.139145
 21
-116.759483
  0
LINE
  8
0
 62
     4
 10
-139.589127
 20
-117.309525
 11
-139.589127
 21
-118.859520
  0
LINE
  8
0
 62
     4
 10
-143.689117
 20
-118.109520
 11
-139.589127
 21
-118.109520
  0
LINE
  8
0
 62
     4
 10
-143.689133
 20
-118.908707
 11
-139.589127
 21
-118.908707
  0
LINE
  8
0
 62
     4
 10
-142.664139
 20
-120.309525
 11
-140.614136
 21
-120.309525
  0
LINE
  8
0
 62
     4
 10
-140.613678
 20
-120.309975
 11
-140.388672
 21
-120.084961
  0
LINE
  8
0
 62
     4
 10
-142.664124
 20
-120.309570
 11
-142.889114
 21
-120.084572
  0
LINE
  8
0
 62
     4
 10
-142.889130
 20
-118.908707
 11
-142.889130
 21
-120.084526
  0
LINE
  8
0
 62
     1
 10
-142.664139
 20
-118.908707
 11
-142.664139
 21
-120.309525
  0
LINE
  8
0
 62
     1
 10
-140.614136
 20
-118.908707
 11
-140.614136
 21
-120.309525
  0
LINE
  8
0
 62
     4
 10
-140.389130
 20
-118.908707
 11
-140.389130
 21
-120.084518
  0
LINE
  8
0
 62
     4
 10
-142.889130
 20
-120.084526
 11
-140.389130
 21
-120.084526
  0
LINE
  8
0
 62
     4
 10
-142.889130
 20
-115.809525
 11
-142.889130
 21
-116.309525
  0
LINE
  8
0
 62
     1
 10
-142.664139
 20
-115.809525
 11
-142.664139
 21
-116.309525
  0
LINE
  8
0
 62
     1
 10
-140.614136
 20
-115.809525
 11
-140.614136
 21
-116.309525
  0
LINE
  8
0
 62
     4
 10
-140.389130
 20
-115.809525
 11
-140.389130
 21
-116.309525
  0
LINE
  8
0
 62
     4
 10
-142.889130
 20
-115.809525
 11
-140.389130
 21
-115.809525
  0
LINE
  8
0
  6
CENTER
 62
     1
 10
-99.896942
 20
-88.759521
 11
-69.688889
 21
-88.759521
  0
LINE
  8
0
 62
     4
 10
-97.096405
 20
-90.259521
 11
-75.096405
 21
-90.259521
  0
LINE
  8
0
 62
     4
 10
-97.096405
 20
-87.259521
 11
-75.096405
 21
-87.259521
  0
LINE
  8
0
  6
CENTER
 62
     1
 10
-95.096390
 20
-85.923019
 11
-95.096390
 21
-91.512344
  0
LINE
  8
0
 62
     1
 10
-74.007172
 20
-86.594421
 11
-71.507172
 21
-90.924553
  0
LINE
  8
0
 62
     4
 10
-75.096405
 20
-87.459518
 11
-73.507751
 21
-87.459518
  0
LINE
  8
0
 62
     4
 10
-75.096405
 20
-90.059525
 11
-72.006622
 21
-90.059525
  0
LINE
  8
0
 62
     4
 10
-96.105850
 20
-89.486160
 11
-94.360847
 21
-87.741158
  0
LINE
  8
0
 62
     4
 10
-95.823029
 20
-89.768982
 11
-94.078026
 21
-88.023979
  0
LINE
  8
0
 62
     4
 10
-97.096405
 20
-87.159523
 11
-97.096405
 21
-90.359520
  0
LINE
  8
0
 62
     4
 10
-75.096405
 20
-87.159523
 11
-75.096405
 21
-90.359520
  0
LINE
  8
0
 62
     4
 10
63.714737
 20
-109.409523
 11
63.714737
 21
-116.309525
  0
LINE
  8
0
  6
CENTER
 62
     1
 10
43.714737
 20
-115.579269
 11
43.714737
 21
-121.482193
  0
LINE
  8
0
 62
     4
 10
57.814713
 20
-109.409523
 11
57.814713
 21
-116.309525
  0
LINE
  8
0
 62
     4
 10
57.814743
 20
-109.409523
 11
63.714737
 21
-109.409523
  0
LINE
  8
0
 62
     4
 10
57.814713
 20
-115.159508
 11
63.714737
 21
-115.159508
  0
LINE
  8
0
 62
     4
 10
57.814713
 20
-115.909508
 11
63.714737
 21
-115.909508
  0
LINE
  8
0
 62
     4
 10
57.814713
 20
-110.909523
 11
63.714737
 21
-110.909523
  0
LINE
  8
0
 62
     4
 10
59.822098
 20
-100.909485
 11
62.422073
 21
-100.909485
  0
LINE
  8
0
  6
CENTER
 62
     1
 10
60.672012
 20
-102.632416
 11
60.672012
 21
-90.700333
  0
LINE
  8
0
  6
CENTER
 62
     1
 10
61.572006
 20
-102.582123
 11
61.572006
 21
-90.658478
  0
LINE
  8
0
 62
     4
 10
60.422012
 20
-90.909485
 11
60.922012
 21
-90.909485
  0
LINE
  8
0
 62
     4
 10
61.322006
 20
-90.909485
 11
61.822006
 21
-90.909485
  0
LINE
  8
0
 62
     4
 10
60.222000
 20
-93.909485
 11
62.022018
 21
-93.909485
  0
LINE
  8
0
 62
     4
 10
62.022018
 20
-100.909485
 11
62.022018
 21
-96.903938
  0
LINE
  8
0
 62
     4
 10
61.121994
 20
-100.909485
 11
61.121994
 21
-97.423553
  0
LINE
  8
0
 62
     4
 10
61.121994
 20
-95.923553
 11
61.121994
 21
-93.909485
  0
LINE
  8
0
 62
     4
 10
62.022018
 20
-95.403938
 11
62.022018
 21
-93.909485
  0
LINE
  8
0
 62
     4
 10
60.222000
 20
-100.909485
 11
60.222000
 21
-97.943176
  0
LINE
  8
0
 62
     4
 10
60.222000
 20
-96.443176
 11
60.222000
 21
-93.909485
  0
LINE
  8
0
 62
     4
 10
60.422012
 20
-93.909485
 11
60.422012
 21
-90.909485
  0
LINE
  8
0
 62
     4
 10
60.922012
 20
-93.909485
 11
60.922012
 21
-90.909485
  0
LINE
  8
0
 62
     4
 10
61.322006
 20
-93.909485
 11
61.322006
 21
-90.909485
  0
LINE
  8
0
 62
     4
 10
61.822006
 20
-93.909485
 11
61.822006
 21
-90.909485
  0
LINE
  8
0
 62
     1
 10
58.957134
 20
-97.173645
 11
63.287281
 21
-94.673630
  0
LINE
  8
0
  6
CENTER
 62
     1
 10
61.122086
 20
-110.723892
 11
61.122086
 21
-100.909485
  0
LINE
  8
0
 62
     1
 10
58.957043
 20
-98.673637
 11
63.287193
 21
-96.173622
  0
LINE
  8
0
 62
     1
 10
58.957024
 20
-106.154343
 11
63.287151
 21
-103.654343
  0
LINE
  8
0
 62
     1
 10
58.957069
 20
-107.654335
 11
63.287193
 21
-105.154343
  0
LINE
  8
0
 62
     4
 10
42.464737
 20
-115.809525
 11
42.464737
 21
-116.309525
  0
LINE
  8
0
 62
     1
 10
42.689713
 20
-115.809525
 11
42.689713
 21
-116.309525
  0
LINE
  8
0
 62
     1
 10
44.739731
 20
-115.809525
 11
44.739731
 21
-116.309525
  0
LINE
  8
0
 62
     4
 10
44.964737
 20
-115.809525
 11
44.964737
 21
-116.309525
  0
LINE
  8
0
 62
     4
 10
42.464737
 20
-115.809525
 11
44.964737
 21
-115.809525
  0
LINE
  8
0
 62
     4
 10
62.422073
 20
-109.409523
 11
62.422073
 21
-105.653687
  0
LINE
  8
0
 62
     4
 10
59.822098
 20
-109.409523
 11
59.822098
 21
-107.154778
  0
LINE
  8
0
 62
     4
 10
59.822098
 20
-105.654793
 11
59.822098
 21
-100.909485
  0
LINE
  8
0
 62
     4
 10
62.422073
 20
-104.153694
 11
62.422073
 21
-100.909485
  0
LINE
  8
0
 62
     4
 10
-3.577988
 20
-110.909523
 11
0.922012
 21
-110.909523
  0
LINE
  8
0
 62
     4
 10
-3.577988
 20
-109.409523
 11
-3.577988
 21
-115.159523
  0
LINE
  8
0
 62
     4
 10
-2.828044
 20
-115.909485
 11
-3.578007
 21
-115.159523
  0
LINE
  8
0
 62
     4
 10
-2.827988
 20
-116.759521
 11
-2.827988
 21
-115.909523
  0
LINE
  8
0
 62
     4
 10
-3.377999
 20
-117.309471
 11
-2.827988
 21
-116.759460
  0
LINE
  8
0
 62
     4
 10
-3.378006
 20
-117.309525
 11
-3.378006
 21
-118.859520
  0
LINE
  8
0
 62
     4
 10
0.722000
 20
-117.309525
 11
0.722000
 21
-118.859520
  0
LINE
  8
0
 62
     4
 10
0.721993
 20
-117.309563
 11
0.171983
 21
-116.759552
  0
LINE
  8
0
 62
     4
 10
0.172012
 20
-116.759521
 11
0.172012
 21
-115.909523
  0
LINE
  8
0
 62
     4
 10
0.172068
 20
-115.909622
 11
0.922063
 21
-115.159630
  0
LINE
  8
0
 62
     4
 10
0.922012
 20
-109.409523
 11
0.922012
 21
-115.159523
  0
LINE
  8
0
  6
CENTER
 62
     1
 10
-1.327988
 20
-103.748566
 11
-1.327988
 21
-121.406281
  0
LINE
  8
0
 62
     4
 10
-2.827988
 20
-116.309525
 11
0.172012
 21
-116.309525
  0
LINE
  8
0
 62
     4
 10
-3.378006
 20
-118.109520
 11
0.722000
 21
-118.109520
  0
LINE
  8
0
 62
     4
 10
-3.378006
 20
-118.911972
 11
0.722000
 21
-118.911972
  0
LINE
  8
0
 62
     4
 10
-3.577988
 20
-109.409523
 11
0.922012
 21
-109.409523
  0
LINE
  8
0
 62
     1
 10
-3.492977
 20
-107.654343
 11
0.837151
 21
-105.154343
  0
LINE
  8
0
 62
     4
 10
-2.353012
 20
-120.309525
 11
-0.302994
 21
-120.309525
  0
LINE
  8
0
 62
     4
 10
-0.302476
 20
-120.310066
 11
-0.077485
 21
-120.085068
  0
LINE
  8
0
 62
     4
 10
-2.352946
 20
-120.309448
 11
-2.577952
 21
-120.084442
  0
LINE
  8
0
 62
     4
 10
-2.577988
 20
-118.911972
 11
-2.577988
 21
-120.084526
  0
LINE
  8
0
 62
     1
 10
-2.353012
 20
-118.911972
 11
-2.353012
 21
-120.309525
  0
LINE
  8
0
 62
     1
 10
-0.302994
 20
-118.911972
 11
-0.302994
 21
-120.309525
  0
LINE
  8
0
 62
     4
 10
-0.077988
 20
-118.911972
 11
-0.077988
 21
-120.084518
  0
LINE
  8
0
 62
     4
 10
-2.577988
 20
-120.084526
 11
-0.077988
 21
-120.084526
  0
LINE
  8
0
 62
     4
 10
-2.577988
 20
-115.809525
 11
-2.577988
 21
-116.309525
  0
LINE
  8
0
 62
     1
 10
-2.353012
 20
-115.809525
 11
-2.353012
 21
-116.309525
  0
LINE
  8
0
 62
     1
 10
-0.302994
 20
-115.809525
 11
-0.302994
 21
-116.309525
  0
LINE
  8
0
 62
     4
 10
-0.077988
 20
-115.809525
 11
-0.077988
 21
-116.309525
  0
LINE
  8
0
 62
     4
 10
-2.577988
 20
-115.809525
 11
-0.077988
 21
-115.809525
  0
LINE
  8
0
 62
     4
 10
-2.627975
 20
-107.154800
 11
-2.627975
 21
-109.409523
  0
LINE
  8
0
 62
     4
 10
-0.028000
 20
-105.653702
 11
-0.028000
 21
-109.409523
  0
LINE
  8
0
  6
CENTER
 62
     1
 10
40.385544
 20
-83.709511
 11
65.294724
 21
-83.709511
  0
LINE
  8
0
 62
     4
 10
41.714737
 20
-85.209511
 11
58.275345
 21
-85.209511
  0
LINE
  8
0
 62
     4
 10
41.714737
 20
-82.209511
 11
58.275345
 21
-82.209511
  0
LINE
  8
0
 62
     4
 10
41.714737
 20
-82.109512
 11
41.714737
 21
-85.309509
  0
LINE
  8
0
  6
CENTER
 62
     1
 10
43.714737
 20
-80.873001
 11
43.714737
 21
-86.462326
  0
LINE
  8
0
 62
     4
 10
58.800705
 20
-81.459511
 11
63.714737
 21
-81.459511
  0
LINE
  8
0
 62
     4
 10
58.800705
 20
-85.959511
 11
63.714737
 21
-85.959511
  0
LINE
  8
0
 62
     4
 10
63.714737
 20
-81.459503
 11
63.714737
 21
-85.959503
  0
LINE
  8
0
 62
     4
 10
42.705276
 20
-84.436165
 11
44.450279
 21
-82.691162
  0
LINE
  8
0
 62
     4
 10
42.988091
 20
-84.718979
 11
44.733093
 21
-82.973984
  0
CIRCLE
  8
0
 10
-37.000008
 20
53.000000
 40
2.749999
  0
CIRCLE
  8
0
 10
-9.000000
 20
94.500000
 40
2.749999
  0
CIRCLE
  8
0
 10
7.999992
 20
53.000000
 40
2.749999
  0
CIRCLE
  8
0
 10
-9.000000
 20
11.500000
 40
2.749999
  0
ARC
  8
0
 10
-63.444168
 20
57.330139
 40
2.555820
 50
154.384293
 51
214.384262
  0
ARC
  8
0
 10
-56.446594
 20
53.000000
 40
9.553414
 50
162.412079
 51
197.587921
  0
ARC
  8
0
 10
-63.444168
 20
48.669884
 40
2.555822
 50
145.615662
 51
205.615479
  0
CIRCLE
  8
0
 62
     2
 10
-85.499985
 20
89.000000
 40
3.999999
  0
CIRCLE
  8
0
 62
     2
 10
-85.499985
 20
17.000004
 40
3.999999
  0
ARC
  8
0
 10
-55.444180
 20
57.330139
 40
2.555822
 50
154.384216
 51
214.384155
  0
ARC
  8
0
 10
-48.446564
 20
53.000000
 40
9.553423
 50
162.412064
 51
197.587860
  0
ARC
  8
0
 10
-55.444180
 20
48.669884
 40
2.555822
 50
145.615662
 51
205.615707
  0
ARC
  8
0
 10
-56.555828
 20
48.669884
 40
2.555822
 50
334.384216
 51
34.384220
  0
ARC
  8
0
 10
-63.553421
 20
53.000000
 40
9.553423
 50
342.412079
 51
17.587881
  0
ARC
  8
0
 10
-56.555828
 20
57.330139
 40
2.555820
 50
325.615723
 51
25.615705
  0
CIRCLE
  8
0
 10
-85.499985
 20
89.000000
 40
2.999999
  0
CIRCLE
  8
0
 10
-85.499985
 20
17.000004
 40
2.999999
  0
CIRCLE
  8
0
 10
-37.000008
 20
53.000000
 40
4.500000
  0
CIRCLE
  8
0
 10
7.999992
 20
53.000000
 40
4.500000
  0
CIRCLE
  8
0
 10
-9.000000
 20
94.500000
 40
4.500000
  0
CIRCLE
  8
0
 10
-9.000000
 20
11.500000
 40
4.500000
  0
CIRCLE
  8
0
 62
     2
 10
-148.000000
 20
94.500000
 40
2.999999
  0
CIRCLE
  8
0
 62
     2
 10
-148.000000
 20
11.500019
 40
2.999999
  0
CIRCLE
  8
0
 10
-148.000000
 20
74.000000
 40
8.000000
  0
CIRCLE
  8
0
 10
-148.000000
 20
74.000000
 40
7.250000
  0
CIRCLE
  8
0
 10
-148.000000
 20
74.000000
 40
8.750000
  0
CIRCLE
  8
0
 10
-148.000000
 20
32.000008
 40
8.750000
  0
CIRCLE
  8
0
 10
-148.000000
 20
32.000008
 40
8.000000
  0
CIRCLE
  8
0
 10
-148.000000
 20
32.000008
 40
7.250000
  0
CIRCLE
  8
0
 10
-148.000000
 20
94.500000
 40
2.250000
  0
CIRCLE
  8
0
 10
-148.000000
 20
11.500019
 40
2.250000
  0
CIRCLE
  8
0
 10
86.000015
 20
74.000000
 40
17.500000
  0
CIRCLE
  8
0
 10
86.000015
 20
32.000008
 40
17.500000
  0
ARC
  8
0
 10
103.399994
 20
56.899994
 40
2.099998
 50
90.000000
 51
270.000000
  0
ARC
  8
0
 10
68.599976
 20
56.899994
 40
2.099998
 50
270.000000
 51
90.000000
  0
ARC
  8
0
 10
86.000015
 20
98.383530
 40
2.099998
 50
180.000000
 51
0.000000
  0
ARC
  8
0
 10
68.599976
 20
90.899994
 40
2.099998
 50
270.000000
 51
90.000000
  0
ARC
  8
0
 10
103.399994
 20
90.899994
 40
2.099998
 50
90.000000
 51
270.000000
  0
CIRCLE
  8
0
 10
-18.000000
 20
-33.306561
 40
3.999999
  0
CIRCLE
  8
0
 10
18.999969
 20
-33.306561
 40
3.999999
  0
ARC
  8
0
 10
-61.220890
 20
-43.806576
 40
7.220889
 50
339.743835
 51
20.256092
  0
ARC
  8
0
 10
-58.779110
 20
-43.806576
 40
7.220880
 50
159.743790
 51
200.256073
  0
CIRCLE
  8
0
 62
     2
 10
-18.000000
 20
-33.306561
 40
5.000000
  0
CIRCLE
  8
0
 62
     2
 10
18.999969
 20
-33.306561
 40
5.000000
  0
ARC
  8
0
 10
-50.779106
 20
-43.806576
 40
7.220887
 50
159.743805
 51
200.256058
  0
ARC
  8
0
 62
     4
 10
-141.639130
 20
-118.859520
 40
2.050003
 50
180.000000
 51
270.000000
  0
ARC
  8
0
 62
     4
 10
-141.639130
 20
-118.859520
 40
2.050003
 50
270.000000
 51
0.000000
  0
CIRCLE
  8
0
 62
     1
 10
-95.096390
 20
-88.765808
 40
1.000000
  0
CIRCLE
  8
0
 62
     4
 10
-95.096390
 20
-88.765808
 40
1.250000
  0
ARC
  8
0
 62
     4
 10
-1.327988
 20
-118.859520
 40
2.050000
 50
180.000000
 51
270.000031
  0
ARC
  8
0
 62
     4
 10
-1.327988
 20
-118.859520
 40
2.050003
 50
271.259918
 51
0.000000
  0
ARC
  8
0
 62
     4
 10
61.214737
 20
-83.709511
 40
3.299999
 50
137.014099
 51
222.985855
  0
CIRCLE
  8
0
 62
     4
 10
61.122086
 20
-83.709511
 40
1.300000
  0
CIRCLE
  8
0
 62
     4
 10
61.443893
 20
-84.050514
 40
0.450000
  0
CIRCLE
  8
0
 62
     4
 10
60.832016
 20
-83.391357
 40
0.450000
  0
CIRCLE
  8
0
 62
     4
 10
61.443893
 20
-84.050514
 40
0.250000
  0
CIRCLE
  8
0
 62
     4
 10
60.832016
 20
-83.391357
 40
0.250000
  0
CIRCLE
  8
0
 62
     1
 10
43.714737
 20
-83.715797
 40
1.000000
  0
CIRCLE
  8
0
 62
     4
 10
43.714737
 20
-83.715797
 40
1.250000
  0
TEXT
  8
0
 10
115.907150
 20
122.050003
 40
4.500000
  1
DATE : APR ,1994
 50
0.000000
 41
1.052631
 51
0.000000
  7
STANDARD
  0
TEXT
  8
0
 10
113.700279
 20
-130.669998
 40
6.300000
  1
KOGANEI CORP.
 50
0.000000
 41
1.052632
 51
0.000000
  7
STANDARD
  0
TEXT
  8
0
 10
-190.392654
 20
122.050003
 40
4.500000
  1
TWIN ROD CYLINDER
 50
0.000000
 41
1.052632
 51
0.000000
  7
STANDARD
  0
TEXT
  8
0
 10
-186.892654
 20
104.550003
 40
4.500000
  1
MODEL:TBDA32*ST(10)
 50
0.000000
 41
1.052632
 51
0.000000
  7
STANDARD
  0
TEXT
  8
0
 62
     3
 10
-93.606995
 20
112.000000
 40
3.200000
  1
STRETCH LINE C
 50
0.000000
 41
1.052632
 51
0.000000
  7
STANDARD
  0
TEXT
  8
0
 62
     3
 10
-3.150770
 20
113.281898
 40
3.200000
  1
STRETCH LINE B
 50
0.000000
 41
1.052632
 51
0.000000
  7
STANDARD
  0
TEXT
  8
0
 62
     3
 10
-45.607002
 20
120.940231
 40
3.200000
  1
STRETCH LINE A
 50
0.000000
 41
1.052632
 51
0.000000
  7
STANDARD
  0
TEXT
  8
0
 10
73.168526
 20
-57.436378
 40
3.200000
  1
0
 50
0.000000
 41
1.052632
 51
0.000000
  7
STANDARD
  0
TEXT
  8
0
 10
83.568527
 20
-57.436378
 40
3.200000
  1
10
 50
0.000000
 41
1.052632
 51
0.000000
  7
STANDARD
  0
TEXT
  8
0
 10
95.568527
 20
-57.436378
 40
3.200000
  1
20
 50
0.000000
 41
1.052632
 51
0.000000
  7
STANDARD
  0
TEXT
  8
0
 10
107.568527
 20
-57.436378
 40
3.200000
  1
30
 50
0.000000
 41
1.052632
 51
0.000000
  7
STANDARD
  0
TEXT
  8
0
 10
119.568527
 20
-57.436378
 40
3.200000
  1
40
 50
0.000000
 41
1.052632
 51
0.000000
  7
STANDARD
  0
TEXT
  8
0
 10
131.568527
 20
-57.436378
 40
3.200000
  1
50
 50
0.000000
 41
1.052632
 51
0.000000
  7
STANDARD
  0
TEXT
  8
0
 10
155.568527
 20
-57.436378
 40
3.200000
  1
70
 50
0.000000
 41
1.052632
 51
0.000000
  7
STANDARD
  0
TEXT
  8
0
 10
47.668526
 20
-27.436378
 40
3.200000
  1
STROKE
 50
0.000000
 41
1.052632
 51
0.000000
  7
STANDARD
  0
TEXT
  8
0
 10
97.068527
 20
-21.436377
 40
3.200000
  1
STRETCH LIST
 50
0.000000
 41
1.052632
 51
0.000000
  7
STANDARD
  0
TEXT
  8
0
 10
131.568527
 20
-33.436378
 40
3.200000
  1
60
 50
0.000000
 41
1.052632
 51
0.000000
  7
STANDARD
  0
TEXT
  8
0
 10
177.968521
 20
-33.436378
 40
3.200000
  1
100
 50
0.000000
 41
1.052632
 51
0.000000
  7
STANDARD
  0
TEXT
  8
0
 10
119.568527
 20
-33.436378
 40
3.200000
  1
50
 50
0.000000
 41
1.052632
 51
0.000000
  7
STANDARD
  0
TEXT
  8
0
 10
107.568527
 20
-33.436378
 40
3.200000
  1
40
 50
0.000000
 41
1.052632
 51
0.000000
  7
STANDARD
  0
TEXT
  8
0
 10
95.568527
 20
-33.436378
 40
3.200000
  1
30
 50
0.000000
 41
1.052632
 51
0.000000
  7
STANDARD
  0
TEXT
  8
0
 10
83.568527
 20
-33.436378
 40
3.200000
  1
20
 50
0.000000
 41
1.052632
 51
0.000000
  7
STANDARD
  0
TEXT
  8
0
 10
71.568527
 20
-33.436378
 40
3.200000
  1
10
 50
0.000000
 41
1.052632
 51
0.000000
  7
STANDARD
  0
TEXT
  8
0
 10
131.568527
 20
-45.436378
 40
3.200000
  1
25
 50
0.000000
 41
1.052632
 51
0.000000
  7
STANDARD
  0
TEXT
  8
0
 10
155.568527
 20
-45.436378
 40
3.200000
  1
35
 50
0.000000
 41
1.052632
 51
0.000000
  7
STANDARD
  0
TEXT
  8
0
 10
119.568527
 20
-45.436378
 40
3.200000
  1
20
 50
0.000000
 41
1.052632
 51
0.000000
  7
STANDARD
  0
TEXT
  8
0
 10
107.568527
 20
-45.436378
 40
3.200000
  1
15
 50
0.000000
 41
1.052632
 51
0.000000
  7
STANDARD
  0
TEXT
  8
0
 10
95.568527
 20
-45.436378
 40
3.200000
  1
10
 50
0.000000
 41
1.052632
 51
0.000000
  7
STANDARD
  0
TEXT
  8
0
 10
85.168526
 20
-45.436378
 40
3.200000
  1
5
 50
0.000000
 41
1.052632
 51
0.000000
  7
STANDARD
  0
TEXT
  8
0
 10
73.168526
 20
-45.436378
 40
3.200000
  1
0
 50
0.000000
 41
1.052632
 51
0.000000
  7
STANDARD
  0
TEXT
  8
0
 10
176.368530
 20
-21.436377
 40
3.200000
  1
(mm)
 50
0.000000
 41
1.052632
 51
0.000000
  7
STANDARD
  0
TEXT
  8
0
 10
44.465000
 20
-34.056377
 40
3.200000
  1
STRETCH
 50
0.000000
 41
1.052632
 51
0.000000
  7
STANDARD
  0
TEXT
  8
0
 10
44.465000
 20
-38.856377
 40
3.200000
  1
  PLACE
 50
0.000000
 41
1.052632
 51
0.000000
  7
STANDARD
  0
TEXT
  8
0
 10
54.668526
 20
-45.436378
 40
3.200000
  1
A
 50
0.000000
 41
1.052632
 51
0.000000
  7
STANDARD
  0
TEXT
  8
0
 10
54.668526
 20
-51.436382
 40
3.200000
  1
B
 50
0.000000
 41
1.052632
 51
0.000000
  7
STANDARD
  0
TEXT
  8
0
 10
54.668526
 20
-57.436382
 40
3.200000
  1
C
 50
0.000000
 41
1.052632
 51
0.000000
  7
STANDARD
  0
TEXT
  8
0
 10
155.568527
 20
-51.436378
 40
3.200000
  1
35
 50
0.000000
 41
1.052632
 51
0.000000
  7
STANDARD
  0
TEXT
  8
0
 10
131.568527
 20
-51.436378
 40
3.200000
  1
25
 50
0.000000
 41
1.052632
 51
0.000000
  7
STANDARD
  0
TEXT
  8
0
 10
119.568527
 20
-51.436378
 40
3.200000
  1
20
 50
0.000000
 41
1.052632
 51
0.000000
  7
STANDARD
  0
TEXT
  8
0
 10
107.568527
 20
-51.436378
 40
3.200000
  1
15
 50
0.000000
 41
1.052632
 51
0.000000
  7
STANDARD
  0
TEXT
  8
0
 10
95.568527
 20
-51.436378
 40
3.200000
  1
10
 50
0.000000
 41
1.052632
 51
0.000000
  7
STANDARD
  0
TEXT
  8
0
 10
85.168526
 20
-51.436378
 40
3.200000
  1
5
 50
0.000000
 41
1.052632
 51
0.000000
  7
STANDARD
  0
TEXT
  8
0
 10
73.168526
 20
-51.436378
 40
3.200000
  1
0
 50
0.000000
 41
1.052632
 51
0.000000
  7
STANDARD
  0
TEXT
  8
0
 10
143.568527
 20
-33.436378
 40
3.200000
  1
70
 50
0.000000
 41
1.052632
 51
0.000000
  7
STANDARD
  0
TEXT
  8
0
 10
155.568527
 20
-33.436378
 40
3.200000
  1
80
 50
0.000000
 41
1.052632
 51
0.000000
  7
STANDARD
  0
TEXT
  8
0
 10
167.568527
 20
-33.436378
 40
3.200000
  1
90
 50
0.000000
 41
1.052632
 51
0.000000
  7
STANDARD
  0
TEXT
  8
0
 10
143.568527
 20
-45.436378
 40
3.200000
  1
30
 50
0.000000
 41
1.052632
 51
0.000000
  7
STANDARD
  0
TEXT
  8
0
 10
143.568527
 20
-51.436378
 40
3.200000
  1
30
 50
0.000000
 41
1.052632
 51
0.000000
  7
STANDARD
  0
TEXT
  8
0
 10
143.568527
 20
-57.436378
 40
3.200000
  1
60
 50
0.000000
 41
1.052632
 51
0.000000
  7
STANDARD
  0
TEXT
  8
0
 10
179.568527
 20
-45.436378
 40
3.200000
  1
45
 50
0.000000
 41
1.052632
 51
0.000000
  7
STANDARD
  0
TEXT
  8
0
 10
179.568527
 20
-51.436378
 40
3.200000
  1
45
 50
0.000000
 41
1.052632
 51
0.000000
  7
STANDARD
  0
TEXT
  8
0
 10
179.568527
 20
-57.436378
 40
3.200000
  1
90
 50
0.000000
 41
1.052632
 51
0.000000
  7
STANDARD
  0
TEXT
  8
0
 10
167.568527
 20
-45.436378
 40
3.200000
  1
40
 50
0.000000
 41
1.052632
 51
0.000000
  7
STANDARD
  0
TEXT
  8
0
 10
167.568527
 20
-51.436378
 40
3.200000
  1
40
 50
0.000000
 41
1.052632
 51
0.000000
  7
STANDARD
  0
TEXT
  8
0
 10
167.568527
 20
-57.436378
 40
3.200000
  1
80
 50
0.000000
 41
1.052632
 51
0.000000
  7
STANDARD
  0
TEXT
  8
0
 10
-52.959644
 20
-74.188126
 40
4.500000
  1
SENSOR
 50
0.000000
 41
1.052632
 51
0.000000
  7
STANDARD
  0
TEXT
  8
0
 10
-52.959648
 20
-80.938126
 40
4.500000
  1
 SWITCH:ZE235
 50
0.000000
 41
1.052632
 51
0.000000
  7
STANDARD
  0
TEXT
  8
0
 10
-16.959644
 20
-87.538132
 40
4.500000
  1
ZE255
 50
0.000000
 41
1.052632
 51
0.000000
  7
STANDARD
  0
TEXT
  8
0
 10
-16.959644
 20
-93.538132
 40
4.500000
  1
ZE201
 50
0.000000
 41
1.052632
 51
0.000000
  7
STANDARD
  0
TEXT
  8
0
 10
-16.959644
 20
-99.538132
 40
4.500000
  1
ZE202
 50
0.000000
 41
1.052632
 51
0.000000
  7
STANDARD
  0
TEXT
  8
0
 10
-153.959641
 20
-99.538132
 40
4.500000
  1
ZE102
 50
0.000000
 41
1.052632
 51
0.000000
  7
STANDARD
  0
TEXT
  8
0
 10
-153.959641
 20
-93.538132
 40
4.500000
  1
ZE101
 50
0.000000
 41
1.052632
 51
0.000000
  7
STANDARD
  0
TEXT
  8
0
 10
-153.959641
 20
-87.538132
 40
4.500000
  1
ZE155
 50
0.000000
 41
1.052632
 51
0.000000
  7
STANDARD
  0
TEXT
  8
0
 10
-189.959641
 20
-74.188126
 40
4.500000
  1
SENSOR
 50
0.000000
 41
1.052632
 51
0.000000
  7
STANDARD
  0
TEXT
  8
0
 10
-189.959641
 20
-80.938126
 40
4.500000
  1
 SWITCH:ZE135
 50
0.000000
 41
1.052632
 51
0.000000
  7
STANDARD
  0
ENDSEC
  0
EOF
