  0
SECTION
  2
HEADER
  9
$ACADVER
  1
AC1002
  9
$INSBASE
 10
0.0
 20
0.0
  9
$EXTMIN
 10
-370.8735
 20
-254.5584
  9
$EXTMAX
 10
370.8735
 20
254.5584
  9
$LIMMIN
 10
0.0
 20
0.0
  9
$LIMMAX
 10
12.0
 20
9.0
  9
$VIEWCTR
 10
28.60926417
 20
0.0
  9
$VIEWSIZE
 40
509.1168
  9
$SNAPMODE
 70
     0
  9
$SNAPUNIT
 10
1.0
 20
1.0
  9
$SNAPBASE
 10
0.0
 20
0.0
  9
$SNAPANG
 50
0.0
  9
$SNAPSTYLE
 70
     0
  9
$SNAPISOPAIR
 70
     0
  9
$GRIDMODE
 70
     0
  9
$GRIDUNIT
 10
0.0
 20
0.0
  9
$ORTHOMODE
 70
     1
  9
$REGENMODE
 70
     1
  9
$FILLMODE
 70
     1
  9
$QTEXTMODE
 70
     0
  9
$DRAGMODE
 70
     2
  9
$LTSCALE
 40
1.0
  9
$OSMODE
 70
     0
  9
$ATTMODE
 70
     1
  9
$TEXTSIZE
 40
0.2
  9
$TRACEWID
 40
0.05
  9
$TEXTSTYLE
  7
AAA
  9
$CLAYER
  8
0
  9
$CELTYPE
  6
BYLAYER
  9
$CECOLOR
 62
   256
  9
$DIMSCALE
 40
1.0
  9
$DIMASZ
 40
0.18
  9
$DIMEXO
 40
0.0625
  9
$DIMDLI
 40
0.38
  9
$DIMRND
 40
0.0
  9
$DIMDLE
 40
0.0
  9
$DIMEXE
 40
0.18
  9
$DIMTP
 40
0.0
  9
$DIMTM
 40
0.0
  9
$DIMTXT
 40
0.18
  9
$DIMCEN
 40
0.09
  9
$DIMTSZ
 40
0.0
  9
$DIMTOL
 70
     0
  9
$DIMLIM
 70
     0
  9
$DIMTIH
 70
     1
  9
$DIMTOH
 70
     1
  9
$DIMSE1
 70
     0
  9
$DIMSE2
 70
     0
  9
$DIMTAD
 70
     0
  9
$DIMZIN
 70
     0
  9
$DIMBLK
  1

  9
$LUNITS
 70
     2
  9
$LUPREC
 70
     4
  9
$AXISMODE
 70
     0
  9
$AXISUNIT
 10
0.0
 20
0.0
  9
$SKETCHINC
 40
0.1
  9
$FILLETRAD
 40
0.0
  9
$AUNITS
 70
     0
  9
$AUPREC
 70
     0
  9
$MENU
  1
ACAD
  9
$ELEVATION
 40
0.0
  9
$THICKNESS
 40
0.0
  9
$VIEWDIR
 10
0.0
 20
0.0
 30
1.0
  9
$LIMCHECK
 70
     0
  9
$BLIPMODE
 70
     1
  9
$CHAMFERA
 40
0.0
  9
$CHAMFERB
 40
0.0
  9
$FASTZOOM
 70
     1
  9
$SKPOLY
 70
     0
  9
$TDCREATE
 40
2447814.6553241235
  9
$TDUPDATE
 40
2447814.6553241235
  9
$TDINDWG
 40
0.0011226852
  9
$TDUSRTIMER
 40
0.0011226852
  9
$USRTIMER
 70
     1
  9
$ANGBASE
 50
0.0
  9
$ANGDIR
 70
     0
  9
$PDMODE
 70
     0
  9
$PDSIZE
 40
0.0
  9
$PLINEWID
 40
0.0
  9
$COORDS
 70
     0
  9
$USERI1
 70
     0
  9
$USERI2
 70
     0
  9
$USERI3
 70
     0
  9
$USERI4
 70
     0
  9
$USERI5
 70
     0
  9
$USERR1
 40
0.0
  9
$USERR2
 40
0.0
  9
$USERR3
 40
0.0
  9
$USERR4
 40
0.0
  9
$USERR5
 40
0.0
  0
ENDSEC
  0
SECTION
  2
TABLES
  0
TABLE
  2
LTYPE
 70
     3
  0
LTYPE
  2
CONTINUOUS
 70
    64
  3
SOLID
 72
    65
 73
     0
 40
0.0
  0
LTYPE
  2
DASHED
 70
    64
  3
DASHED
 72
    65
 73
     2
 40
0.75
 49
0.5
 49
-0.25
  0
LTYPE
  2
CENTER
 70
    64
  3
CENTER
 72
    65
 73
     4
 40
2.0
 49
1.25
 49
-0.25
 49
0.25
 49
-0.25
  0
ENDTAB
  0
TABLE
  2
LAYER
 70
     1
  0
LAYER
  2
0
 70
    64
 62
     7
  6
CONTINUOUS
  0
ENDTAB
  0
TABLE
  2
STYLE
 70
     2
  0
STYLE
  2
AAA
 70
     0
 40
0.0
 41
1.0
 50
0.0
 71
     0
 42
0.2
  3
TXT
  4

  0
STYLE
  2
STANDARD
 70
    64
 40
0.0
 41
1.0
 50
0.0
 71
     0
 42
0.2
  3
TXT
  4
BIGFONT
  0
ENDTAB
  0
TABLE
  2
VIEW
 70
     0
  0
ENDTAB
  0
ENDSEC
  0
SECTION
  2
BLOCKS
  0
ENDSEC
  0
SECTION
  2
ENTITIES
  0
LINE
  8
0
  6
CONTINUOUS
 62
     2
 10
-57.99991
 20
183.9999
 11
-52.40186
 21
185.4999
  0
LINE
  8
0
  6
CONTINUOUS
 62
     2
 10
-57.99995
 20
168.9999
 11
-57.99995
 21
188.9999
  0
LINE
  8
0
  6
CONTINUOUS
 62
     2
 10
-57.99995
 20
183.9999
 11
200.0
 21
183.9999
  0
LINE
  8
0
  6
CONTINUOUS
 62
     2
 10
200.0
 20
189.0
 11
200.0
 21
169.0
  0
LINE
  8
0
  6
CONTINUOUS
 62
     2
 10
-57.99993
 20
184.0
 11
-52.40189
 21
182.5
  0
LINE
  8
0
  6
CONTINUOUS
 62
     2
 10
200.0
 20
184.0
 11
194.4019
 21
182.5
  0
LINE
  8
0
  6
CONTINUOUS
 62
     2
 10
199.9999
 20
183.9999
 11
194.4019
 21
185.4999
  0
LINE
  8
0
  6
CONTINUOUS
 62
     2
 10
-1.99998
 20
7.86402
 11
-1.99998
 21
40.08584
  0
LINE
  8
0
  6
CONTINUOUS
 62
     2
 10
-1.99998
 20
35.08584
 11
98.00002
 21
35.08584
  0
LINE
  8
0
  6
CONTINUOUS
 62
     2
 10
98.00002
 20
40.08584
 11
98.00002
 21
7.86402
  0
LINE
  8
0
  6
CONTINUOUS
 62
     2
 10
-1.99996
 20
35.08585
 11
3.59809
 21
36.58585
  0
LINE
  8
0
  6
CONTINUOUS
 62
     2
 10
-1.99998
 20
35.08589
 11
3.59808
 21
33.58589
  0
LINE
  8
0
  6
CONTINUOUS
 62
     2
 10
98.00003
 20
35.08583
 11
92.40198
 21
33.58583
  0
LINE
  8
0
  6
CONTINUOUS
 62
     2
 10
97.99999
 20
35.08577
 11
92.40196
 21
36.58577
  0
LINE
  8
0
  6
CONTINUOUS
 62
     2
 10
-24.49999
 20
-75.00001
 11
-24.49999
 21
-55.00001
  0
LINE
  8
0
  6
CONTINUOUS
 62
     2
 10
-24.49999
 20
-60.00001
 11
119.5
 21
-60.00001
  0
LINE
  8
0
  6
CONTINUOUS
 62
     2
 10
119.5
 20
-55.00001
 11
119.5
 21
-75.00001
  0
LINE
  8
0
  6
CONTINUOUS
 62
     2
 10
-24.49997
 20
-59.99999
 11
-18.90192
 21
-58.5
  0
LINE
  8
0
  6
CONTINUOUS
 62
     2
 10
-24.50001
 20
-59.99998
 11
-18.90195
 21
-61.49998
  0
LINE
  8
0
  6
CONTINUOUS
 62
     2
 10
119.5001
 20
-60.00004
 11
113.902
 21
-61.50003
  0
LINE
  8
0
  6
CONTINUOUS
 62
     2
 10
119.5001
 20
-60.0001
 11
113.902
 21
-58.5001
  0
LINE
  8
0
  6
CONTINUOUS
 62
     2
 10
-24.49999
 20
-165.0
 11
-24.49999
 21
-235.0
  0
LINE
  8
0
  6
CONTINUOUS
 62
     2
 10
-9.99999
 20
-125.9999
 11
-9.99999
 21
-235.0
  0
LINE
  8
0
  6
CONTINUOUS
 62
     2
 10
10.00001
 20
-160.4999
 11
10.00001
 21
-215.0
  0
LINE
  8
0
  6
CONTINUOUS
 62
     2
 10
25.00001
 20
-128.4999
 11
25.00001
 21
-195.0
  0
LINE
  8
0
  6
CONTINUOUS
 62
     2
 10
70.00001
 20
-128.4999
 11
70.00001
 21
-195.0
  0
LINE
  8
0
  6
CONTINUOUS
 62
     2
 10
85.0
 20
-160.4999
 11
85.0
 21
-215.0
  0
LINE
  8
0
  6
CONTINUOUS
 62
     2
 10
105.0
 20
-125.9999
 11
105.0
 21
-235.0
  0
LINE
  8
0
  6
CONTINUOUS
 62
     2
 10
-24.49999
 20
-190.0
 11
70.00001
 21
-190.0
  0
LINE
  8
0
  6
CONTINUOUS
 62
     2
 10
-24.49999
 20
-210.0
 11
85.0
 21
-210.0
  0
LINE
  8
0
  6
CONTINUOUS
 62
     2
 10
-24.49999
 20
-230.0
 11
105.0
 21
-230.0
  0
LINE
  8
0
  6
CONTINUOUS
 62
     2
 10
-24.49996
 20
-189.9999
 11
-18.90191
 21
-188.4999
  0
LINE
  8
0
  6
CONTINUOUS
 62
     2
 10
-24.49997
 20
-189.9998
 11
-18.90191
 21
-191.4998
  0
LINE
  8
0
  6
CONTINUOUS
 62
     2
 10
-24.49997
 20
-209.9999
 11
-18.90191
 21
-208.4999
  0
LINE
  8
0
  6
CONTINUOUS
 62
     2
 10
-24.49999
 20
-209.9998
 11
-18.90193
 21
-211.4998
  0
LINE
  8
0
  6
CONTINUOUS
 62
     2
 10
-24.49998
 20
-229.9998
 11
-18.90192
 21
-228.4998
  0
LINE
  8
0
  6
CONTINUOUS
 62
     2
 10
-24.49998
 20
-229.9999
 11
-18.90192
 21
-231.4999
  0
LINE
  8
0
  6
CONTINUOUS
 62
     2
 10
-10.00001
 20
-229.9999
 11
-15.59806
 21
-231.5
  0
LINE
  8
0
  6
CONTINUOUS
 62
     2
 10
-9.99999
 20
-230.0
 11
-15.59805
 21
-228.5001
  0
LINE
  8
0
  6
CONTINUOUS
 62
     2
 10
10.0
 20
-210.0
 11
4.40195
 21
-211.5
  0
LINE
  8
0
  6
CONTINUOUS
 62
     2
 10
10.0
 20
-210.0
 11
4.40195
 21
-208.5
  0
LINE
  8
0
  6
CONTINUOUS
 62
     2
 10
24.99998
 20
-189.9999
 11
19.40192
 21
-191.4999
  0
LINE
  8
0
  6
CONTINUOUS
 62
     2
 10
25.0
 20
-189.9999
 11
19.40194
 21
-188.4999
  0
LINE
  8
0
  6
CONTINUOUS
 62
     2
 10
69.99999
 20
-190.0
 11
64.40195
 21
-191.5
  0
LINE
  8
0
  6
CONTINUOUS
 62
     2
 10
69.99998
 20
-190.0
 11
64.40193
 21
-188.5
  0
LINE
  8
0
  6
CONTINUOUS
 62
     2
 10
84.99998
 20
-210.0
 11
79.40194
 21
-211.5
  0
LINE
  8
0
  6
CONTINUOUS
 62
     2
 10
85.00004
 20
-210.0002
 11
79.40199
 21
-208.5002
  0
LINE
  8
0
  6
CONTINUOUS
 62
     2
 10
105.0
 20
-230.0
 11
99.40193
 21
-231.5
  0
LINE
  8
0
  6
CONTINUOUS
 62
     2
 10
105.0
 20
-230.0
 11
99.4019
 21
-228.4999
  0
LINE
  8
0
  6
CONTINUOUS
 62
     2
 10
-9.99998
 20
-230.0
 11
-4.40192
 21
-228.5
  0
LINE
  8
0
  6
CONTINUOUS
 62
     2
 10
-9.99998
 20
-229.9998
 11
-4.40192
 21
-231.4998
  0
LINE
  8
0
  6
CONTINUOUS
 62
     2
 10
10.00002
 20
-209.9999
 11
15.59808
 21
-208.4999
  0
LINE
  8
0
  6
CONTINUOUS
 62
     2
 10
10.0
 20
-209.9999
 11
15.59806
 21
-211.4999
  0
LINE
  8
0
  6
CONTINUOUS
 62
     2
 10
25.00003
 20
-190.0
 11
30.59809
 21
-188.5
  0
LINE
  8
0
  6
CONTINUOUS
 62
     2
 10
25.0
 20
-189.9999
 11
30.59806
 21
-191.4999
  0
LINE
  8
0
  6
CONTINUOUS
 62
     2
 10
-92.29014
 20
64.99998
 11
-63.99998
 21
114.0
  0
LINE
  8
0
  6
CONTINUOUS
 62
     2
 10
-127.83835928
 20
64.99998
 11
-92.29012
 21
64.99998
  0
LINE
  8
0
  6
CONTINUOUS
 62
     2
 10
-64.00001
 20
114.0
 11
-65.50001
 21
108.4019
  0
LINE
  8
0
  6
CONTINUOUS
 62
     2
 10
-63.99994
 20
114.0
 11
-68.09802
 21
109.9019
  0
LINE
  8
0
  6
CONTINUOUS
 62
     2
 10
100.4319
 20
4.21215
 11
118.2568
 21
35.08583
  0
LINE
  8
0
  6
CONTINUOUS
 62
     2
 10
118.2568
 20
35.08583
 11
160.5509865
 21
35.08583
  0
LINE
  8
0
  6
CONTINUOUS
 62
     2
 10
100.4319
 20
4.21215
 11
104.53
 21
8.3102
  0
LINE
  8
0
  6
CONTINUOUS
 62
     2
 10
100.4319
 20
4.21212
 11
101.9319
 21
9.81018
  0
LINE
  8
0
  6
CONTINUOUS
 62
     2
 10
86.24999
 20
-157.165
 11
116.7543
 21
-210.0
  0
LINE
  8
0
  6
CONTINUOUS
 62
     2
 10
116.7543
 20
-210.0
 11
160.5509865
 21
-210.0
  0
LINE
  8
0
  6
CONTINUOUS
 62
     2
 10
86.25003
 20
-157.165
 11
90.34811
 21
-161.2631
  0
LINE
  8
0
  6
CONTINUOUS
 62
     2
 10
86.25008
 20
-157.165
 11
87.75008
 21
-162.7631
  0
LINE
  8
0
  6
CONTINUOUS
 62
     7
 10
-244.3154837
 20
-223.0
 11
-234.3154837
 21
-223.0
  0
LINE
  8
0
  6
CONTINUOUS
 62
     7
 10
-234.3155837
 20
-223.0
 11
-239.9136837
 21
-224.5
  0
LINE
  8
0
  6
CONTINUOUS
 62
     7
 10
-234.3155837
 20
-223.0001
 11
-239.9136837
 21
-221.5001
  0
LINE
  8
0
  6
CONTINUOUS
 62
     7
 10
270.8235
 20
-236.1515
 11
270.8235
 21
-245.8286
  0
LINE
  8
0
  6
CONTINUOUS
 62
     7
 10
275.2473
 20
-235.0456
 11
275.2473
 21
-249.1464
  0
LINE
  8
0
  6
CONTINUOUS
 62
     7
 10
258.3816
 20
-232.8337
 11
258.3816
 21
-236.1515
  0
LINE
  8
0
  6
CONTINUOUS
 62
     7
 10
258.3816
 20
-236.1515
 11
270.8235
 21
-236.1515
  0
LINE
  8
0
  6
CONTINUOUS
 62
     7
 10
258.3816
 20
-249.1464
 11
275.2473
 21
-249.1464
  0
LINE
  8
0
  6
CONTINUOUS
 62
     7
 10
258.3816
 20
-245.8286
 11
270.8235
 21
-245.8286
  0
LINE
  8
0
  6
CONTINUOUS
 62
     7
 10
258.3816
 20
-232.8337
 11
273.0353
 21
-232.8337
  0
LINE
  8
0
  6
CONTINUOUS
 62
     7
 10
218.3291
 20
-225.9564
 11
370.8735
 21
-225.9564
  0
LINE
  8
0
  6
CONTINUOUS
 62
     7
 10
-218.3291
 20
225.9563
 11
-218.3291
 21
254.5584
  0
LINE
  8
0
  6
CONTINUOUS
 62
     7
 10
-370.8735
 20
225.9563
 11
-218.3291
 21
225.9563
  0
LINE
  8
0
  6
CONTINUOUS
 62
     7
 10
-370.8735
 20
254.5584
 11
370.8735
 21
254.5584
  0
LINE
  8
0
  6
CONTINUOUS
 62
     7
 10
-370.8735
 20
-254.5584
 11
370.8735
 21
-254.5584
  0
LINE
  8
0
  6
CONTINUOUS
 62
     7
 10
370.8735
 20
254.5584
 11
370.8735
 21
-254.5584
  0
LINE
  8
0
  6
CONTINUOUS
 62
     7
 10
-370.8735
 20
-254.5584
 11
-370.8735
 21
254.5584
  0
LINE
  8
0
  6
CONTINUOUS
 62
     7
 10
277.7356
 20
-232.8337
 11
277.7356
 21
-236.1515
  0
LINE
  8
0
  6
CONTINUOUS
 62
     7
 10
293.4953
 20
-236.1515
 11
293.4953
 21
-246.9346
  0
LINE
  8
0
  6
CONTINUOUS
 62
     7
 10
218.3291
 20
-225.9564
 11
218.3291
 21
-254.5584
  0
LINE
  8
0
  6
CONTINUOUS
 62
     7
 10
218.3291
 20
254.5584
 11
218.3291
 21
225.9563
  0
LINE
  8
0
  6
CONTINUOUS
 62
     7
 10
218.3291
 20
225.9563
 11
370.8735
 21
225.9563
  0
LINE
  8
0
  6
CONTINUOUS
 62
     7
 10
293.9378
 20
-232.5849
 11
295.5138
 21
-232.5849
  0
LINE
  8
0
  6
CONTINUOUS
 62
     7
 10
293.9378
 20
-230.373
 11
295.5138
 21
-230.373
  0
LINE
  8
0
  6
CONTINUOUS
 62
     7
 10
295.5138
 20
-230.373
 11
295.5138
 21
-232.5849
  0
LINE
  8
0
  6
CONTINUOUS
 62
     7
 10
293.9378
 20
-230.373
 11
293.9378
 21
-232.5849
  0
LINE
  8
0
  6
CONTINUOUS
 62
     7
 10
293.1082
 20
-230.373
 11
293.1082
 21
-232.5849
  0
LINE
  8
0
  6
CONTINUOUS
 62
     7
 10
291.6982
 20
-230.373
 11
291.6982
 21
-232.5849
  0
LINE
  8
0
  6
CONTINUOUS
 62
     7
 10
291.6982
 20
-232.5849
 11
293.1082
 21
-232.5849
  0
LINE
  8
0
  6
CONTINUOUS
 62
     7
 10
301.5135
 20
-230.373
 11
305.9372
 21
-230.373
  0
LINE
  8
0
  6
CONTINUOUS
 62
     7
 10
291.6982
 20
-230.373
 11
293.1082
 21
-230.373
  0
LINE
  8
0
  6
CONTINUOUS
 62
     7
 10
282.4993
 20
-230.373
 11
286.2008
 21
-230.373
  0
LINE
  8
0
  6
CONTINUOUS
 62
     7
 10
327.5038
 20
-236.4046
 11
328.7298
 21
-235.9169
  0
LINE
  8
0
  6
CONTINUOUS
 62
     7
 10
327.5033
 20
-236.4044
 11
327.5033
 21
-249.1464
  0
LINE
  8
0
  6
CONTINUOUS
 62
     7
 10
323.0794
 20
-249.1464
 11
327.5033
 21
-249.1464
  0
LINE
  8
0
  6
CONTINUOUS
 62
     7
 10
313.9554
 20
-241.7926
 11
323.0795
 21
-238.1638
  0
LINE
  8
0
  6
CONTINUOUS
 62
     7
 10
313.9556
 20
-238.222
 11
326.8062
 21
-233.1111
  0
LINE
  8
0
  6
CONTINUOUS
 62
     7
 10
323.0794
 20
-238.1637
 11
323.0794
 21
-249.1464
  0
LINE
  8
0
  6
CONTINUOUS
 62
     7
 10
327.5033
 20
-231.3684
 11
327.5033
 21
-232.0833
  0
LINE
  8
0
  6
CONTINUOUS
 62
     7
 10
330.821
 20
-231.3684
 11
330.821
 21
-232.8337
  0
LINE
  8
0
  6
CONTINUOUS
 62
     7
 10
313.9554
 20
-238.2218
 11
313.9554
 21
-241.7924
  0
LINE
  8
0
  6
CONTINUOUS
 62
     7
 10
327.5033
 20
-231.3684
 11
330.821
 21
-231.3684
  0
LINE
  8
0
  6
CONTINUOUS
 62
     7
 10
308.3422
 20
-240.195
 11
311.2961
 21
-238.8176
  0
LINE
  8
0
  6
CONTINUOUS
 62
     7
 10
305.9372
 20
-242.7344
 11
305.9372
 21
-249.1464
  0
LINE
  8
0
  6
CONTINUOUS
 62
     7
 10
301.5135
 20
-243.379
 11
301.5135
 21
-249.1464
  0
LINE
  8
0
  6
CONTINUOUS
 62
     7
 10
305.9372
 20
-232.8337
 11
310.3611
 21
-232.8337
  0
LINE
  8
0
  6
CONTINUOUS
 62
     7
 10
305.9372
 20
-230.373
 11
305.9372
 21
-232.8337
  0
LINE
  8
0
  6
CONTINUOUS
 62
     7
 10
301.5135
 20
-230.373
 11
301.5135
 21
-232.8337
  0
LINE
  8
0
  6
CONTINUOUS
 62
     7
 10
312.5729
 20
-235.0456
 11
312.5729
 21
-236.8127
  0
LINE
  8
0
  6
CONTINUOUS
 62
     7
 10
308.3424
 20
-240.1951
 11
312.5734
 21
-242.1681
  0
LINE
  8
0
  6
CONTINUOUS
 62
     7
 10
305.9373
 20
-242.7344
 11
312.5731
 21
-245.8286
  0
LINE
  8
0
  6
CONTINUOUS
 62
     7
 10
296.2602
 20
-242.1678
 11
296.2602
 21
-245.8286
  0
LINE
  8
0
  6
CONTINUOUS
 62
     7
 10
296.2606
 20
-242.168
 11
309.1624
 21
-236.1518
  0
LINE
  8
0
  6
CONTINUOUS
 62
     7
 10
296.2601
 20
-245.8285
 11
301.5135
 21
-243.3788
  0
LINE
  8
0
  6
CONTINUOUS
 62
     7
 10
312.5729
 20
-242.1678
 11
312.5729
 21
-245.8286
  0
LINE
  8
0
  6
CONTINUOUS
 62
     7
 10
296.2602
 20
-232.8337
 11
296.2602
 21
-236.1515
  0
LINE
  8
0
  6
CONTINUOUS
 62
     7
 10
301.5135
 20
-249.1464
 11
305.9372
 21
-249.1464
  0
LINE
  8
0
  6
CONTINUOUS
 62
     7
 10
296.2602
 20
-236.1515
 11
309.162
 21
-236.1515
  0
LINE
  8
0
  6
CONTINUOUS
 62
     7
 10
296.2602
 20
-232.8337
 11
301.5135
 21
-232.8337
  0
LINE
  8
0
  6
CONTINUOUS
 62
     7
 10
285.5413
 20
-232.8335
 11
286.2006
 21
-230.3728
  0
LINE
  8
0
  6
CONTINUOUS
 62
     7
 10
282.1066
 20
-232.8337
 11
282.766
 21
-230.373
  0
LINE
  8
0
  6
CONTINUOUS
 62
     7
 10
285.5415
 20
-232.8337
 11
290.1775
 21
-232.8337
  0
LINE
  8
0
  6
CONTINUOUS
 62
     7
 10
284.6525
 20
-236.1515
 11
289.0716
 21
-236.1515
  0
LINE
  8
0
  6
CONTINUOUS
 62
     7
 10
286.6428
 20
-249.1464
 11
291.2835
 21
-249.1464
  0
LINE
  8
0
  6
CONTINUOUS
 62
     7
 10
285.7536
 20
-245.8286
 11
286.6426
 21
-249.1463
  0
LINE
  8
0
  6
CONTINUOUS
 62
     7
 10
285.7537
 20
-245.8286
 11
289.0716
 21
-245.8286
  0
LINE
  8
0
  6
CONTINUOUS
 62
     7
 10
281.1707
 20
-249.1466
 11
284.6527
 21
-236.1517
  0
LINE
  8
0
  6
CONTINUOUS
 62
     7
 10
277.7356
 20
-236.1515
 11
281.2176
 21
-236.1515
  0
LINE
  8
0
  6
CONTINUOUS
 62
     7
 10
277.7355
 20
-249.1463
 11
281.2176
 21
-236.1515
  0
LINE
  8
0
  6
CONTINUOUS
 62
     7
 10
277.7356
 20
-249.1464
 11
281.1705
 21
-249.1464
  0
LINE
  8
0
  6
CONTINUOUS
 62
     7
 10
277.7356
 20
-232.8337
 11
282.1066
 21
-232.8337
  0
LINE
  8
0
  6
CONTINUOUS
 62
     7
 10
258.3816
 20
-245.8286
 11
258.3816
 21
-249.1464
  0
LINE
  8
0
  6
CONTINUOUS
 62
     7
 10
289.0716
 20
-236.1515
 11
289.0716
 21
-245.8286
  0
LINE
  8
0
  6
CONTINUOUS
 62
     2
 10
-243.2502
 20
-2.16532
 11
-244.7502
 21
-7.76337
  0
LINE
  8
0
  6
CONTINUOUS
 62
     2
 10
-243.2505
 20
-2.16535
 11
-247.3486
 21
-6.26341
  0
LINE
  8
0
  6
CONTINUOUS
 62
     2
 10
-243.2501
 20
-2.16534
 11
-271.7724
 21
-51.56738
  0
LINE
  8
0
  6
CONTINUOUS
 62
     2
 10
-222.1555986
 20
-51.56737
 11
-271.7724
 21
-51.56737
  0
LINE
  8
0
  6
CENTER
 62
     2
 10
98.00002
 20
-7.86398
 11
98.00002
 21
7.86402
  0
LINE
  8
0
  6
CONTINUOUS
 62
     7
 10
-57.99998
 20
17.00002
 11
-43.99998
 21
17.00002
  0
LINE
  8
0
  6
CONTINUOUS
 62
     7
 10
-57.99998
 20
-13.99998
 11
-43.99998
 21
-13.99998
  0
LINE
  8
0
  6
CENTER
 62
     2
 10
185.0
 20
5.00002
 11
194.0
 21
5.00002
  0
LINE
  8
0
  6
CENTER
 62
     2
 10
189.5
 20
0.50002
 11
189.5
 21
9.50002
  0
LINE
  8
0
  6
CONTINUOUS
 62
     7
 10
201.0
 20
-13.99998
 11
201.0
 21
17.00002
  0
LINE
  8
0
  6
CONTINUOUS
 62
     7
 10
187.0
 20
-13.99998
 11
187.0
 21
17.00002
  0
LINE
  8
0
  6
CONTINUOUS
 62
     7
 10
201.0
 20
17.00002
 11
187.0
 21
17.00002
  0
LINE
  8
0
  6
CONTINUOUS
 62
     7
 10
201.0
 20
-13.99998
 11
187.0
 21
-13.99998
  0
LINE
  8
0
  6
CONTINUOUS
 62
     7
 10
209.0
 20
12.00002
 11
205.0
 21
12.00002
  0
LINE
  8
0
  6
CONTINUOUS
 62
     7
 10
204.5
 20
12.99993
 11
201.5
 21
12.99993
  0
LINE
  8
0
  6
CONTINUOUS
 62
     7
 10
209.5774
 20
11.00002
 11
205.0
 21
11.00002
  0
LINE
  8
0
  6
CONTINUOUS
 62
     7
 10
210.0
 20
10.26797
 11
210.0
 21
1.73207
  0
LINE
  8
0
  6
CONTINUOUS
 62
     7
 10
185.0
 20
11.50002
 11
185.0
 21
6.00002
  0
LINE
  8
0
  6
CONTINUOUS
 62
     7
 10
210.0
 20
10.26798
 11
209.0
 21
12.00003
  0
LINE
  8
0
  6
CONTINUOUS
 62
     7
 10
185.4999
 20
12.0
 11
184.9999
 21
11.50001
  0
LINE
  8
0
  6
CONTINUOUS
 62
     7
 10
201.4999
 20
12.99992
 11
200.9999
 21
12.00001
  0
LINE
  8
0
  6
CONTINUOUS
 62
     7
 10
204.5002
 20
12.99996
 11
205.0002
 21
12.00003
  0
LINE
  8
0
  6
CONTINUOUS
 62
     7
 10
204.4999
 20
-0.9999
 11
204.9999
 21
0.00001
  0
LINE
  8
0
  6
CONTINUOUS
 62
     7
 10
201.5
 20
-0.9999
 11
201.0
 21
0.0
  0
LINE
  8
0
  6
CONTINUOUS
 62
     7
 10
204.5
 20
-0.9999
 11
201.5
 21
-0.99989
  0
LINE
  8
0
  6
CONTINUOUS
 62
     7
 10
205.0
 20
0.00002
 11
205.0
 21
12.00002
  0
LINE
  8
0
  6
CONTINUOUS
 62
     7
 10
204.5
 20
6.00002
 11
201.5
 21
6.00002
  0
LINE
  8
0
  6
CONTINUOUS
 62
     7
 10
187.0
 20
11.00002
 11
185.0
 21
11.00002
  0
LINE
  8
0
  6
CONTINUOUS
 62
     7
 10
187.0
 20
12.00002
 11
185.5
 21
12.00002
  0
LINE
  8
0
  6
CONTINUOUS
 62
     7
 10
210.0001
 20
1.73207
 11
209.0001
 21
0.00003
  0
LINE
  8
0
  6
CONTINUOUS
 62
     7
 10
209.5774
 20
1.00002
 11
204.9097
 21
1.00002
  0
LINE
  8
0
  6
CONTINUOUS
 62
     7
 10
209.0
 20
0.00002
 11
205.0
 21
0.00002
  0
LINE
  8
0
  6
DASHED
 62
     7
 10
187.0
 20
1.00002
 11
185.0
 21
1.00002
  0
LINE
  8
0
  6
DASHED
 62
     7
 10
187.0
 20
0.00002
 11
185.5
 21
0.00002
  0
LINE
  8
0
  6
DASHED
 62
     7
 10
185.5
 20
-0.00001
 11
185.0
 21
0.49999
  0
LINE
  8
0
  6
DASHED
 62
     7
 10
210.0
 20
7.73207
 11
205.0
 21
7.73207
  0
LINE
  8
0
  6
DASHED
 62
     7
 10
210.0
 20
9.46412
 11
205.0
 21
9.46412
  0
LINE
  8
0
  6
DASHED
 62
     7
 10
210.0
 20
4.26797
 11
205.0
 21
4.26797
  0
LINE
  8
0
  6
DASHED
 62
     7
 10
210.0
 20
2.53592
 11
205.0
 21
2.53592
  0
LINE
  8
0
  6
CONTINUOUS
 62
     7
 10
209.0
 20
12.00002
 11
209.0
 21
0.00002
  0
LINE
  8
0
  6
CONTINUOUS
 62
     7
 10
185.5
 20
12.00002
 11
185.5
 21
6.00002
  0
LINE
  8
0
  6
CENTER
 62
     2
 10
-60.49996
 20
0.00002
 11
203.5
 21
0.00002
  0
LINE
  8
0
  6
CONTINUOUS
 62
     7
 10
-23.99999
 20
-15.99998
 11
120.0
 21
-15.99998
  0
LINE
  8
0
  6
CONTINUOUS
 62
     7
 10
-23.99999
 20
-14.99999
 11
120.0
 21
-14.99999
  0
LINE
  8
0
  6
CONTINUOUS
 62
     7
 10
-23.99999
 20
15.00002
 11
120.0
 21
15.00002
  0
LINE
  8
0
  6
CONTINUOUS
 62
     7
 10
-23.99999
 20
15.00002
 11
-23.99999
 21
-15.99998
  0
LINE
  8
0
  6
CONTINUOUS
 62
     7
 10
120.0
 20
15.00002
 11
120.0
 21
-15.99998
  0
LINE
  8
0
  6
CENTER
 62
     2
 10
-1.99999
 20
-7.86398
 11
-1.99999
 21
7.86402
  0
LINE
  8
0
  6
CENTER
 62
     2
 10
-41.99998
 20
5.00002
 11
-50.99998
 21
5.00002
  0
LINE
  8
0
  6
CENTER
 62
     2
 10
-46.49998
 20
0.50002
 11
-46.49998
 21
9.50002
  0
LINE
  8
0
  6
CONTINUOUS
 62
     7
 10
-57.99998
 20
-13.99998
 11
-57.99998
 21
17.00002
  0
LINE
  8
0
  6
CONTINUOUS
 62
     7
 10
-43.99998
 20
-13.99998
 11
-43.99998
 21
17.00002
  0
LINE
  8
0
  6
CENTER
 62
     2
 10
-70.99998
 20
6.00002
 11
-38.99998
 21
6.00002
  0
LINE
  8
0
  6
CONTINUOUS
 62
     7
 10
-65.99998
 20
12.00002
 11
-61.99998
 21
12.00002
  0
LINE
  8
0
  6
CONTINUOUS
 62
     7
 10
-26.49999
 20
12.99993
 11
-23.99999
 21
12.99993
  0
LINE
  8
0
  6
CONTINUOUS
 62
     7
 10
-66.57734
 20
11.00002
 11
-61.99998
 21
11.00002
  0
LINE
  8
0
  6
CONTINUOUS
 62
     7
 10
-66.99998
 20
10.26797
 11
-66.99998
 21
1.73207
  0
LINE
  8
0
  6
CONTINUOUS
 62
     7
 10
-41.99998
 20
11.50002
 11
-41.99998
 21
6.00002
  0
LINE
  8
0
  6
CONTINUOUS
 62
     7
 10
-66.99998
 20
10.26797
 11
-65.99998
 21
12.00002
  0
LINE
  8
0
  6
CONTINUOUS
 62
     7
 10
-42.5
 20
12.00001
 11
-42.00001
 21
11.50002
  0
LINE
  8
0
  6
CONTINUOUS
 62
     7
 10
-58.5
 20
12.99992
 11
-58.0
 21
12.00001
  0
LINE
  8
0
  6
CONTINUOUS
 62
     7
 10
-26.49999
 20
12.99993
 11
-26.99999
 21
12.00001
  0
LINE
  8
0
  6
DASHED
 62
     7
 10
-26.5
 20
-0.9999
 11
-27.0
 21
0.00002
  0
LINE
  8
0
  6
CONTINUOUS
 62
     7
 10
-58.50001
 20
-0.9999
 11
-58.0
 21
0.00002
  0
LINE
  8
0
  6
DASHED
 62
     7
 10
-26.49999
 20
-0.9999
 11
-23.99999
 21
-0.99989
  0
LINE
  8
0
  6
DASHED
 62
     7
 10
-26.99999
 20
0.00002
 11
-26.99999
 21
6.00002
  0
LINE
  8
0
  6
CONTINUOUS
 62
     7
 10
-61.49998
 20
6.00002
 11
-58.49998
 21
6.00002
  0
LINE
  8
0
  6
CONTINUOUS
 62
     7
 10
-43.99998
 20
11.00002
 11
-41.99998
 21
11.00002
  0
LINE
  8
0
  6
CONTINUOUS
 62
     7
 10
-43.99998
 20
12.00002
 11
-42.49998
 21
12.00002
  0
LINE
  8
0
  6
CONTINUOUS
 62
     7
 10
-66.99997
 20
1.73207
 11
-65.99997
 21
0.00002
  0
LINE
  8
0
  6
CONTINUOUS
 62
     7
 10
-66.57734
 20
1.00002
 11
-61.90965
 21
1.00002
  0
LINE
  8
0
  6
CONTINUOUS
 62
     7
 10
-65.99998
 20
0.00002
 11
-61.99998
 21
0.00002
  0
LINE
  8
0
  6
DASHED
 62
     7
 10
-43.99998
 20
1.00002
 11
-41.99998
 21
1.00002
  0
LINE
  8
0
  6
DASHED
 62
     7
 10
-43.99998
 20
0.00002
 11
-42.49998
 21
0.00002
  0
LINE
  8
0
  6
DASHED
 62
     7
 10
-42.50001
 20
0.00002
 11
-42.0
 21
0.50002
  0
LINE
  8
0
  6
DASHED
 62
     7
 10
-66.99998
 20
7.73207
 11
-61.99998
 21
7.73207
  0
LINE
  8
0
  6
DASHED
 62
     7
 10
-66.99998
 20
9.46412
 11
-61.99998
 21
9.46412
  0
LINE
  8
0
  6
DASHED
 62
     7
 10
-66.99998
 20
4.26797
 11
-61.99998
 21
4.26797
  0
LINE
  8
0
  6
DASHED
 62
     7
 10
-66.99998
 20
2.53592
 11
-61.99998
 21
2.53592
  0
LINE
  8
0
  6
CONTINUOUS
 62
     7
 10
-65.99999
 20
12.00002
 11
-65.99999
 21
0.00002
  0
LINE
  8
0
  6
CONTINUOUS
 62
     7
 10
-42.49998
 20
12.00002
 11
-42.49998
 21
6.00002
  0
LINE
  8
0
  6
CENTER
 62
     2
 10
182.5
 20
6.00002
 11
214.0
 21
6.00002
  0
LINE
  8
0
  6
CONTINUOUS
 62
     7
 10
-43.99998
 20
6.00002
 11
-23.99999
 21
6.00002
  0
LINE
  8
0
  6
CONTINUOUS
 62
     7
 10
120.0
 20
6.00002
 11
187.0
 21
6.00002
  0
LINE
  8
0
  6
CONTINUOUS
 62
     7
 10
-43.99998
 20
-5.99998
 11
-23.99999
 21
-5.99998
  0
LINE
  8
0
  6
CONTINUOUS
 62
     7
 10
120.0
 20
-5.99998
 11
187.0
 21
-5.99998
  0
LINE
  8
0
  6
DASHED
 62
     7
 10
-42.49998
 20
6.00002
 11
-42.49998
 21
0.00002
  0
LINE
  8
0
  6
DASHED
 62
     7
 10
-41.99998
 20
6.00002
 11
-41.99998
 21
0.50001
  0
LINE
  8
0
  6
DASHED
 62
     7
 10
185.0
 20
6.00002
 11
185.0
 21
0.50001
  0
LINE
  8
0
  6
DASHED
 62
     7
 10
185.5
 20
6.00002
 11
185.5
 21
0.00002
  0
LINE
  8
0
  6
CONTINUOUS
 62
     7
 10
-61.99998
 20
0.00002
 11
-61.99998
 21
12.00002
  0
LINE
  8
0
  6
CONTINUOUS
 62
     7
 10
-61.49999
 20
-0.9999
 11
-61.99999
 21
0.00002
  0
LINE
  8
0
  6
CONTINUOUS
 62
     7
 10
-61.49998
 20
-0.9999
 11
-58.50001
 21
-0.99989
  0
LINE
  8
0
  6
CONTINUOUS
 62
     7
 10
-61.49998
 20
12.99993
 11
-58.49998
 21
12.99993
  0
LINE
  8
0
  6
CONTINUOUS
 62
     7
 10
-61.49999
 20
12.99993
 11
-61.99999
 21
12.00002
  0
LINE
  8
0
  6
CONTINUOUS
 62
     7
 10
-26.99999
 20
6.00002
 11
-26.99999
 21
12.00002
  0
LINE
  8
0
  6
CONTINUOUS
 62
     7
 10
123.0
 20
6.00002
 11
123.0
 21
12.00002
  0
LINE
  8
0
  6
CONTINUOUS
 62
     7
 10
122.5
 20
12.99993
 11
120.0
 21
12.99993
  0
LINE
  8
0
  6
CONTINUOUS
 62
     7
 10
122.5
 20
12.99993
 11
123.0
 21
12.00002
  0
LINE
  8
0
  6
DASHED
 62
     7
 10
122.5
 20
-0.99989
 11
123.0
 21
0.00002
  0
LINE
  8
0
  6
DASHED
 62
     7
 10
122.5
 20
-0.9999
 11
120.0
 21
-0.99989
  0
LINE
  8
0
  6
DASHED
 62
     7
 10
123.0
 20
0.00002
 11
123.0
 21
6.00002
  0
LINE
  8
0
  6
CENTER
 62
     2
 10
204.0
 20
140.0
 11
-60.99997
 21
140.0
  0
LINE
  8
0
  6
CONTINUOUS
 62
     7
 10
-57.99997
 20
77.99997
 11
-57.99997
 21
162.0
  0
LINE
  8
0
  6
CONTINUOUS
 62
     7
 10
-43.99997
 20
77.99997
 11
-43.99997
 21
162.0
  0
LINE
  8
0
  6
CENTER
 62
     2
 10
-64.9999
 20
120.0
 11
215.0001
 21
120.0
  0
LINE
  8
0
  6
CONTINUOUS
 62
     7
 10
-65.99997
 20
126.0
 11
-61.99997
 21
126.0
  0
LINE
  8
0
  6
CONTINUOUS
 62
     7
 10
-66.57732
 20
125.0
 11
-61.99997
 21
125.0
  0
LINE
  8
0
  6
CONTINUOUS
 62
     7
 10
-66.99997
 20
124.2679
 11
-66.99997
 21
115.732
  0
LINE
  8
0
  6
CONTINUOUS
 62
     7
 10
-41.99997
 20
125.5
 11
-41.99997
 21
114.5
  0
LINE
  8
0
  6
CONTINUOUS
 62
     7
 10
-66.99997
 20
124.2679
 11
-65.99997
 21
126.0
  0
LINE
  8
0
  6
CONTINUOUS
 62
     7
 10
-42.5
 20
125.9999
 11
-42.0
 21
125.4999
  0
LINE
  8
0
  6
CONTINUOUS
 62
     7
 10
-26.99993
 20
128.0829
 11
-27.49993
 21
127.083
  0
LINE
  8
0
  6
CONTINUOUS
 62
     7
 10
-26.99999
 20
128.0829
 11
-24.49999
 21
128.0829
  0
LINE
  8
0
  6
CONTINUOUS
 62
     7
 10
-27.49999
 20
112.917
 11
-27.49999
 21
127.0829
  0
LINE
  8
0
  6
CONTINUOUS
 62
     7
 10
-43.99997
 20
125.0
 11
-41.99997
 21
125.0
  0
LINE
  8
0
  6
CONTINUOUS
 62
     7
 10
-43.99997
 20
126.0
 11
-42.49996
 21
126.0
  0
LINE
  8
0
  6
CONTINUOUS
 62
     7
 10
-66.99995
 20
115.732
 11
-65.99997
 21
114.0
  0
LINE
  8
0
  6
CONTINUOUS
 62
     7
 10
-66.57732
 20
115.0
 11
-61.90964
 21
115.0
  0
LINE
  8
0
  6
CONTINUOUS
 62
     7
 10
-65.99997
 20
114.0
 11
-61.99997
 21
114.0
  0
LINE
  8
0
  6
CONTINUOUS
 62
     7
 10
-43.99997
 20
115.0
 11
-41.99997
 21
115.0
  0
LINE
  8
0
  6
CONTINUOUS
 62
     7
 10
-43.99997
 20
114.0
 11
-42.49997
 21
114.0
  0
LINE
  8
0
  6
CONTINUOUS
 62
     7
 10
-42.50001
 20
113.9999
 11
-42.00001
 21
114.4999
  0
LINE
  8
0
  6
DASHED
 62
     7
 10
-66.99997
 20
120.0
 11
-61.99997
 21
120.0
  0
LINE
  8
0
  6
DASHED
 62
     7
 10
-66.99997
 20
123.0
 11
-61.99997
 21
123.0
  0
LINE
  8
0
  6
CONTINUOUS
 62
     7
 10
-65.99998
 20
126.0
 11
-65.99998
 21
114.0
  0
LINE
  8
0
  6
CONTINUOUS
 62
     7
 10
-42.49996
 20
126.0
 11
-42.49996
 21
114.0
  0
LINE
  8
0
  6
CONTINUOUS
 62
     7
 10
-57.99997
 20
162.0
 11
-43.99997
 21
162.0
  0
LINE
  8
0
  6
CONTINUOUS
 62
     7
 10
-57.99997
 20
77.99997
 11
-43.99997
 21
77.99997
  0
LINE
  8
0
  6
CENTER
 62
     2
 10
-51.99997
 20
149.25
 11
-51.99997
 21
160.75
  0
LINE
  8
0
  6
CENTER
 62
     2
 10
-46.24997
 20
155.0
 11
-57.74997
 21
155.0
  0
LINE
  8
0
  6
CONTINUOUS
 62
     7
 10
-26.99999
 20
124.0414
 11
-24.49999
 21
124.0414
  0
LINE
  8
0
  6
CONTINUOUS
 62
     7
 10
-26.99999
 20
115.9585
 11
-24.49999
 21
115.9585
  0
LINE
  8
0
  6
CONTINUOUS
 62
     7
 10
-58.49997
 20
128.0829
 11
-57.99999
 21
127.083
  0
LINE
  8
0
  6
CONTINUOUS
 62
     7
 10
-26.99993
 20
111.9171
 11
-27.49993
 21
112.917
  0
LINE
  8
0
  6
CONTINUOUS
 62
     7
 10
-58.49998
 20
111.9171
 11
-57.99998
 21
112.917
  0
LINE
  8
0
  6
CONTINUOUS
 62
     7
 10
-26.99999
 20
111.9171
 11
-24.49999
 21
111.9171
  0
LINE
  8
0
  6
DASHED
 62
     7
 10
-66.99997
 20
117.0
 11
-61.99997
 21
117.0
  0
LINE
  8
0
  6
CONTINUOUS
 62
     7
 10
-24.49999
 20
79.99996
 11
-24.49999
 21
160.0
  0
LINE
  8
0
  6
CONTINUOUS
 62
     7
 10
-24.49999
 20
160.0
 11
119.5
 21
160.0
  0
LINE
  8
0
  6
CONTINUOUS
 62
     7
 10
119.5
 20
160.0
 11
119.5
 21
79.99996
  0
LINE
  8
0
  6
CONTINUOUS
 62
     7
 10
119.5
 20
79.99996
 11
-24.49999
 21
79.99996
  0
LINE
  8
0
  6
CONTINUOUS
 62
     7
 10
-24.49999
 20
158.15
 11
119.5
 21
158.15
  0
LINE
  8
0
  6
CONTINUOUS
 62
     7
 10
-24.49999
 20
154.85
 11
119.5
 21
154.85
  0
LINE
  8
0
  6
CENTER
 62
     2
 10
-50.99997
 20
134.0
 11
-50.99997
 21
146.0
  0
LINE
  8
0
  6
CENTER
 62
     2
 10
70.00001
 20
111.5
 11
70.00001
 21
128.5
  0
LINE
  8
0
  6
CENTER
 62
     2
 10
25.00001
 20
111.5
 11
25.00001
 21
128.5
  0
LINE
  8
0
  6
CENTER
 62
     2
 10
204.0
 20
99.99996
 11
-60.99997
 21
99.99996
  0
LINE
  8
0
  6
CENTER
 62
     2
 10
-50.99997
 20
106.0
 11
-50.99997
 21
93.99997
  0
LINE
  8
0
  6
CENTER
 62
     2
 10
-51.99997
 20
90.74997
 11
-51.99997
 21
79.24997
  0
LINE
  8
0
  6
CENTER
 62
     2
 10
-46.24997
 20
84.99997
 11
-57.74997
 21
84.99997
  0
LINE
  8
0
  6
CONTINUOUS
 62
     7
 10
-43.99997
 20
106.0
 11
-24.49999
 21
106.0
  0
LINE
  8
0
  6
CONTINUOUS
 62
     7
 10
-43.99997
 20
93.99996
 11
-24.49999
 21
93.99996
  0
LINE
  8
0
  6
CONTINUOUS
 62
     7
 10
-43.99997
 20
134.0
 11
-24.49999
 21
134.0
  0
LINE
  8
0
  6
CONTINUOUS
 62
     7
 10
-43.99997
 20
146.0
 11
-24.49999
 21
146.0
  0
LINE
  8
0
  6
CONTINUOUS
 62
     7
 10
201.0
 20
77.99997
 11
201.0
 21
162.0
  0
LINE
  8
0
  6
CONTINUOUS
 62
     7
 10
187.0
 20
77.99997
 11
187.0
 21
162.0
  0
LINE
  8
0
  6
CONTINUOUS
 62
     7
 10
209.0
 20
126.0
 11
205.0
 21
126.0
  0
LINE
  8
0
  6
CONTINUOUS
 62
     7
 10
209.5774
 20
125.0
 11
205.0
 21
125.0
  0
LINE
  8
0
  6
CONTINUOUS
 62
     7
 10
210.0
 20
124.2679
 11
210.0
 21
115.732
  0
LINE
  8
0
  6
CONTINUOUS
 62
     7
 10
185.0
 20
125.5
 11
185.0
 21
114.5
  0
LINE
  8
0
  6
CONTINUOUS
 62
     7
 10
210.0001
 20
124.2679
 11
209.0001
 21
126.0
  0
LINE
  8
0
  6
CONTINUOUS
 62
     7
 10
185.5
 20
125.9999
 11
185.0
 21
125.4999
  0
LINE
  8
0
  6
CONTINUOUS
 62
     7
 10
204.5002
 20
128.0829
 11
205.0002
 21
127.083
  0
LINE
  8
0
  6
CONTINUOUS
 62
     7
 10
204.5
 20
128.0829
 11
201.5001
 21
128.0829
  0
LINE
  8
0
  6
CONTINUOUS
 62
     7
 10
205.0
 20
112.917
 11
205.0
 21
127.0829
  0
LINE
  8
0
  6
CONTINUOUS
 62
     7
 10
187.0
 20
125.0
 11
185.0
 21
125.0
  0
LINE
  8
0
  6
CONTINUOUS
 62
     7
 10
187.0
 20
126.0
 11
185.5
 21
126.0
  0
LINE
  8
0
  6
CONTINUOUS
 62
     7
 10
210.0001
 20
115.732
 11
209.0001
 21
114.0
  0
LINE
  8
0
  6
CONTINUOUS
 62
     7
 10
209.5774
 20
115.0
 11
204.9097
 21
115.0
  0
LINE
  8
0
  6
CONTINUOUS
 62
     7
 10
209.0
 20
114.0
 11
205.0
 21
114.0
  0
LINE
  8
0
  6
CONTINUOUS
 62
     7
 10
187.0
 20
115.0
 11
185.0
 21
115.0
  0
LINE
  8
0
  6
CONTINUOUS
 62
     7
 10
187.0
 20
114.0
 11
185.5
 21
114.0
  0
LINE
  8
0
  6
CONTINUOUS
 62
     7
 10
185.5
 20
113.9999
 11
185.0
 21
114.4999
  0
LINE
  8
0
  6
DASHED
 62
     7
 10
210.0
 20
120.0
 11
205.0
 21
120.0
  0
LINE
  8
0
  6
DASHED
 62
     7
 10
210.0
 20
123.0
 11
205.0
 21
123.0
  0
LINE
  8
0
  6
CONTINUOUS
 62
     7
 10
209.0001
 20
126.0
 11
209.0001
 21
114.0
  0
LINE
  8
0
  6
CONTINUOUS
 62
     7
 10
185.5
 20
126.0
 11
185.5
 21
114.0
  0
LINE
  8
0
  6
CONTINUOUS
 62
     7
 10
201.0
 20
162.0
 11
187.0
 21
162.0
  0
LINE
  8
0
  6
CONTINUOUS
 62
     7
 10
201.0
 20
77.99997
 11
187.0
 21
77.99997
  0
LINE
  8
0
  6
CENTER
 62
     2
 10
195.0
 20
149.25
 11
195.0
 21
160.75
  0
LINE
  8
0
  6
CENTER
 62
     2
 10
189.25
 20
155.0
 11
200.75
 21
155.0
  0
LINE
  8
0
  6
CONTINUOUS
 62
     7
 10
204.5
 20
124.0414
 11
201.5001
 21
124.0414
  0
LINE
  8
0
  6
CONTINUOUS
 62
     7
 10
204.5
 20
115.9585
 11
201.5001
 21
115.9585
  0
LINE
  8
0
  6
CONTINUOUS
 62
     7
 10
201.5001
 20
128.0829
 11
201.0001
 21
127.083
  0
LINE
  8
0
  6
CONTINUOUS
 62
     7
 10
204.5
 20
111.9171
 11
205.0
 21
112.917
  0
LINE
  8
0
  6
CONTINUOUS
 62
     7
 10
201.5002
 20
111.9171
 11
201.0002
 21
112.917
  0
LINE
  8
0
  6
CONTINUOUS
 62
     7
 10
204.5
 20
111.9171
 11
201.5001
 21
111.9171
  0
LINE
  8
0
  6
DASHED
 62
     7
 10
210.0
 20
117.0
 11
205.0
 21
117.0
  0
LINE
  8
0
  6
CENTER
 62
     2
 10
194.0
 20
134.0
 11
194.0
 21
146.0
  0
LINE
  8
0
  6
CENTER
 62
     2
 10
194.0
 20
106.0
 11
194.0
 21
93.99997
  0
LINE
  8
0
  6
CENTER
 62
     2
 10
195.0
 20
90.74997
 11
195.0
 21
79.24997
  0
LINE
  8
0
  6
CENTER
 62
     2
 10
189.25
 20
84.99997
 11
200.75
 21
84.99997
  0
LINE
  8
0
  6
CONTINUOUS
 62
     7
 10
187.0
 20
106.0
 11
119.5
 21
106.0
  0
LINE
  8
0
  6
CONTINUOUS
 62
     7
 10
187.0
 20
93.99996
 11
119.5
 21
93.99996
  0
LINE
  8
0
  6
CONTINUOUS
 62
     7
 10
187.0
 20
134.0
 11
119.5
 21
134.0
  0
LINE
  8
0
  6
CONTINUOUS
 62
     7
 10
187.0
 20
146.0
 11
119.5
 21
146.0
  0
LINE
  8
0
  6
CONTINUOUS
 62
     7
 10
-61.49994
 20
128.0829
 11
-61.99994
 21
127.083
  0
LINE
  8
0
  6
CONTINUOUS
 62
     7
 10
-61.49997
 20
128.0829
 11
-58.49999
 21
128.0829
  0
LINE
  8
0
  6
CONTINUOUS
 62
     7
 10
-61.49997
 20
124.0414
 11
-58.49999
 21
124.0414
  0
LINE
  8
0
  6
CONTINUOUS
 62
     7
 10
-61.99997
 20
112.917
 11
-61.99997
 21
127.0829
  0
LINE
  8
0
  6
CONTINUOUS
 62
     7
 10
-61.49997
 20
115.9585
 11
-58.49999
 21
115.9585
  0
LINE
  8
0
  6
CONTINUOUS
 62
     7
 10
-61.49993
 20
111.9171
 11
-61.99993
 21
112.917
  0
LINE
  8
0
  6
CONTINUOUS
 62
     7
 10
-61.49997
 20
111.9171
 11
-58.49999
 21
111.9171
  0
LINE
  8
0
  6
CONTINUOUS
 62
     7
 10
122.0001
 20
128.0829
 11
122.5001
 21
127.083
  0
LINE
  8
0
  6
CONTINUOUS
 62
     7
 10
122.0
 20
128.0829
 11
119.5
 21
128.0829
  0
LINE
  8
0
  6
CONTINUOUS
 62
     7
 10
122.5
 20
112.917
 11
122.5
 21
127.0829
  0
LINE
  8
0
  6
CONTINUOUS
 62
     7
 10
122.0
 20
124.0414
 11
119.5
 21
124.0414
  0
LINE
  8
0
  6
CONTINUOUS
 62
     7
 10
122.0
 20
115.9585
 11
119.5
 21
115.9585
  0
LINE
  8
0
  6
CONTINUOUS
 62
     7
 10
122.0001
 20
111.9171
 11
122.5001
 21
112.917
  0
LINE
  8
0
  6
CONTINUOUS
 62
     7
 10
122.0
 20
111.9171
 11
119.5
 21
111.9171
  0
LINE
  8
0
  6
CENTER
 62
     2
 10
204.0
 20
-140.0
 11
-60.99998
 21
-140.0
  0
LINE
  8
0
  6
CONTINUOUS
 62
     7
 10
-57.99998
 20
-77.99996
 11
-57.99998
 21
-161.9999
  0
LINE
  8
0
  6
CONTINUOUS
 62
     7
 10
-43.99998
 20
-77.99996
 11
-43.99998
 21
-161.9999
  0
LINE
  8
0
  6
CENTER
 62
     2
 10
-64.99991
 20
-120.0
 11
215.0001
 21
-120.0
  0
LINE
  8
0
  6
CONTINUOUS
 62
     7
 10
-65.99998
 20
-126.0
 11
-61.99998
 21
-126.0
  0
LINE
  8
0
  6
CONTINUOUS
 62
     7
 10
-66.57733
 20
-125.0
 11
-61.99998
 21
-125.0
  0
LINE
  8
0
  6
CONTINUOUS
 62
     7
 10
-66.99998
 20
-124.2679
 11
-66.99998
 21
-115.732
  0
LINE
  8
0
  6
CONTINUOUS
 62
     7
 10
-41.99998
 20
-125.5
 11
-41.99998
 21
-114.4999
  0
LINE
  8
0
  6
CONTINUOUS
 62
     7
 10
-66.99998
 20
-124.2679
 11
-65.99997
 21
-125.9999
  0
LINE
  8
0
  6
CONTINUOUS
 62
     7
 10
-42.50001
 20
-125.9999
 11
-42.00001
 21
-125.4999
  0
LINE
  8
0
  6
CONTINUOUS
 62
     7
 10
-26.99992
 20
-128.0829
 11
-27.49992
 21
-127.083
  0
LINE
  8
0
  6
CONTINUOUS
 62
     7
 10
-27.0
 20
-128.0829
 11
-24.5
 21
-128.0829
  0
LINE
  8
0
  6
CONTINUOUS
 62
     7
 10
-27.5
 20
-112.917
 11
-27.5
 21
-127.0829
  0
LINE
  8
0
  6
CONTINUOUS
 62
     7
 10
-43.99998
 20
-125.0
 11
-41.99998
 21
-125.0
  0
LINE
  8
0
  6
CONTINUOUS
 62
     7
 10
-43.99998
 20
-126.0
 11
-42.49997
 21
-126.0
  0
LINE
  8
0
  6
CONTINUOUS
 62
     7
 10
-66.99998
 20
-115.732
 11
-65.99998
 21
-113.9999
  0
LINE
  8
0
  6
CONTINUOUS
 62
     7
 10
-66.57733
 20
-115.0
 11
-61.90965
 21
-115.0
  0
LINE
  8
0
  6
CONTINUOUS
 62
     7
 10
-65.99998
 20
-114.0
 11
-61.99998
 21
-114.0
  0
LINE
  8
0
  6
CONTINUOUS
 62
     7
 10
-43.99998
 20
-115.0
 11
-41.99998
 21
-115.0
  0
LINE
  8
0
  6
CONTINUOUS
 62
     7
 10
-43.99998
 20
-114.0
 11
-42.49998
 21
-114.0
  0
LINE
  8
0
  6
CONTINUOUS
 62
     7
 10
-42.50002
 20
-113.9999
 11
-42.00002
 21
-114.4999
  0
LINE
  8
0
  6
DASHED
 62
     7
 10
-66.99998
 20
-120.0
 11
-61.99998
 21
-120.0
  0
LINE
  8
0
  6
DASHED
 62
     7
 10
-66.99998
 20
-123.0
 11
-61.99998
 21
-123.0
  0
LINE
  8
0
  6
CONTINUOUS
 62
     7
 10
-65.99998
 20
-126.0
 11
-65.99998
 21
-114.0
  0
LINE
  8
0
  6
CONTINUOUS
 62
     7
 10
-42.49997
 20
-126.0
 11
-42.49997
 21
-114.0
  0
LINE
  8
0
  6
CONTINUOUS
 62
     7
 10
-57.99998
 20
-161.9999
 11
-43.99998
 21
-161.9999
  0
LINE
  8
0
  6
CONTINUOUS
 62
     7
 10
-57.99998
 20
-77.99996
 11
-43.99998
 21
-77.99996
  0
LINE
  8
0
  6
CONTINUOUS
 62
     7
 10
-27.0
 20
-124.0414
 11
-24.5
 21
-124.0414
  0
LINE
  8
0
  6
CONTINUOUS
 62
     7
 10
-27.0
 20
-115.9585
 11
-24.5
 21
-115.9585
  0
LINE
  8
0
  6
CONTINUOUS
 62
     7
 10
-58.49998
 20
-128.0829
 11
-57.99998
 21
-127.083
  0
LINE
  8
0
  6
CONTINUOUS
 62
     7
 10
-26.99991
 20
-111.9171
 11
-27.49991
 21
-112.917
  0
LINE
  8
0
  6
CONTINUOUS
 62
     7
 10
-58.49998
 20
-111.9171
 11
-57.99998
 21
-112.917
  0
LINE
  8
0
  6
CONTINUOUS
 62
     7
 10
-27.0
 20
-111.9171
 11
-24.5
 21
-111.9171
  0
LINE
  8
0
  6
DASHED
 62
     7
 10
-66.99998
 20
-117.0
 11
-61.99998
 21
-117.0
  0
LINE
  8
0
  6
CONTINUOUS
 62
     7
 10
-24.5
 20
-79.99995
 11
-24.5
 21
-159.9999
  0
LINE
  8
0
  6
CONTINUOUS
 62
     7
 10
-24.5
 20
-159.9999
 11
119.5
 21
-159.9999
  0
LINE
  8
0
  6
CONTINUOUS
 62
     7
 10
119.5
 20
-159.9999
 11
119.5
 21
-79.99995
  0
LINE
  8
0
  6
CONTINUOUS
 62
     7
 10
119.5
 20
-79.99995
 11
-24.5
 21
-79.99995
  0
LINE
  8
0
  6
CENTER
 62
     2
 10
70.0
 20
-111.5
 11
70.0
 21
-128.5
  0
LINE
  8
0
  6
CENTER
 62
     2
 10
79.49999
 20
-84.99995
 11
90.49999
 21
-84.99995
  0
LINE
  8
0
  6
CENTER
 62
     2
 10
204.0
 20
-99.99995
 11
-60.99998
 21
-99.99995
  0
LINE
  8
0
  6
CENTER
 62
     2
 10
195.0
 20
-162.7499
 11
195.0
 21
-147.2499
  0
LINE
  8
0
  6
CENTER
 62
     2
 10
202.75
 20
-154.9999
 11
187.25
 21
-154.9999
  0
LINE
  8
0
  6
CONTINUOUS
 62
     7
 10
-43.99998
 20
-106.0
 11
-24.5
 21
-106.0
  0
LINE
  8
0
  6
CONTINUOUS
 62
     7
 10
-43.99998
 20
-93.99995
 11
-24.5
 21
-93.99995
  0
LINE
  8
0
  6
CONTINUOUS
 62
     7
 10
-43.99998
 20
-134.0
 11
-24.5
 21
-134.0
  0
LINE
  8
0
  6
CONTINUOUS
 62
     7
 10
-43.99998
 20
-145.9999
 11
-24.5
 21
-145.9999
  0
LINE
  8
0
  6
CONTINUOUS
 62
     7
 10
201.0
 20
-77.99996
 11
201.0
 21
-161.9999
  0
LINE
  8
0
  6
CONTINUOUS
 62
     7
 10
187.0
 20
-77.99996
 11
187.0
 21
-161.9999
  0
LINE
  8
0
  6
CONTINUOUS
 62
     7
 10
209.0
 20
-126.0
 11
205.0
 21
-126.0
  0
LINE
  8
0
  6
CONTINUOUS
 62
     7
 10
209.5774
 20
-125.0
 11
205.0
 21
-125.0
  0
LINE
  8
0
  6
CONTINUOUS
 62
     7
 10
210.0
 20
-124.2679
 11
210.0
 21
-115.732
  0
LINE
  8
0
  6
CONTINUOUS
 62
     7
 10
185.0
 20
-125.5
 11
185.0
 21
-114.4999
  0
LINE
  8
0
  6
CONTINUOUS
 62
     7
 10
210.0001
 20
-124.2679
 11
209.0001
 21
-126.0
  0
LINE
  8
0
  6
CONTINUOUS
 62
     7
 10
185.4998
 20
-125.9999
 11
184.9999
 21
-125.4999
  0
LINE
  8
0
  6
CONTINUOUS
 62
     7
 10
204.5002
 20
-128.0829
 11
205.0002
 21
-127.083
  0
LINE
  8
0
  6
CONTINUOUS
 62
     7
 10
204.5
 20
-128.0829
 11
201.5001
 21
-128.0829
  0
LINE
  8
0
  6
CONTINUOUS
 62
     7
 10
205.0
 20
-112.917
 11
205.0
 21
-127.0829
  0
LINE
  8
0
  6
CONTINUOUS
 62
     7
 10
187.0
 20
-125.0
 11
185.0
 21
-125.0
  0
LINE
  8
0
  6
CONTINUOUS
 62
     7
 10
187.0
 20
-126.0
 11
185.5
 21
-126.0
  0
LINE
  8
0
  6
CONTINUOUS
 62
     7
 10
210.0001
 20
-115.732
 11
209.0001
 21
-114.0
  0
LINE
  8
0
  6
CONTINUOUS
 62
     7
 10
209.5774
 20
-115.0
 11
204.9097
 21
-115.0
  0
LINE
  8
0
  6
CONTINUOUS
 62
     7
 10
209.0
 20
-114.0
 11
205.0
 21
-114.0
  0
LINE
  8
0
  6
CONTINUOUS
 62
     7
 10
187.0
 20
-115.0
 11
185.0
 21
-115.0
  0
LINE
  8
0
  6
CONTINUOUS
 62
     7
 10
187.0
 20
-114.0
 11
185.5
 21
-114.0
  0
LINE
  8
0
  6
CONTINUOUS
 62
     7
 10
185.5001
 20
-113.9999
 11
185.0
 21
-114.4999
  0
LINE
  8
0
  6
DASHED
 62
     7
 10
210.0
 20
-120.0
 11
205.0
 21
-120.0
  0
LINE
  8
0
  6
DASHED
 62
     7
 10
210.0
 20
-123.0
 11
205.0
 21
-123.0
  0
LINE
  8
0
  6
CONTINUOUS
 62
     7
 10
209.0001
 20
-126.0
 11
209.0001
 21
-114.0
  0
LINE
  8
0
  6
CONTINUOUS
 62
     7
 10
185.5
 20
-126.0
 11
185.5
 21
-114.0
  0
LINE
  8
0
  6
CONTINUOUS
 62
     7
 10
201.0
 20
-161.9999
 11
187.0
 21
-161.9999
  0
LINE
  8
0
  6
CONTINUOUS
 62
     7
 10
201.0
 20
-77.99996
 11
187.0
 21
-77.99996
  0
LINE
  8
0
  6
CONTINUOUS
 62
     7
 10
204.5
 20
-124.0414
 11
201.5001
 21
-124.0414
  0
LINE
  8
0
  6
CONTINUOUS
 62
     7
 10
204.5
 20
-115.9585
 11
201.5001
 21
-115.9585
  0
LINE
  8
0
  6
CONTINUOUS
 62
     7
 10
201.5001
 20
-128.0829
 11
201.0001
 21
-127.0829
  0
LINE
  8
0
  6
CONTINUOUS
 62
     7
 10
204.5
 20
-111.9171
 11
205.0
 21
-112.917
  0
LINE
  8
0
  6
CONTINUOUS
 62
     7
 10
201.5003
 20
-111.9171
 11
201.0003
 21
-112.917
  0
LINE
  8
0
  6
CONTINUOUS
 62
     7
 10
204.5
 20
-111.9171
 11
201.5001
 21
-111.9171
  0
LINE
  8
0
  6
DASHED
 62
     7
 10
210.0
 20
-117.0
 11
205.0
 21
-117.0
  0
LINE
  8
0
  6
CONTINUOUS
 62
     7
 10
187.0
 20
-106.0
 11
119.5
 21
-106.0
  0
LINE
  8
0
  6
CONTINUOUS
 62
     7
 10
187.0
 20
-93.99995
 11
119.5
 21
-93.99995
  0
LINE
  8
0
  6
CONTINUOUS
 62
     7
 10
187.0
 20
-134.0
 11
119.5
 21
-134.0
  0
LINE
  8
0
  6
CONTINUOUS
 62
     7
 10
187.0
 20
-145.9999
 11
119.5
 21
-145.9999
  0
LINE
  8
0
  6
CONTINUOUS
 62
     7
 10
-61.49995
 20
-128.0829
 11
-61.99995
 21
-127.083
  0
LINE
  8
0
  6
CONTINUOUS
 62
     7
 10
-61.49998
 20
-128.0829
 11
-58.5
 21
-128.0829
  0
LINE
  8
0
  6
CONTINUOUS
 62
     7
 10
-61.49998
 20
-124.0414
 11
-58.5
 21
-124.0414
  0
LINE
  8
0
  6
CONTINUOUS
 62
     7
 10
-61.99998
 20
-112.917
 11
-61.99998
 21
-127.0829
  0
LINE
  8
0
  6
CONTINUOUS
 62
     7
 10
-61.49998
 20
-115.9585
 11
-58.5
 21
-115.9585
  0
LINE
  8
0
  6
CONTINUOUS
 62
     7
 10
-61.49993
 20
-111.9171
 11
-61.99993
 21
-112.917
  0
LINE
  8
0
  6
CONTINUOUS
 62
     7
 10
-61.49998
 20
-111.9171
 11
-58.5
 21
-111.9171
  0
LINE
  8
0
  6
CONTINUOUS
 62
     7
 10
122.0002
 20
-128.0829
 11
122.5002
 21
-127.083
  0
LINE
  8
0
  6
CONTINUOUS
 62
     7
 10
122.0
 20
-128.0829
 11
119.5
 21
-128.0829
  0
LINE
  8
0
  6
CONTINUOUS
 62
     7
 10
122.5
 20
-112.917
 11
122.5
 21
-127.0829
  0
LINE
  8
0
  6
CONTINUOUS
 62
     7
 10
122.0
 20
-124.0414
 11
119.5
 21
-124.0414
  0
LINE
  8
0
  6
CONTINUOUS
 62
     7
 10
122.0
 20
-115.9585
 11
119.5
 21
-115.9585
  0
LINE
  8
0
  6
CONTINUOUS
 62
     7
 10
122.0002
 20
-111.9171
 11
122.5002
 21
-112.917
  0
LINE
  8
0
  6
CONTINUOUS
 62
     7
 10
122.0
 20
-111.9171
 11
119.5
 21
-111.9171
  0
LINE
  8
0
  6
CONTINUOUS
 62
     7
 10
-24.5
 20
-158.9999
 11
119.5
 21
-158.9999
  0
LINE
  8
0
  6
CONTINUOUS
 62
     7
 10
-24.5
 20
-144.9999
 11
119.5
 21
-144.9999
  0
LINE
  8
0
  6
CONTINUOUS
 62
     7
 10
-24.5
 20
-143.9999
 11
119.5
 21
-143.9999
  0
LINE
  8
0
  6
CONTINUOUS
 62
     7
 10
-24.5
 20
-129.0
 11
119.5
 21
-129.0
  0
LINE
  8
0
  6
CONTINUOUS
 62
     7
 10
-24.5
 20
-128.0
 11
119.5
 21
-128.0
  0
LINE
  8
0
  6
CONTINUOUS
 62
     7
 10
-24.5
 20
-111.9999
 11
119.5
 21
-111.9999
  0
LINE
  8
0
  6
CONTINUOUS
 62
     7
 10
-24.5
 20
-111.0
 11
119.5
 21
-111.0
  0
LINE
  8
0
  6
CONTINUOUS
 62
     7
 10
-24.5
 20
-95.99996
 11
119.5
 21
-95.99996
  0
LINE
  8
0
  6
CONTINUOUS
 62
     7
 10
-24.5
 20
-94.99996
 11
119.5
 21
-94.99996
  0
LINE
  8
0
  6
CONTINUOUS
 62
     7
 10
-24.5
 20
-80.99996
 11
119.5
 21
-80.99996
  0
LINE
  8
0
  6
CENTER
 62
     2
 10
-44.24998
 20
-84.99996
 11
-59.74998
 21
-84.99996
  0
LINE
  8
0
  6
CENTER
 62
     2
 10
-51.99998
 20
-92.74996
 11
-51.99998
 21
-77.24996
  0
LINE
  8
0
  6
CENTER
 62
     2
 10
-44.24998
 20
-154.9999
 11
-59.74998
 21
-154.9999
  0
LINE
  8
0
  6
CENTER
 62
     2
 10
-51.99998
 20
-162.7499
 11
-51.99998
 21
-147.2499
  0
LINE
  8
0
  6
CENTER
 62
     2
 10
202.75
 20
-84.99996
 11
187.25
 21
-84.99996
  0
LINE
  8
0
  6
CENTER
 62
     2
 10
195.0
 20
-92.74996
 11
195.0
 21
-77.24996
  0
LINE
  8
0
  6
CENTER
 62
     2
 10
25.0
 20
-111.5
 11
25.0
 21
-128.5
  0
LINE
  8
0
  6
CENTER
 62
     2
 10
84.99999
 20
-79.49995
 11
84.99999
 21
-90.49995
  0
LINE
  8
0
  6
CENTER
 62
     2
 10
105.0
 20
-114.0
 11
105.0
 21
-126.0
  0
LINE
  8
0
  6
CENTER
 62
     2
 10
4.5
 20
-84.99995
 11
15.5
 21
-84.99995
  0
LINE
  8
0
  6
CENTER
 62
     2
 10
10.0
 20
-160.4999
 11
10.0
 21
-149.4999
  0
LINE
  8
0
  6
CENTER
 62
     2
 10
4.5
 20
-154.9999
 11
15.5
 21
-154.9999
  0
LINE
  8
0
  6
CENTER
 62
     2
 10
84.99999
 20
-160.4999
 11
84.99999
 21
-149.4999
  0
LINE
  8
0
  6
CENTER
 62
     2
 10
79.49999
 20
-154.9999
 11
90.49999
 21
-154.9999
  0
LINE
  8
0
  6
CENTER
 62
     2
 10
10.0
 20
-79.49995
 11
10.0
 21
-90.49995
  0
LINE
  8
0
  6
CENTER
 62
     2
 10
-11.0
 20
-114.0
 11
-11.0
 21
-126.0
  0
LINE
  8
0
  6
CENTER
 62
     2
 10
-10.0
 20
-114.0
 11
-10.0
 21
-126.0
  0
LINE
  8
0
  6
CENTER
 62
     2
 10
-9.0
 20
-114.0
 11
-9.0
 21
-126.0
  0
LINE
  8
0
  6
CONTINUOUS
 62
     7
 10
-11.0
 20
-117.0
 11
-9.0
 21
-117.0
  0
LINE
  8
0
  6
CONTINUOUS
 62
     7
 10
-11.0
 20
-123.0
 11
-9.0
 21
-123.0
  0
LINE
  8
0
  6
CENTER
 62
     2
 10
-207.0
 20
-18.99999
 11
-207.0
 21
20.00001
  0
LINE
  8
0
  6
CONTINUOUS
 62
     7
 10
-165.0
 20
-13.99999
 11
-165.0
 21
17.00001
  0
LINE
  8
0
  6
CONTINUOUS
 62
     7
 10
-249.0
 20
17.00001
 11
-165.0
 21
17.00001
  0
LINE
  8
0
  6
CONTINUOUS
 62
     7
 10
-187.974
 20
5.92042
 11
-187.694
 21
6.96552
  0
LINE
  8
0
  6
CONTINUOUS
 62
     7
 10
-186.0259
 20
5.92041
 11
-186.306
 21
6.96551
  0
LINE
  8
0
  6
CONTINUOUS
 62
     7
 10
-204.0
 20
7.73206
 11
-204.0
 21
4.26796
  0
LINE
  8
0
  6
CONTINUOUS
 62
     7
 10
-215.0
 20
-15.99999
 11
-199.0
 21
-15.99999
  0
LINE
  8
0
  6
CONTINUOUS
 62
     7
 10
-198.0
 20
-15.0
 11
-183.0
 21
-15.0
  0
LINE
  8
0
  6
CONTINUOUS
 62
     7
 10
-168.0
 20
-15.99999
 11
-167.0
 21
-15.00001
  0
LINE
  8
0
  6
CONTINUOUS
 62
     7
 10
-183.0
 20
-15.0
 11
-182.0
 21
-15.99999
  0
LINE
  8
0
  6
CONTINUOUS
 62
     7
 10
-199.0
 20
-16.0
 11
-198.0
 21
-15.0
  0
LINE
  8
0
  6
CONTINUOUS
 62
     7
 10
-182.0
 20
-15.99999
 11
-168.0
 21
-15.99999
  0
LINE
  8
0
  6
CONTINUOUS
 62
     7
 10
-167.0
 20
-15.0
 11
-167.0
 21
-13.99999
  0
LINE
  8
0
  6
CENTER
 62
     2
 10
-197.0
 20
6.00001
 11
-217.0
 21
6.00001
  0
LINE
  8
0
  6
CONTINUOUS
 62
     7
 10
-165.0
 20
-13.99999
 11
-249.0
 21
-13.99999
  0
LINE
  8
0
  6
CONTINUOUS
 62
     7
 10
-202.9585
 20
13.00001
 11
-211.0414
 21
13.00002
  0
LINE
  8
0
  6
CONTINUOUS
 62
     7
 10
-211.0414
 20
13.00001
 11
-215.0829
 21
6.00001
  0
LINE
  8
0
  6
CONTINUOUS
 62
     7
 10
-215.0829
 20
6.00001
 11
-211.0414
 21
-0.99999
  0
LINE
  8
0
  6
CONTINUOUS
 62
     7
 10
-211.0414
 20
-0.99998
 11
-202.9585
 21
-0.99999
  0
LINE
  8
0
  6
CONTINUOUS
 62
     7
 10
-202.9585
 20
-1.0
 11
-198.9171
 21
6.0
  0
LINE
  8
0
  6
CONTINUOUS
 62
     7
 10
-198.917
 20
6.0
 11
-202.9585
 21
13.00001
  0
LINE
  8
0
  6
CONTINUOUS
 62
     7
 10
-207.0
 20
9.46411
 11
-204.0
 21
7.73206
  0
LINE
  8
0
  6
CONTINUOUS
 62
     7
 10
-210.0
 20
7.73207
 11
-207.0
 21
9.46412
  0
LINE
  8
0
  6
CONTINUOUS
 62
     7
 10
-210.0
 20
4.26796
 11
-210.0
 21
7.73206
  0
LINE
  8
0
  6
CONTINUOUS
 62
     7
 10
-207.0
 20
2.53591
 11
-210.0
 21
4.26796
  0
LINE
  8
0
  6
CONTINUOUS
 62
     7
 10
-204.0
 20
4.26796
 11
-207.0
 21
2.53591
  0
LINE
  8
0
  6
CONTINUOUS
 62
     7
 10
-184.5
 20
1.44339
 11
-184.5
 21
-1.44337
  0
LINE
  8
0
  6
CONTINUOUS
 62
     7
 10
-187.0
 20
2.88676
 11
-184.5
 21
1.44339
  0
LINE
  8
0
  6
CONTINUOUS
 62
     7
 10
-189.5
 20
1.44339
 11
-187.0
 21
2.88676
  0
LINE
  8
0
  6
CONTINUOUS
 62
     7
 10
-189.5
 20
-1.44336
 11
-189.5
 21
1.44339
  0
LINE
  8
0
  6
CONTINUOUS
 62
     7
 10
-187.0
 20
-2.88674
 11
-189.5
 21
-1.44336
  0
LINE
  8
0
  6
CONTINUOUS
 62
     7
 10
-184.5
 20
-1.44337
 11
-187.0
 21
-2.88674
  0
LINE
  8
0
  6
CONTINUOUS
 62
     7
 10
-249.0
 20
-13.99999
 11
-249.0
 21
17.00001
  0
LINE
  8
0
  6
CONTINUOUS
 62
     7
 10
-226.026
 20
5.92042
 11
-226.306
 21
6.96553
  0
LINE
  8
0
  6
CONTINUOUS
 62
     7
 10
-227.974
 20
5.92041
 11
-227.694
 21
6.96552
  0
LINE
  8
0
  6
CONTINUOUS
 62
     7
 10
-216.0
 20
-15.0
 11
-231.0
 21
-15.0
  0
LINE
  8
0
  6
CONTINUOUS
 62
     7
 10
-246.0
 20
-15.99998
 11
-247.0
 21
-15.0
  0
LINE
  8
0
  6
CONTINUOUS
 62
     7
 10
-231.0
 20
-14.99999
 11
-232.0
 21
-15.99998
  0
LINE
  8
0
  6
CONTINUOUS
 62
     7
 10
-215.0
 20
-15.99999
 11
-216.0
 21
-14.99999
  0
LINE
  8
0
  6
CONTINUOUS
 62
     7
 10
-232.0
 20
-15.99999
 11
-246.0
 21
-15.99999
  0
LINE
  8
0
  6
CONTINUOUS
 62
     7
 10
-247.0
 20
-15.0
 11
-247.0
 21
-13.99999
  0
LINE
  8
0
  6
CENTER
 62
     2
 10
-242.0
 20
-4.99999
 11
-242.0
 21
5.00001
  0
LINE
  8
0
  6
CONTINUOUS
 62
     7
 10
-229.5
 20
1.44339
 11
-229.5
 21
-1.44337
  0
LINE
  8
0
  6
CONTINUOUS
 62
     7
 10
-227.0
 20
2.88676
 11
-229.5
 21
1.44339
  0
LINE
  8
0
  6
CONTINUOUS
 62
     7
 10
-224.5
 20
1.44338
 11
-227.0
 21
2.88676
  0
LINE
  8
0
  6
CONTINUOUS
 62
     7
 10
-224.5
 20
-1.44336
 11
-224.5
 21
1.44339
  0
LINE
  8
0
  6
CONTINUOUS
 62
     7
 10
-227.0
 20
-2.88673
 11
-224.5
 21
-1.44336
  0
LINE
  8
0
  6
CONTINUOUS
 62
     7
 10
-229.5
 20
-1.44336
 11
-227.0
 21
-2.88673
  0
LINE
  8
0
  6
CENTER
 62
     2
 10
-247.0
 20
0.00001
 11
-237.0
 21
0.00001
  0
LINE
  8
0
  6
CENTER
 62
     2
 10
-172.0
 20
-4.99999
 11
-172.0
 21
5.00001
  0
LINE
  8
0
  6
CENTER
 62
     2
 10
-167.0
 20
0.00001
 11
-177.0
 21
0.00001
  0
ARC
  8
0
  6
CONTINUOUS
 62
     7
 10
273.0353
 20
-235.0456
 40
2.21188
 50
0.0
 51
89.99999
  0
ARC
  8
0
  6
CONTINUOUS
 62
     7
 10
291.2835
 20
-246.9346
 40
2.2119
 50
270.0
 51
0.0
  0
ARC
  8
0
  6
CONTINUOUS
 62
     7
 10
290.1775
 20
-236.1515
 40
3.31784
 50
0.0
 51
89.99999
  0
ARC
  8
0
  6
CONTINUOUS
 62
     7
 10
310.3611
 20
-235.0456
 40
2.21188
 50
0.0
 51
89.99999
  0
ARC
  8
0
  6
CONTINUOUS
 62
     7
 10
310.3611
 20
-236.8127
 40
2.21189
 50
295.0
 51
0.0
  0
ARC
  8
0
  6
CONTINUOUS
 62
     7
 10
327.5033
 20
-232.8337
 40
3.31784
 50
291.6884
 51
0.0
  0
ARC
  8
0
  6
CONTINUOUS
 62
     7
 10
326.3972
 20
-232.0833
 40
1.10595
 50
291.689
 51
0.0
  0
CIRCLE
  8
0
  6
CONTINUOUS
 62
     7
 10
98.00002
 20
0.00002
 40
4.864
  0
CIRCLE
  8
0
  6
CONTINUOUS
 62
     7
 10
98.00002
 20
0.00002
 40
4.283
  0
ARC
  8
0
  6
CONTINUOUS
 62
     7
 10
213.4997
 20
2.50006
 40
12.49969
 50
163.7396
 51
196.2604
  0
CIRCLE
  8
0
  6
CONTINUOUS
 62
     7
 10
189.5
 20
5.00002
 40
1.5
  0
CIRCLE
  8
0
  6
CONTINUOUS
 62
     7
 10
189.5
 20
5.00002
 40
1.23
  0
ARC
  8
0
  6
CONTINUOUS
 62
     7
 10
192.5003
 20
9.49998
 40
12.49969
 50
343.7396
 51
16.26037
  0
ARC
  8
0
  6
CONTINUOUS
 62
     7
 10
213.4997
 20
9.49998
 40
12.49969
 50
163.7396
 51
196.2604
  0
ARC
  8
0
  6
CONTINUOUS
 62
     7
 10
192.5003
 20
2.50006
 40
12.49969
 50
343.7396
 51
16.26039
  0
CIRCLE
  8
0
  6
CONTINUOUS
 62
     7
 10
-1.99999
 20
0.00002
 40
4.864
  0
CIRCLE
  8
0
  6
CONTINUOUS
 62
     7
 10
-1.99999
 20
0.00002
 40
4.283
  0
ARC
  8
0
  6
CONTINUOUS
 62
     7
 10
-70.49968
 20
2.50006
 40
12.4997
 50
343.7396
 51
16.26034
  0
CIRCLE
  8
0
  6
CONTINUOUS
 62
     7
 10
-46.49998
 20
5.00002
 40
1.5
  0
CIRCLE
  8
0
  6
CONTINUOUS
 62
     7
 10
-46.49998
 20
5.00002
 40
1.23
  0
ARC
  8
0
  6
CONTINUOUS
 62
     7
 10
-14.50029
 20
9.49998
 40
12.4997
 50
163.7396
 51
196.2604
  0
ARC
  8
0
  6
CONTINUOUS
 62
     7
 10
-70.49968
 20
9.49998
 40
12.4997
 50
343.7396
 51
16.26035
  0
ARC
  8
0
  6
DASHED
 62
     7
 10
-14.50029
 20
2.50006
 40
12.4997
 50
163.7396
 51
196.2603
  0
ARC
  8
0
  6
CONTINUOUS
 62
     7
 10
-49.50029
 20
9.49998
 40
12.4997
 50
163.7396
 51
196.2604
  0
ARC
  8
0
  6
CONTINUOUS
 62
     7
 10
-49.50029
 20
2.50006
 40
12.4997
 50
163.7396
 51
196.2603
  0
ARC
  8
0
  6
DASHED
 62
     7
 10
110.5003
 20
2.50006
 40
12.4997
 50
343.7396
 51
16.26038
  0
ARC
  8
0
  6
CONTINUOUS
 62
     7
 10
110.5003
 20
9.49998
 40
12.49969
 50
343.7396
 51
16.26035
  0
CIRCLE
  8
0
  6
CONTINUOUS
 62
     7
 10
-50.99997
 20
140.0
 40
3.0
  0
CIRCLE
  8
0
  6
CONTINUOUS
 62
     7
 10
-51.99997
 20
155.0
 40
2.75
  0
ARC
  8
0
  6
CONTINUOUS
 62
     7
 10
-23.16667
 20
126.0621
 40
4.33333
 50
152.2043
 51
207.7956
  0
ARC
  8
0
  6
CONTINUOUS
 62
     7
 10
-10.91668
 20
120.0
 40
16.58332
 50
165.8946
 51
194.1053
  0
ARC
  8
0
  6
CONTINUOUS
 62
     7
 10
-74.58329
 20
120.0
 40
16.58332
 50
345.8946
 51
14.10531
  0
ARC
  8
0
  6
CONTINUOUS
 62
     7
 10
-62.3333
 20
126.0621
 40
4.33333
 50
332.2043
 51
27.79573
  0
ARC
  8
0
  6
CONTINUOUS
 62
     7
 10
-23.16667
 20
113.9378
 40
4.33333
 50
152.2043
 51
207.7957
  0
ARC
  8
0
  6
CONTINUOUS
 62
     7
 10
-62.3333
 20
113.9378
 40
4.33333
 50
332.2041
 51
27.79561
  0
CIRCLE
  8
0
  6
CONTINUOUS
 62
     7
 10
70.00001
 20
120.0
 40
3.3
  0
CIRCLE
  8
0
  6
CONTINUOUS
 62
     7
 10
70.00001
 20
120.0
 40
5.5
  0
CIRCLE
  8
0
  6
CONTINUOUS
 62
     7
 10
25.00001
 20
120.0
 40
5.5
  0
CIRCLE
  8
0
  6
CONTINUOUS
 62
     7
 10
25.00001
 20
120.0
 40
3.3
  0
CIRCLE
  8
0
  6
CONTINUOUS
 62
     7
 10
-50.99997
 20
99.99996
 40
3.0
  0
CIRCLE
  8
0
  6
CONTINUOUS
 62
     7
 10
-51.99997
 20
84.99997
 40
2.75
  0
CIRCLE
  8
0
  6
CONTINUOUS
 62
     7
 10
194.0
 20
99.99996
 40
3.0
  0
CIRCLE
  8
0
  6
CONTINUOUS
 62
     7
 10
195.0
 20
84.99997
 40
2.75
  0
ARC
  8
0
  6
CONTINUOUS
 62
     7
 10
205.3334
 20
113.9378
 40
4.33333
 50
152.2043
 51
207.7958
  0
CIRCLE
  8
0
  6
CONTINUOUS
 62
     7
 10
194.0
 20
140.0
 40
3.0
  0
CIRCLE
  8
0
  6
CONTINUOUS
 62
     7
 10
195.0
 20
155.0
 40
2.75
  0
ARC
  8
0
  6
CONTINUOUS
 62
     7
 10
200.6667
 20
126.0621
 40
4.33333
 50
332.2043
 51
27.79575
  0
ARC
  8
0
  6
CONTINUOUS
 62
     7
 10
188.4167
 20
120.0
 40
16.58333
 50
345.8946
 51
14.1053
  0
ARC
  8
0
  6
CONTINUOUS
 62
     7
 10
217.5834
 20
120.0
 40
16.58333
 50
165.8946
 51
194.1053
  0
ARC
  8
0
  6
CONTINUOUS
 62
     7
 10
205.3334
 20
126.0621
 40
4.33333
 50
152.2043
 51
207.7957
  0
ARC
  8
0
  6
CONTINUOUS
 62
     7
 10
200.6667
 20
113.9378
 40
4.33333
 50
332.2041
 51
27.79575
  0
ARC
  8
0
  6
CONTINUOUS
 62
     7
 10
-57.66664
 20
126.0621
 40
4.33333
 50
152.2043
 51
207.7956
  0
ARC
  8
0
  6
CONTINUOUS
 62
     7
 10
-45.41665
 20
120.0
 40
16.58332
 50
165.8946
 51
194.1053
  0
ARC
  8
0
  6
CONTINUOUS
 62
     7
 10
-57.66664
 20
113.9378
 40
4.33333
 50
152.2043
 51
207.7957
  0
ARC
  8
0
  6
CONTINUOUS
 62
     7
 10
118.1667
 20
113.9378
 40
4.33333
 50
332.2041
 51
27.7957
  0
ARC
  8
0
  6
CONTINUOUS
 62
     7
 10
105.9167
 20
120.0
 40
16.58332
 50
345.8946
 51
14.1053
  0
ARC
  8
0
  6
CONTINUOUS
 62
     7
 10
118.1667
 20
126.0621
 40
4.33333
 50
332.2043
 51
27.79575
  0
CIRCLE
  8
0
  6
CONTINUOUS
 62
     7
 10
-51.99998
 20
-154.9999
 40
2.75
  0
ARC
  8
0
  6
CONTINUOUS
 62
     7
 10
-23.16667
 20
-126.0621
 40
4.33333
 50
152.2043
 51
207.7958
  0
ARC
  8
0
  6
CONTINUOUS
 62
     7
 10
-10.91669
 20
-120.0
 40
16.58332
 50
165.8946
 51
194.1052
  0
ARC
  8
0
  6
CONTINUOUS
 62
     7
 10
-74.5833
 20
-120.0
 40
16.58332
 50
345.8946
 51
14.1053
  0
ARC
  8
0
  6
CONTINUOUS
 62
     7
 10
-62.33331
 20
-126.0621
 40
4.33333
 50
332.2041
 51
27.79561
  0
ARC
  8
0
  6
CONTINUOUS
 62
     7
 10
-23.16667
 20
-113.9378
 40
4.33333
 50
152.2041
 51
207.7956
  0
ARC
  8
0
  6
CONTINUOUS
 62
     7
 10
-62.33331
 20
-113.9378
 40
4.33333
 50
332.2043
 51
27.79582
  0
CIRCLE
  8
0
  6
CONTINUOUS
 62
     7
 10
70.0
 20
-120.0
 40
3.3
  0
CIRCLE
  8
0
  6
CONTINUOUS
 62
     7
 10
70.0
 20
-120.0
 40
5.5
  0
CIRCLE
  8
0
  6
CONTINUOUS
 62
     7
 10
84.99999
 20
-84.99995
 40
2.5
  0
CIRCLE
  8
0
  6
CONTINUOUS
 62
     7
 10
84.99999
 20
-84.99995
 40
2.065
  0
CIRCLE
  8
0
  6
CONTINUOUS
 62
     7
 10
-51.99998
 20
-84.99996
 40
2.75
  0
CIRCLE
  8
0
  6
CONTINUOUS
 62
     7
 10
195.0
 20
-84.99996
 40
2.75
  0
ARC
  8
0
  6
CONTINUOUS
 62
     7
 10
205.3334
 20
-113.9378
 40
4.33333
 50
152.2041
 51
207.7957
  0
CIRCLE
  8
0
  6
CONTINUOUS
 62
     7
 10
195.0
 20
-154.9999
 40
2.75
  0
ARC
  8
0
  6
CONTINUOUS
 62
     7
 10
200.6667
 20
-126.0621
 40
4.33333
 50
332.2041
 51
27.79566
  0
ARC
  8
0
  6
CONTINUOUS
 62
     7
 10
188.4167
 20
-120.0
 40
16.58333
 50
345.8946
 51
14.1053
  0
ARC
  8
0
  6
CONTINUOUS
 62
     7
 10
217.5834
 20
-120.0
 40
16.58332
 50
165.8946
 51
194.1052
  0
ARC
  8
0
  6
CONTINUOUS
 62
     7
 10
205.3334
 20
-126.0621
 40
4.33333
 50
152.2043
 51
207.7958
  0
ARC
  8
0
  6
CONTINUOUS
 62
     7
 10
200.6667
 20
-113.9378
 40
4.33333
 50
332.2043
 51
27.79575
  0
ARC
  8
0
  6
CONTINUOUS
 62
     7
 10
-57.66665
 20
-126.0621
 40
4.33333
 50
152.2043
 51
207.7958
  0
ARC
  8
0
  6
CONTINUOUS
 62
     7
 10
-45.41666
 20
-120.0
 40
16.58332
 50
165.8946
 51
194.1052
  0
ARC
  8
0
  6
CONTINUOUS
 62
     7
 10
-57.66665
 20
-113.9378
 40
4.33333
 50
152.2041
 51
207.7956
  0
ARC
  8
0
  6
CONTINUOUS
 62
     7
 10
118.1667
 20
-113.9378
 40
4.33333
 50
332.2043
 51
27.7957
  0
ARC
  8
0
  6
CONTINUOUS
 62
     7
 10
105.9167
 20
-120.0
 40
16.58332
 50
345.8946
 51
14.1053
  0
ARC
  8
0
  6
CONTINUOUS
 62
     7
 10
118.1667
 20
-126.0621
 40
4.33333
 50
332.2041
 51
27.79561
  0
CIRCLE
  8
0
  6
CONTINUOUS
 62
     7
 10
195.0
 20
-154.9999
 40
4.75
  0
CIRCLE
  8
0
  6
CONTINUOUS
 62
     7
 10
-51.99998
 20
-84.99996
 40
4.75
  0
CIRCLE
  8
0
  6
CONTINUOUS
 62
     7
 10
-51.99998
 20
-154.9999
 40
4.75
  0
CIRCLE
  8
0
  6
CONTINUOUS
 62
     7
 10
195.0
 20
-84.99996
 40
4.75
  0
CIRCLE
  8
0
  6
CONTINUOUS
 62
     7
 10
25.0
 20
-120.0
 40
5.5
  0
CIRCLE
  8
0
  6
CONTINUOUS
 62
     7
 10
25.0
 20
-120.0
 40
3.3
  0
CIRCLE
  8
0
  6
CONTINUOUS
 62
     7
 10
10.0
 20
-84.99995
 40
2.065
  0
CIRCLE
  8
0
  6
CONTINUOUS
 62
     7
 10
10.0
 20
-84.99995
 40
2.5
  0
CIRCLE
  8
0
  6
CONTINUOUS
 62
     7
 10
10.0
 20
-154.9999
 40
2.5
  0
CIRCLE
  8
0
  6
CONTINUOUS
 62
     7
 10
10.0
 20
-154.9999
 40
2.065
  0
CIRCLE
  8
0
  6
CONTINUOUS
 62
     7
 10
84.99999
 20
-154.9999
 40
2.065
  0
CIRCLE
  8
0
  6
CONTINUOUS
 62
     7
 10
84.99999
 20
-154.9999
 40
2.5
  0
CIRCLE
  8
0
  6
CONTINUOUS
 62
     7
 10
105.0
 20
-120.0
 40
3.0
  0
ARC
  8
0
  6
CONTINUOUS
 62
     7
 10
-11.0
 20
-120.0
 40
3.0
 50
89.99998
 51
270.0
  0
ARC
  8
0
  6
CONTINUOUS
 62
     7
 10
-9.0
 20
-120.0
 40
3.0
 50
269.9999
 51
89.99998
  0
CIRCLE
  8
0
  6
CONTINUOUS
 62
     7
 10
-187.0
 20
0.00001
 40
4.864
  0
CIRCLE
  8
0
  6
CONTINUOUS
 62
     7
 10
-187.0
 20
0.00001
 40
6.0
  0
CIRCLE
  8
0
  6
CONTINUOUS
 62
     7
 10
-207.0
 20
6.00001
 40
6.0
  0
CIRCLE
  8
0
  6
CONTINUOUS
 62
     7
 10
-207.0
 20
6.00001
 40
5.0
  0
CIRCLE
  8
0
  6
CONTINUOUS
 62
     7
 10
-187.0
 20
0.00001
 40
7.5
  0
CIRCLE
  8
0
  6
CONTINUOUS
 62
     7
 10
-207.0
 20
6.00001
 40
7.0
  0
CIRCLE
  8
0
  6
CONTINUOUS
 62
     7
 10
-227.0
 20
0.00001
 40
4.864
  0
CIRCLE
  8
0
  6
CONTINUOUS
 62
     7
 10
-227.0
 20
0.00001
 40
4.283
  0
CIRCLE
  8
0
  6
CONTINUOUS
 62
     7
 10
-227.0
 20
0.00001
 40
6.0
  0
CIRCLE
  8
0
  6
CONTINUOUS
 62
     7
 10
-242.0
 20
0.00001
 40
2.5
  0
CIRCLE
  8
0
  6
CONTINUOUS
 62
     7
 10
-242.0
 20
0.00001
 40
2.065
  0
CIRCLE
  8
0
  6
CONTINUOUS
 62
     7
 10
-227.0
 20
0.00001
 40
7.5
  0
CIRCLE
  8
0
  6
CONTINUOUS
 62
     7
 10
-172.0
 20
0.00001
 40
2.5
  0
CIRCLE
  8
0
  6
CONTINUOUS
 62
     7
 10
-172.0
 20
0.00001
 40
2.065
  0
CIRCLE
  8
0
  6
CONTINUOUS
 62
     7
 10
-187.0
 20
0.00001
 40
4.283
  0
CIRCLE
  8
0
  6
CONTINUOUS
 62
     7
 10
-207.0
 20
6.00001
 40
4.29769
  0
ARC
  8
0
  6
CONTINUOUS
 62
     7
 10
-227.0
 20
0.00001
 40
7.0
 50
95.69019
 51
84.31006
  0
ARC
  8
0
  6
CONTINUOUS
 62
     7
 10
-187.0
 20
0.00001
 40
7.0
 50
95.68982
 51
84.30981
  0
TEXT
  8
0
  6
CONTINUOUS
 62
     7
 10
-324.2352
 20
180.5125
 40
10.0
  1
MODEL : SUT 25*ST(75)
 41
0.8
  7
STANDARD
  0
TEXT
  8
0
  6
CONTINUOUS
 62
     7
 10
37.17
 20
187.71
 40
7.0
  1
109+(ST*2)
 41
0.8
  7
STANDARD
  0
TEXT
  8
0
  6
CONTINUOUS
 62
     7
 10
31.67001
 20
38.70997
 40
7.0
  1
25+ST
 41
0.8
  7
STANDARD
  0
TEXT
  8
0
  6
CONTINUOUS
 62
     7
 10
31.17001
 20
-56.29001
 40
7.0
  1
69+ST
 41
0.8
  7
STANDARD
  0
TEXT
  8
0
  6
CONTINUOUS
 62
     7
 10
45.17
 20
-226.29
 40
7.0
  1
A
 41
0.8
  7
STANDARD
  0
TEXT
  8
0
  6
CONTINUOUS
 62
     7
 10
-19.57999
 20
-226.29
 40
7.0
  1
B
 41
0.8
  7
STANDARD
  0
TEXT
  8
0
  6
CONTINUOUS
 62
     7
 10
45.17007
 20
-206.29
 40
7.0
  1
C
 41
0.8
  7
STANDARD
  0
TEXT
  8
0
  6
CONTINUOUS
 62
     7
 10
-8.20641
 20
-206.29
 40
7.0
  1
D
 41
0.8
  7
STANDARD
  0
TEXT
  8
0
  6
CONTINUOUS
 62
     7
 10
45.16997
 20
-186.29
 40
7.0
  1
E
 41
0.8
  7
STANDARD
  0
TEXT
  8
0
  6
CONTINUOUS
 62
     7
 10
-2.08003
 20
-186.29
 40
7.0
  1
F
 41
0.8
  7
STANDARD
  0
TEXT
  8
0
  6
CONTINUOUS
 62
     7
 10
-127.64191657
 20
68.70997
 40
7.0
  1
2-M12*1
 41
0.8
  7
STANDARD
  0
TEXT
  8
0
  6
CONTINUOUS
 62
     7
 10
124.1068
 20
38.79584
 40
7.0
  1
2-PT1/8
 41
0.8
  7
STANDARD
  0
TEXT
  8
0
  6
CONTINUOUS
 62
     7
 10
118.6043
 20
-206.29
 40
7.0
  1
4-M5*0.8
 41
0.8
  7
STANDARD
  0
TEXT
  8
0
  6
CONTINUOUS
 62
     7
 10
-333.0235
 20
-226.2899
 40
7.0
  1
NOTE : A ,B ,C ,D ,E ,F
 41
0.8
  7
STANDARD
  0
TEXT
  8
0
  6
CONTINUOUS
 62
     7
 10
-226.4654837
 20
-226.2899
 40
7.0
  1
CATALOG
 41
0.8
  7
STANDARD
  0
TEXT
  8
0
  6
CONTINUOUS
 62
     7
 10
229.2196
 20
236.4974
 40
8.0
  1
DATE : JAN ,1988
 41
0.8
  7
STANDARD
  0
TEXT
  8
0
  6
CONTINUOUS
 62
     7
 10
-342.9299
 20
235.5574
 40
10.0
  1
SLIDE UNIT
 41
0.8
  7
STANDARD
  0
TEXT
  8
0
  6
CONTINUOUS
 62
     7
 10
-263.9224
 20
-47.85736
 40
7.0
  1
4-M5*0.8
 41
0.8
  7
STANDARD
  0
ENDSEC
  0
EOF
