  0
SECTION
  2
HEADER
  9
$ACADVER
  1
AC1002
  9
$INSBASE
 10
0.0
 20
0.0
  9
$EXTMIN
 10
-370.8735
 20
-254.5584
  9
$EXTMAX
 10
370.8735
 20
254.5584
  9
$LIMMIN
 10
0.0
 20
0.0
  9
$LIMMAX
 10
12.0
 20
9.0
  9
$VIEWCTR
 10
28.60926417
 20
0.0
  9
$VIEWSIZE
 40
509.1168
  9
$SNAPMODE
 70
     0
  9
$SNAPUNIT
 10
1.0
 20
1.0
  9
$SNAPBASE
 10
0.0
 20
0.0
  9
$SNAPANG
 50
0.0
  9
$SNAPSTYLE
 70
     0
  9
$SNAPISOPAIR
 70
     0
  9
$GRIDMODE
 70
     0
  9
$GRIDUNIT
 10
0.0
 20
0.0
  9
$ORTHOMODE
 70
     0
  9
$REGENMODE
 70
     1
  9
$FILLMODE
 70
     1
  9
$QTEXTMODE
 70
     0
  9
$DRAGMODE
 70
     2
  9
$LTSCALE
 40
1.0
  9
$OSMODE
 70
     0
  9
$ATTMODE
 70
     1
  9
$TEXTSIZE
 40
0.2
  9
$TRACEWID
 40
0.05
  9
$TEXTSTYLE
  7
AAA
  9
$CLAYER
  8
0
  9
$CELTYPE
  6
BYLAYER
  9
$CECOLOR
 62
   256
  9
$DIMSCALE
 40
1.0
  9
$DIMASZ
 40
0.18
  9
$DIMEXO
 40
0.0625
  9
$DIMDLI
 40
0.38
  9
$DIMRND
 40
0.0
  9
$DIMDLE
 40
0.0
  9
$DIMEXE
 40
0.18
  9
$DIMTP
 40
0.0
  9
$DIMTM
 40
0.0
  9
$DIMTXT
 40
0.18
  9
$DIMCEN
 40
0.09
  9
$DIMTSZ
 40
0.0
  9
$DIMTOL
 70
     0
  9
$DIMLIM
 70
     0
  9
$DIMTIH
 70
     1
  9
$DIMTOH
 70
     1
  9
$DIMSE1
 70
     0
  9
$DIMSE2
 70
     0
  9
$DIMTAD
 70
     0
  9
$DIMZIN
 70
     0
  9
$DIMBLK
  1

  9
$LUNITS
 70
     2
  9
$LUPREC
 70
     4
  9
$AXISMODE
 70
     0
  9
$AXISUNIT
 10
0.0
 20
0.0
  9
$SKETCHINC
 40
0.1
  9
$FILLETRAD
 40
0.0
  9
$AUNITS
 70
     0
  9
$AUPREC
 70
     0
  9
$MENU
  1
ACAD
  9
$ELEVATION
 40
0.0
  9
$THICKNESS
 40
0.0
  9
$VIEWDIR
 10
0.0
 20
0.0
 30
1.0
  9
$LIMCHECK
 70
     0
  9
$BLIPMODE
 70
     1
  9
$CHAMFERA
 40
0.0
  9
$CHAMFERB
 40
0.0
  9
$FASTZOOM
 70
     1
  9
$SKPOLY
 70
     0
  9
$TDCREATE
 40
2447816.6010069943
  9
$TDUPDATE
 40
2447816.6010069943
  9
$TDINDWG
 40
0.0018865741
  9
$TDUSRTIMER
 40
0.0018865741
  9
$USRTIMER
 70
     1
  9
$ANGBASE
 50
0.0
  9
$ANGDIR
 70
     0
  9
$PDMODE
 70
     0
  9
$PDSIZE
 40
0.0
  9
$PLINEWID
 40
0.0
  9
$COORDS
 70
     0
  9
$USERI1
 70
     0
  9
$USERI2
 70
     0
  9
$USERI3
 70
     0
  9
$USERI4
 70
     0
  9
$USERI5
 70
     0
  9
$USERR1
 40
0.0
  9
$USERR2
 40
0.0
  9
$USERR3
 40
0.0
  9
$USERR4
 40
0.0
  9
$USERR5
 40
0.0
  0
ENDSEC
  0
SECTION
  2
TABLES
  0
TABLE
  2
LTYPE
 70
     3
  0
LTYPE
  2
CONTINUOUS
 70
    64
  3
SOLID
 72
    65
 73
     0
 40
0.0
  0
LTYPE
  2
DASHED
 70
    64
  3
DASHED
 72
    65
 73
     2
 40
0.75
 49
0.5
 49
-0.25
  0
LTYPE
  2
CENTER
 70
    64
  3
CENTER
 72
    65
 73
     4
 40
2.0
 49
1.25
 49
-0.25
 49
0.25
 49
-0.25
  0
ENDTAB
  0
TABLE
  2
LAYER
 70
     1
  0
LAYER
  2
0
 70
    64
 62
     7
  6
CONTINUOUS
  0
ENDTAB
  0
TABLE
  2
STYLE
 70
     2
  0
STYLE
  2
AAA
 70
     0
 40
0.0
 41
1.0
 50
0.0
 71
     0
 42
0.2
  3
TXT
  4

  0
STYLE
  2
STANDARD
 70
    64
 40
0.0
 41
1.0
 50
0.0
 71
     0
 42
0.2
  3
TXT
  4
BIGFONT
  0
ENDTAB
  0
TABLE
  2
VIEW
 70
     0
  0
ENDTAB
  0
ENDSEC
  0
SECTION
  2
BLOCKS
  0
ENDSEC
  0
SECTION
  2
ENTITIES
  0
LINE
  8
0
  6
CONTINUOUS
 62
     2
 10
-152.2901
 20
65.0
 11
-124.0
 21
114.0
  0
LINE
  8
0
  6
CONTINUOUS
 62
     2
 10
-190.40765506
 20
64.99998
 11
-152.2901
 21
64.99998
  0
LINE
  8
0
  6
CONTINUOUS
 62
     2
 10
-124.0
 20
114.0
 11
-125.5
 21
108.4019
  0
LINE
  8
0
  6
CONTINUOUS
 62
     2
 10
-123.9999
 20
114.0
 11
-128.098
 21
109.9019
  0
LINE
  8
0
  6
CONTINUOUS
 62
     2
 10
-219.568
 20
-39.21235
 11
-192.2275
 21
-86.56738
  0
LINE
  8
0
  6
CONTINUOUS
 62
     2
 10
-192.2275
 20
-86.56737
 11
-148.71104719
 21
-86.56737
  0
LINE
  8
0
  6
CONTINUOUS
 62
     2
 10
-219.568
 20
-39.21236
 11
-215.4699
 21
-43.31042
  0
LINE
  8
0
  6
CONTINUOUS
 62
     2
 10
-219.5679
 20
-39.21231
 11
-218.0679
 21
-44.81038
  0
LINE
  8
0
  6
CONTINUOUS
 62
     7
 10
-244.3154837
 20
-223.0
 11
-234.3154837
 21
-223.0
  0
LINE
  8
0
  6
CONTINUOUS
 62
     7
 10
-234.3155837
 20
-223.0
 11
-239.9136837
 21
-224.5
  0
LINE
  8
0
  6
CONTINUOUS
 62
     7
 10
-234.3155837
 20
-223.0001
 11
-239.9136837
 21
-221.5001
  0
LINE
  8
0
  6
CONTINUOUS
 62
     7
 10
270.8235
 20
-236.1515
 11
270.8235
 21
-245.8286
  0
LINE
  8
0
  6
CONTINUOUS
 62
     7
 10
275.2473
 20
-235.0456
 11
275.2473
 21
-249.1464
  0
LINE
  8
0
  6
CONTINUOUS
 62
     7
 10
258.3816
 20
-232.8337
 11
258.3816
 21
-236.1515
  0
LINE
  8
0
  6
CONTINUOUS
 62
     7
 10
258.3816
 20
-236.1515
 11
270.8235
 21
-236.1515
  0
LINE
  8
0
  6
CONTINUOUS
 62
     7
 10
258.3816
 20
-249.1464
 11
275.2473
 21
-249.1464
  0
LINE
  8
0
  6
CONTINUOUS
 62
     7
 10
258.3816
 20
-245.8286
 11
270.8235
 21
-245.8286
  0
LINE
  8
0
  6
CONTINUOUS
 62
     7
 10
258.3816
 20
-232.8337
 11
273.0353
 21
-232.8337
  0
LINE
  8
0
  6
CONTINUOUS
 62
     7
 10
218.3291
 20
-225.9564
 11
370.8735
 21
-225.9564
  0
LINE
  8
0
  6
CONTINUOUS
 62
     7
 10
-218.3291
 20
225.9563
 11
-218.3291
 21
254.5584
  0
LINE
  8
0
  6
CONTINUOUS
 62
     7
 10
-370.8735
 20
225.9563
 11
-218.3291
 21
225.9563
  0
LINE
  8
0
  6
CONTINUOUS
 62
     7
 10
-370.8735
 20
254.5584
 11
370.8735
 21
254.5584
  0
LINE
  8
0
  6
CONTINUOUS
 62
     7
 10
-370.8735
 20
-254.5584
 11
370.8735
 21
-254.5584
  0
LINE
  8
0
  6
CONTINUOUS
 62
     7
 10
370.8735
 20
254.5584
 11
370.8735
 21
-254.5584
  0
LINE
  8
0
  6
CONTINUOUS
 62
     7
 10
-370.8735
 20
-254.5584
 11
-370.8735
 21
254.5584
  0
LINE
  8
0
  6
CONTINUOUS
 62
     7
 10
277.7356
 20
-232.8337
 11
277.7356
 21
-236.1515
  0
LINE
  8
0
  6
CONTINUOUS
 62
     7
 10
293.4953
 20
-236.1515
 11
293.4953
 21
-246.9346
  0
LINE
  8
0
  6
CONTINUOUS
 62
     7
 10
218.3291
 20
-225.9564
 11
218.3291
 21
-254.5584
  0
LINE
  8
0
  6
CONTINUOUS
 62
     7
 10
218.3291
 20
254.5584
 11
218.3291
 21
225.9563
  0
LINE
  8
0
  6
CONTINUOUS
 62
     7
 10
218.3291
 20
225.9563
 11
370.8735
 21
225.9563
  0
LINE
  8
0
  6
CONTINUOUS
 62
     7
 10
293.9378
 20
-232.5849
 11
295.5138
 21
-232.5849
  0
LINE
  8
0
  6
CONTINUOUS
 62
     7
 10
293.9378
 20
-230.373
 11
295.5138
 21
-230.373
  0
LINE
  8
0
  6
CONTINUOUS
 62
     7
 10
295.5138
 20
-230.373
 11
295.5138
 21
-232.5849
  0
LINE
  8
0
  6
CONTINUOUS
 62
     7
 10
293.9378
 20
-230.373
 11
293.9378
 21
-232.5849
  0
LINE
  8
0
  6
CONTINUOUS
 62
     7
 10
293.1082
 20
-230.373
 11
293.1082
 21
-232.5849
  0
LINE
  8
0
  6
CONTINUOUS
 62
     7
 10
291.6982
 20
-230.373
 11
291.6982
 21
-232.5849
  0
LINE
  8
0
  6
CONTINUOUS
 62
     7
 10
291.6982
 20
-232.5849
 11
293.1082
 21
-232.5849
  0
LINE
  8
0
  6
CONTINUOUS
 62
     7
 10
301.5135
 20
-230.373
 11
305.9372
 21
-230.373
  0
LINE
  8
0
  6
CONTINUOUS
 62
     7
 10
291.6982
 20
-230.373
 11
293.1082
 21
-230.373
  0
LINE
  8
0
  6
CONTINUOUS
 62
     7
 10
282.4993
 20
-230.373
 11
286.2008
 21
-230.373
  0
LINE
  8
0
  6
CONTINUOUS
 62
     7
 10
327.5038
 20
-236.4046
 11
328.7298
 21
-235.9169
  0
LINE
  8
0
  6
CONTINUOUS
 62
     7
 10
327.5033
 20
-236.4044
 11
327.5033
 21
-249.1464
  0
LINE
  8
0
  6
CONTINUOUS
 62
     7
 10
323.0794
 20
-249.1464
 11
327.5033
 21
-249.1464
  0
LINE
  8
0
  6
CONTINUOUS
 62
     7
 10
313.9554
 20
-241.7926
 11
323.0795
 21
-238.1638
  0
LINE
  8
0
  6
CONTINUOUS
 62
     7
 10
313.9556
 20
-238.222
 11
326.8062
 21
-233.1111
  0
LINE
  8
0
  6
CONTINUOUS
 62
     7
 10
323.0794
 20
-238.1637
 11
323.0794
 21
-249.1464
  0
LINE
  8
0
  6
CONTINUOUS
 62
     7
 10
327.5033
 20
-231.3684
 11
327.5033
 21
-232.0833
  0
LINE
  8
0
  6
CONTINUOUS
 62
     7
 10
330.821
 20
-231.3684
 11
330.821
 21
-232.8337
  0
LINE
  8
0
  6
CONTINUOUS
 62
     7
 10
313.9554
 20
-238.2218
 11
313.9554
 21
-241.7924
  0
LINE
  8
0
  6
CONTINUOUS
 62
     7
 10
327.5033
 20
-231.3684
 11
330.821
 21
-231.3684
  0
LINE
  8
0
  6
CONTINUOUS
 62
     7
 10
308.3422
 20
-240.195
 11
311.2961
 21
-238.8176
  0
LINE
  8
0
  6
CONTINUOUS
 62
     7
 10
305.9372
 20
-242.7344
 11
305.9372
 21
-249.1464
  0
LINE
  8
0
  6
CONTINUOUS
 62
     7
 10
301.5135
 20
-243.379
 11
301.5135
 21
-249.1464
  0
LINE
  8
0
  6
CONTINUOUS
 62
     7
 10
305.9372
 20
-232.8337
 11
310.3611
 21
-232.8337
  0
LINE
  8
0
  6
CONTINUOUS
 62
     7
 10
305.9372
 20
-230.373
 11
305.9372
 21
-232.8337
  0
LINE
  8
0
  6
CONTINUOUS
 62
     7
 10
301.5135
 20
-230.373
 11
301.5135
 21
-232.8337
  0
LINE
  8
0
  6
CONTINUOUS
 62
     7
 10
312.5729
 20
-235.0456
 11
312.5729
 21
-236.8127
  0
LINE
  8
0
  6
CONTINUOUS
 62
     7
 10
308.3424
 20
-240.1951
 11
312.5734
 21
-242.1681
  0
LINE
  8
0
  6
CONTINUOUS
 62
     7
 10
305.9373
 20
-242.7344
 11
312.5731
 21
-245.8286
  0
LINE
  8
0
  6
CONTINUOUS
 62
     7
 10
296.2602
 20
-242.1678
 11
296.2602
 21
-245.8286
  0
LINE
  8
0
  6
CONTINUOUS
 62
     7
 10
296.2606
 20
-242.168
 11
309.1624
 21
-236.1518
  0
LINE
  8
0
  6
CONTINUOUS
 62
     7
 10
296.2601
 20
-245.8285
 11
301.5135
 21
-243.3788
  0
LINE
  8
0
  6
CONTINUOUS
 62
     7
 10
312.5729
 20
-242.1678
 11
312.5729
 21
-245.8286
  0
LINE
  8
0
  6
CONTINUOUS
 62
     7
 10
296.2602
 20
-232.8337
 11
296.2602
 21
-236.1515
  0
LINE
  8
0
  6
CONTINUOUS
 62
     7
 10
301.5135
 20
-249.1464
 11
305.9372
 21
-249.1464
  0
LINE
  8
0
  6
CONTINUOUS
 62
     7
 10
296.2602
 20
-236.1515
 11
309.162
 21
-236.1515
  0
LINE
  8
0
  6
CONTINUOUS
 62
     7
 10
296.2602
 20
-232.8337
 11
301.5135
 21
-232.8337
  0
LINE
  8
0
  6
CONTINUOUS
 62
     7
 10
285.5413
 20
-232.8335
 11
286.2006
 21
-230.3728
  0
LINE
  8
0
  6
CONTINUOUS
 62
     7
 10
282.1066
 20
-232.8337
 11
282.766
 21
-230.373
  0
LINE
  8
0
  6
CONTINUOUS
 62
     7
 10
285.5415
 20
-232.8337
 11
290.1775
 21
-232.8337
  0
LINE
  8
0
  6
CONTINUOUS
 62
     7
 10
284.6525
 20
-236.1515
 11
289.0716
 21
-236.1515
  0
LINE
  8
0
  6
CONTINUOUS
 62
     7
 10
286.6428
 20
-249.1464
 11
291.2835
 21
-249.1464
  0
LINE
  8
0
  6
CONTINUOUS
 62
     7
 10
285.7536
 20
-245.8286
 11
286.6426
 21
-249.1463
  0
LINE
  8
0
  6
CONTINUOUS
 62
     7
 10
285.7537
 20
-245.8286
 11
289.0716
 21
-245.8286
  0
LINE
  8
0
  6
CONTINUOUS
 62
     7
 10
281.1707
 20
-249.1466
 11
284.6527
 21
-236.1517
  0
LINE
  8
0
  6
CONTINUOUS
 62
     7
 10
277.7356
 20
-236.1515
 11
281.2176
 21
-236.1515
  0
LINE
  8
0
  6
CONTINUOUS
 62
     7
 10
277.7355
 20
-249.1463
 11
281.2176
 21
-236.1515
  0
LINE
  8
0
  6
CONTINUOUS
 62
     7
 10
277.7356
 20
-249.1464
 11
281.1705
 21
-249.1464
  0
LINE
  8
0
  6
CONTINUOUS
 62
     7
 10
277.7356
 20
-232.8337
 11
282.1066
 21
-232.8337
  0
LINE
  8
0
  6
CONTINUOUS
 62
     7
 10
258.3816
 20
-245.8286
 11
258.3816
 21
-249.1464
  0
LINE
  8
0
  6
CONTINUOUS
 62
     7
 10
289.0716
 20
-236.1515
 11
289.0716
 21
-245.8286
  0
LINE
  8
0
  6
CONTINUOUS
 62
     2
 10
-278.2502
 20
-37.16531
 11
-279.7502
 21
-42.76338
  0
LINE
  8
0
  6
CONTINUOUS
 62
     2
 10
-278.2505
 20
-37.16535
 11
-282.3486
 21
-41.26341
  0
LINE
  8
0
  6
CONTINUOUS
 62
     2
 10
-278.25
 20
-37.16532
 11
-306.7724
 21
-86.56737
  0
LINE
  8
0
  6
CONTINUOUS
 62
     2
 10
-256.61016405
 20
-86.56737
 11
-306.7724
 21
-86.56737
  0
LINE
  8
0
  6
CONTINUOUS
 62
     2
 10
-117.9999
 20
-90.99998
 11
-112.4018
 21
-89.50002
  0
LINE
  8
0
  6
CONTINUOUS
 62
     2
 10
-118.0
 20
-106.0
 11
-118.0
 21
-85.99998
  0
LINE
  8
0
  6
CONTINUOUS
 62
     2
 10
-118.0
 20
-90.99998
 11
140.0
 21
-90.99998
  0
LINE
  8
0
  6
CONTINUOUS
 62
     2
 10
140.0
 20
-85.99994
 11
140.0
 21
-105.9999
  0
LINE
  8
0
  6
CONTINUOUS
 62
     2
 10
-117.9999
 20
-90.99996
 11
-112.4019
 21
-92.49995
  0
LINE
  8
0
  6
CONTINUOUS
 62
     2
 10
139.9998
 20
-90.99998
 11
134.4018
 21
-89.50001
  0
LINE
  8
0
  6
CONTINUOUS
 62
     2
 10
140.0001
 20
-91.00002
 11
134.4021
 21
-92.50001
  0
LINE
  8
0
  6
CONTINUOUS
 62
     2
 10
-84.5
 20
164.9999
 11
-84.5
 21
184.9999
  0
LINE
  8
0
  6
CONTINUOUS
 62
     2
 10
-84.5
 20
179.9999
 11
59.49999
 21
179.9999
  0
LINE
  8
0
  6
CONTINUOUS
 62
     2
 10
59.49999
 20
184.9999
 11
59.49999
 21
164.9999
  0
LINE
  8
0
  6
CONTINUOUS
 62
     2
 10
-84.49998
 20
179.9999
 11
-78.90193
 21
181.4999
  0
LINE
  8
0
  6
CONTINUOUS
 62
     2
 10
-84.50004
 20
180.0
 11
-78.90199
 21
178.5
  0
LINE
  8
0
  6
CONTINUOUS
 62
     2
 10
59.50008
 20
179.9999
 11
53.90202
 21
178.4999
  0
LINE
  8
0
  6
CONTINUOUS
 62
     2
 10
59.50003
 20
179.9998
 11
53.902
 21
181.4998
  0
LINE
  8
0
  6
CONTINUOUS
 62
     2
 10
-84.5
 20
74.99992
 11
-84.5
 21
4.99995
  0
LINE
  8
0
  6
CONTINUOUS
 62
     2
 10
24.99999
 20
79.49998
 11
24.99999
 21
24.99995
  0
LINE
  8
0
  6
CONTINUOUS
 62
     2
 10
-70.0
 20
114.0
 11
-70.0
 21
4.99995
  0
LINE
  8
0
  6
CONTINUOUS
 62
     2
 10
-49.99999
 20
79.49998
 11
-49.99999
 21
24.99995
  0
LINE
  8
0
  6
CONTINUOUS
 62
     2
 10
-34.99999
 20
111.5
 11
-34.99999
 21
44.99995
  0
LINE
  8
0
  6
CONTINUOUS
 62
     2
 10
10.00001
 20
111.5
 11
10.00001
 21
44.99995
  0
LINE
  8
0
  6
CONTINUOUS
 62
     2
 10
44.99995
 20
9.99995
 11
39.40187
 21
11.50001
  0
LINE
  8
0
  6
CONTINUOUS
 62
     2
 10
45.00004
 20
9.99988
 11
39.40199
 21
8.49988
  0
LINE
  8
0
  6
CONTINUOUS
 62
     2
 10
25.0001
 20
29.99968
 11
19.40204
 21
31.49968
  0
LINE
  8
0
  6
CONTINUOUS
 62
     2
 10
24.99994
 20
29.99991
 11
19.4019
 21
28.49991
  0
LINE
  8
0
  6
CONTINUOUS
 62
     2
 10
-34.99997
 20
50.00006
 11
-29.40191
 21
48.50006
  0
LINE
  8
0
  6
CONTINUOUS
 62
     2
 10
-34.99997
 20
49.99986
 11
-29.4019
 21
51.49989
  0
LINE
  8
0
  6
CONTINUOUS
 62
     2
 10
-50.0
 20
30.00006
 11
-44.40194
 21
28.50006
  0
LINE
  8
0
  6
CONTINUOUS
 62
     2
 10
-49.99998
 20
30.0
 11
-44.40192
 21
31.5
  0
LINE
  8
0
  6
CONTINUOUS
 62
     2
 10
-69.99998
 20
10.00015
 11
-64.40192
 21
8.50015
  0
LINE
  8
0
  6
CONTINUOUS
 62
     2
 10
-69.99998
 20
9.99996
 11
-64.40192
 21
11.49996
  0
LINE
  8
0
  6
CONTINUOUS
 62
     2
 10
26.25006
 20
82.83497
 11
27.75006
 21
77.23685
  0
LINE
  8
0
  6
CONTINUOUS
 62
     2
 10
26.25001
 20
82.83491
 11
30.34808
 21
78.73682
  0
LINE
  8
0
  6
CONTINUOUS
 62
     2
 10
56.75431
 20
29.99991
 11
98.88389802
 21
29.99991
  0
LINE
  8
0
  6
CONTINUOUS
 62
     2
 10
26.25
 20
82.83494
 11
56.75433
 21
29.9999
  0
LINE
  8
0
  6
CONTINUOUS
 62
     2
 10
9.99996
 20
49.99992
 11
4.40193
 21
51.49989
  0
LINE
  8
0
  6
CONTINUOUS
 62
     2
 10
9.99996
 20
49.99994
 11
4.40192
 21
48.49994
  0
LINE
  8
0
  6
CONTINUOUS
 62
     2
 10
-35.00001
 20
50.0
 11
-40.59806
 21
51.5
  0
LINE
  8
0
  6
CONTINUOUS
 62
     2
 10
-35.00002
 20
50.00002
 11
-40.59808
 21
48.50002
  0
LINE
  8
0
  6
CONTINUOUS
 62
     2
 10
-50.0
 20
29.99993
 11
-55.59806
 21
31.49993
  0
LINE
  8
0
  6
CONTINUOUS
 62
     2
 10
-50.0
 20
29.99994
 11
-55.59805
 21
28.49994
  0
LINE
  8
0
  6
CONTINUOUS
 62
     2
 10
-70.00002
 20
9.99986
 11
-75.59808
 21
11.49983
  0
LINE
  8
0
  6
CONTINUOUS
 62
     2
 10
-70.00001
 20
9.99998
 11
-75.59806
 21
8.49995
  0
LINE
  8
0
  6
CONTINUOUS
 62
     2
 10
-84.49998
 20
10.00007
 11
-78.90192
 21
8.50007
  0
LINE
  8
0
  6
CONTINUOUS
 62
     2
 10
-84.50001
 20
10.00012
 11
-78.90194
 21
11.50012
  0
LINE
  8
0
  6
CONTINUOUS
 62
     2
 10
-84.49999
 20
30.00007
 11
-78.90193
 21
28.50007
  0
LINE
  8
0
  6
CONTINUOUS
 62
     2
 10
-84.49995
 20
30.00005
 11
-78.90191
 21
31.50005
  0
LINE
  8
0
  6
CONTINUOUS
 62
     2
 10
-84.5
 20
50.00018
 11
-78.90194
 21
48.50018
  0
LINE
  8
0
  6
CONTINUOUS
 62
     2
 10
-84.5
 20
50.00002
 11
-78.90195
 21
51.50002
  0
LINE
  8
0
  6
CONTINUOUS
 62
     2
 10
-84.5
 20
9.99995
 11
44.99999
 21
9.99995
  0
LINE
  8
0
  6
CONTINUOUS
 62
     2
 10
-84.5
 20
29.99992
 11
24.99999
 21
29.99992
  0
LINE
  8
0
  6
CONTINUOUS
 62
     2
 10
-84.5
 20
49.99992
 11
10.00001
 21
49.99992
  0
LINE
  8
0
  6
CONTINUOUS
 62
     2
 10
44.99999
 20
114.0
 11
44.99999
 21
4.99995
  0
LINE
  8
0
  6
CONTINUOUS
 62
     7
 10
-118.0
 20
-51.99998
 11
-104.0
 21
-51.99998
  0
LINE
  8
0
  6
CONTINUOUS
 62
     7
 10
-118.0
 20
-20.99998
 11
-104.0
 21
-20.99998
  0
LINE
  8
0
  6
CENTER
 62
     2
 10
125.0
 20
-39.99998
 11
134.0
 21
-39.99998
  0
LINE
  8
0
  6
CENTER
 62
     2
 10
129.5
 20
-35.49998
 11
129.5
 21
-44.49998
  0
LINE
  8
0
  6
CONTINUOUS
 62
     7
 10
141.0
 20
-20.99998
 11
141.0
 21
-51.99998
  0
LINE
  8
0
  6
CONTINUOUS
 62
     7
 10
127.0
 20
-20.99998
 11
127.0
 21
-51.99998
  0
LINE
  8
0
  6
CONTINUOUS
 62
     7
 10
141.0
 20
-51.99998
 11
127.0
 21
-51.99998
  0
LINE
  8
0
  6
CONTINUOUS
 62
     7
 10
141.0
 20
-20.99998
 11
127.0
 21
-20.99998
  0
LINE
  8
0
  6
CONTINUOUS
 62
     7
 10
149.0
 20
-46.99998
 11
145.0
 21
-46.99998
  0
LINE
  8
0
  6
CONTINUOUS
 62
     7
 10
144.5
 20
-47.99989
 11
141.5
 21
-47.99989
  0
LINE
  8
0
  6
CONTINUOUS
 62
     7
 10
149.5774
 20
-45.99998
 11
145.0
 21
-45.99998
  0
LINE
  8
0
  6
CONTINUOUS
 62
     7
 10
150.0
 20
-45.26794
 11
150.0
 21
-36.73203
  0
LINE
  8
0
  6
CONTINUOUS
 62
     7
 10
125.0
 20
-46.49998
 11
125.0
 21
-40.99998
  0
LINE
  8
0
  6
CONTINUOUS
 62
     7
 10
150.0
 20
-45.26793
 11
149.0
 21
-46.99998
  0
LINE
  8
0
  6
CONTINUOUS
 62
     7
 10
125.4999
 20
-46.99999
 11
124.9999
 21
-46.49998
  0
LINE
  8
0
  6
CONTINUOUS
 62
     7
 10
141.4999
 20
-47.99988
 11
140.9999
 21
-46.99997
  0
LINE
  8
0
  6
CONTINUOUS
 62
     7
 10
144.5002
 20
-47.99993
 11
145.0002
 21
-47.0
  0
LINE
  8
0
  6
CONTINUOUS
 62
     7
 10
144.4998
 20
-34.00007
 11
144.9998
 21
-34.99997
  0
LINE
  8
0
  6
CONTINUOUS
 62
     7
 10
141.5
 20
-34.00006
 11
141.0
 21
-34.99997
  0
LINE
  8
0
  6
CONTINUOUS
 62
     7
 10
144.5
 20
-34.00006
 11
141.5001
 21
-34.00007
  0
LINE
  8
0
  6
CONTINUOUS
 62
     7
 10
145.0
 20
-34.99998
 11
145.0
 21
-46.99998
  0
LINE
  8
0
  6
CONTINUOUS
 62
     7
 10
144.5
 20
-40.99998
 11
141.5
 21
-40.99998
  0
LINE
  8
0
  6
CONTINUOUS
 62
     7
 10
127.0
 20
-45.99998
 11
125.0
 21
-45.99998
  0
LINE
  8
0
  6
CONTINUOUS
 62
     7
 10
127.0
 20
-46.99998
 11
125.5
 21
-46.99998
  0
LINE
  8
0
  6
CONTINUOUS
 62
     7
 10
150.0001
 20
-36.73203
 11
149.0001
 21
-34.99999
  0
LINE
  8
0
  6
CONTINUOUS
 62
     7
 10
149.5774
 20
-35.99998
 11
144.9097
 21
-35.99998
  0
LINE
  8
0
  6
CONTINUOUS
 62
     7
 10
149.0
 20
-34.99998
 11
145.0
 21
-34.99998
  0
LINE
  8
0
  6
DASHED
 62
     7
 10
127.0
 20
-35.99998
 11
125.0
 21
-35.99998
  0
LINE
  8
0
  6
DASHED
 62
     7
 10
127.0
 20
-34.99998
 11
125.5
 21
-34.99998
  0
LINE
  8
0
  6
DASHED
 62
     7
 10
125.5
 20
-34.99997
 11
125.0
 21
-35.49997
  0
LINE
  8
0
  6
DASHED
 62
     7
 10
150.0
 20
-42.73203
 11
145.0
 21
-42.73203
  0
LINE
  8
0
  6
DASHED
 62
     7
 10
150.0
 20
-44.46408
 11
145.0
 21
-44.46408
  0
LINE
  8
0
  6
DASHED
 62
     7
 10
150.0
 20
-39.26793
 11
145.0
 21
-39.26793
  0
LINE
  8
0
  6
DASHED
 62
     7
 10
150.0
 20
-37.53588
 11
145.0
 21
-37.53588
  0
LINE
  8
0
  6
CONTINUOUS
 62
     7
 10
149.0
 20
-46.99998
 11
149.0
 21
-34.99998
  0
LINE
  8
0
  6
CONTINUOUS
 62
     7
 10
125.5
 20
-46.99998
 11
125.5
 21
-40.99998
  0
LINE
  8
0
  6
CENTER
 62
     2
 10
-120.5
 20
-34.99998
 11
143.5
 21
-34.99998
  0
LINE
  8
0
  6
CONTINUOUS
 62
     7
 10
-83.99999
 20
-18.99998
 11
60.00001
 21
-18.99998
  0
LINE
  8
0
  6
CONTINUOUS
 62
     7
 10
-83.99999
 20
-19.99997
 11
60.00001
 21
-19.99997
  0
LINE
  8
0
  6
CONTINUOUS
 62
     7
 10
-83.99999
 20
-49.99998
 11
60.00001
 21
-49.99998
  0
LINE
  8
0
  6
CONTINUOUS
 62
     7
 10
-83.99999
 20
-49.99998
 11
-83.99999
 21
-18.99998
  0
LINE
  8
0
  6
CONTINUOUS
 62
     7
 10
60.00001
 20
-49.99998
 11
60.00001
 21
-18.99998
  0
LINE
  8
0
  6
CENTER
 62
     2
 10
-102.0
 20
-39.99998
 11
-111.0
 21
-39.99998
  0
LINE
  8
0
  6
CENTER
 62
     2
 10
-106.5
 20
-35.49998
 11
-106.5
 21
-44.49998
  0
LINE
  8
0
  6
CONTINUOUS
 62
     7
 10
-118.0
 20
-20.99998
 11
-118.0
 21
-51.99998
  0
LINE
  8
0
  6
CONTINUOUS
 62
     7
 10
-104.0
 20
-20.99998
 11
-104.0
 21
-51.99998
  0
LINE
  8
0
  6
CENTER
 62
     2
 10
-131.0
 20
-40.99998
 11
-98.99999
 21
-40.99998
  0
LINE
  8
0
  6
CONTINUOUS
 62
     7
 10
-126.0
 20
-46.99998
 11
-122.0
 21
-46.99998
  0
LINE
  8
0
  6
CONTINUOUS
 62
     7
 10
-86.49999
 20
-47.99989
 11
-83.99999
 21
-47.99989
  0
LINE
  8
0
  6
CONTINUOUS
 62
     7
 10
-126.5773
 20
-45.99998
 11
-122.0
 21
-45.99998
  0
LINE
  8
0
  6
CONTINUOUS
 62
     7
 10
-127.0
 20
-45.26794
 11
-127.0
 21
-36.73203
  0
LINE
  8
0
  6
CONTINUOUS
 62
     7
 10
-102.0
 20
-46.49998
 11
-102.0
 21
-40.99998
  0
LINE
  8
0
  6
CONTINUOUS
 62
     7
 10
-127.0
 20
-45.26794
 11
-126.0
 21
-46.99999
  0
LINE
  8
0
  6
CONTINUOUS
 62
     7
 10
-102.5
 20
-46.99998
 11
-102.0
 21
-46.49998
  0
LINE
  8
0
  6
CONTINUOUS
 62
     7
 10
-118.5
 20
-47.99989
 11
-118.0
 21
-46.99997
  0
LINE
  8
0
  6
CONTINUOUS
 62
     7
 10
-86.50002
 20
-47.9999
 11
-87.00002
 21
-46.99998
  0
LINE
  8
0
  6
DASHED
 62
     7
 10
-86.50002
 20
-34.00006
 11
-87.00002
 21
-34.99998
  0
LINE
  8
0
  6
CONTINUOUS
 62
     7
 10
-118.5
 20
-34.00007
 11
-118.0
 21
-34.99998
  0
LINE
  8
0
  6
DASHED
 62
     7
 10
-86.49999
 20
-34.00006
 11
-83.99999
 21
-34.00007
  0
LINE
  8
0
  6
DASHED
 62
     7
 10
-86.99999
 20
-34.99998
 11
-86.99999
 21
-40.99998
  0
LINE
  8
0
  6
CONTINUOUS
 62
     7
 10
-121.5
 20
-40.99998
 11
-118.5
 21
-40.99998
  0
LINE
  8
0
  6
CONTINUOUS
 62
     7
 10
-104.0
 20
-45.99998
 11
-102.0
 21
-45.99998
  0
LINE
  8
0
  6
CONTINUOUS
 62
     7
 10
-104.0
 20
-46.99998
 11
-102.5
 21
-46.99998
  0
LINE
  8
0
  6
CONTINUOUS
 62
     7
 10
-127.0
 20
-36.73203
 11
-126.0
 21
-34.99999
  0
LINE
  8
0
  6
CONTINUOUS
 62
     7
 10
-126.5773
 20
-35.99998
 11
-121.9097
 21
-35.99998
  0
LINE
  8
0
  6
CONTINUOUS
 62
     7
 10
-126.0
 20
-34.99998
 11
-122.0
 21
-34.99998
  0
LINE
  8
0
  6
DASHED
 62
     7
 10
-104.0
 20
-35.99998
 11
-102.0
 21
-35.99998
  0
LINE
  8
0
  6
DASHED
 62
     7
 10
-104.0
 20
-34.99998
 11
-102.5
 21
-34.99998
  0
LINE
  8
0
  6
DASHED
 62
     7
 10
-102.5
 20
-34.99998
 11
-102.0
 21
-35.49998
  0
LINE
  8
0
  6
DASHED
 62
     7
 10
-127.0
 20
-42.73203
 11
-122.0
 21
-42.73203
  0
LINE
  8
0
  6
DASHED
 62
     7
 10
-127.0
 20
-44.46408
 11
-122.0
 21
-44.46408
  0
LINE
  8
0
  6
DASHED
 62
     7
 10
-127.0
 20
-39.26793
 11
-122.0
 21
-39.26793
  0
LINE
  8
0
  6
DASHED
 62
     7
 10
-127.0
 20
-37.53588
 11
-122.0
 21
-37.53588
  0
LINE
  8
0
  6
CONTINUOUS
 62
     7
 10
-126.0
 20
-46.99998
 11
-126.0
 21
-34.99998
  0
LINE
  8
0
  6
CONTINUOUS
 62
     7
 10
-102.5
 20
-46.99998
 11
-102.5
 21
-40.99998
  0
LINE
  8
0
  6
CENTER
 62
     2
 10
122.5
 20
-40.99998
 11
154.0
 21
-40.99998
  0
LINE
  8
0
  6
CONTINUOUS
 62
     7
 10
-104.0
 20
-40.99998
 11
-83.99999
 21
-40.99998
  0
LINE
  8
0
  6
CONTINUOUS
 62
     7
 10
60.00001
 20
-40.99998
 11
127.0
 21
-40.99998
  0
LINE
  8
0
  6
CONTINUOUS
 62
     7
 10
-104.0
 20
-28.99998
 11
-83.99999
 21
-28.99998
  0
LINE
  8
0
  6
CONTINUOUS
 62
     7
 10
60.00001
 20
-28.99998
 11
127.0
 21
-28.99998
  0
LINE
  8
0
  6
DASHED
 62
     7
 10
-102.5
 20
-40.99998
 11
-102.5
 21
-34.99998
  0
LINE
  8
0
  6
DASHED
 62
     7
 10
-102.0
 20
-40.99998
 11
-102.0
 21
-35.49997
  0
LINE
  8
0
  6
DASHED
 62
     7
 10
125.0
 20
-40.99998
 11
125.0
 21
-35.49997
  0
LINE
  8
0
  6
DASHED
 62
     7
 10
125.5
 20
-40.99998
 11
125.5
 21
-34.99998
  0
LINE
  8
0
  6
CONTINUOUS
 62
     7
 10
-122.0
 20
-34.99998
 11
-122.0
 21
-46.99998
  0
LINE
  8
0
  6
CONTINUOUS
 62
     7
 10
-121.5
 20
-34.00006
 11
-122.0
 21
-34.99998
  0
LINE
  8
0
  6
CONTINUOUS
 62
     7
 10
-121.5
 20
-34.00006
 11
-118.5
 21
-34.00007
  0
LINE
  8
0
  6
CONTINUOUS
 62
     7
 10
-121.5
 20
-47.99989
 11
-118.5
 21
-47.99989
  0
LINE
  8
0
  6
CONTINUOUS
 62
     7
 10
-121.5
 20
-47.99989
 11
-122.0
 21
-46.99998
  0
LINE
  8
0
  6
CONTINUOUS
 62
     7
 10
-86.99999
 20
-40.99998
 11
-86.99999
 21
-46.99998
  0
LINE
  8
0
  6
CONTINUOUS
 62
     7
 10
-62.00001
 20
-37.88673
 11
-59.5
 21
-36.44336
  0
LINE
  8
0
  6
CONTINUOUS
 62
     7
 10
-59.49999
 20
-36.44336
 11
-59.49999
 21
-33.5566
  0
LINE
  8
0
  6
CONTINUOUS
 62
     7
 10
-59.49998
 20
-33.5566
 11
-61.99999
 21
-32.11322
  0
LINE
  8
0
  6
CONTINUOUS
 62
     7
 10
-62.0
 20
-32.11324
 11
-64.49998
 21
-33.5566
  0
LINE
  8
0
  6
CONTINUOUS
 62
     7
 10
-64.49999
 20
-33.55661
 11
-64.49999
 21
-36.44336
  0
LINE
  8
0
  6
CONTINUOUS
 62
     7
 10
-64.49998
 20
-36.44335
 11
-61.99997
 21
-37.88673
  0
LINE
  8
0
  6
CONTINUOUS
 62
     7
 10
38.00003
 20
-37.88674
 11
40.50003
 21
-36.44336
  0
LINE
  8
0
  6
CONTINUOUS
 62
     7
 10
40.50001
 20
-36.44336
 11
40.50001
 21
-33.5566
  0
LINE
  8
0
  6
CONTINUOUS
 62
     7
 10
40.50003
 20
-33.55661
 11
38.00003
 21
-32.11323
  0
LINE
  8
0
  6
CONTINUOUS
 62
     7
 10
37.99999
 20
-32.11324
 11
35.50001
 21
-33.55661
  0
LINE
  8
0
  6
CONTINUOUS
 62
     7
 10
35.50001
 20
-33.55661
 11
35.50001
 21
-36.44336
  0
LINE
  8
0
  6
CONTINUOUS
 62
     7
 10
35.50004
 20
-36.44336
 11
38.00005
 21
-37.88674
  0
LINE
  8
0
  6
DASHED
 62
     7
 10
63.00001
 20
-34.99998
 11
63.00001
 21
-40.99998
  0
LINE
  8
0
  6
CONTINUOUS
 62
     7
 10
63.00001
 20
-40.99998
 11
63.00001
 21
-46.99998
  0
LINE
  8
0
  6
CONTINUOUS
 62
     7
 10
62.50001
 20
-47.99989
 11
60.00001
 21
-47.99989
  0
LINE
  8
0
  6
CONTINUOUS
 62
     7
 10
62.5
 20
-47.9999
 11
63.0
 21
-46.99998
  0
LINE
  8
0
  6
DASHED
 62
     7
 10
62.50002
 20
-34.00007
 11
63.00002
 21
-34.99998
  0
LINE
  8
0
  6
DASHED
 62
     7
 10
62.50001
 20
-34.00006
 11
60.00001
 21
-34.00007
  0
LINE
  8
0
  6
CENTER
 62
     2
 10
144.0
 20
99.99998
 11
-121.0
 21
99.99998
  0
LINE
  8
0
  6
CONTINUOUS
 62
     7
 10
-118.0
 20
162.0
 11
-118.0
 21
77.99999
  0
LINE
  8
0
  6
CONTINUOUS
 62
     7
 10
-104.0
 20
162.0
 11
-104.0
 21
77.99999
  0
LINE
  8
0
  6
CENTER
 62
     2
 10
-124.9999
 20
120.0
 11
155.0001
 21
120.0
  0
LINE
  8
0
  6
CONTINUOUS
 62
     7
 10
-126.0
 20
114.0
 11
-122.0
 21
114.0
  0
LINE
  8
0
  6
CONTINUOUS
 62
     7
 10
-126.5773
 20
115.0
 11
-122.0
 21
115.0
  0
LINE
  8
0
  6
CONTINUOUS
 62
     7
 10
-127.0
 20
115.732
 11
-127.0
 21
124.2679
  0
LINE
  8
0
  6
CONTINUOUS
 62
     7
 10
-102.0
 20
114.5
 11
-102.0
 21
125.5
  0
LINE
  8
0
  6
CONTINUOUS
 62
     7
 10
-127.0
 20
115.732
 11
-126.0
 21
114.0
  0
LINE
  8
0
  6
CONTINUOUS
 62
     7
 10
-102.5
 20
114.0
 11
-102.0
 21
114.5
  0
LINE
  8
0
  6
CONTINUOUS
 62
     7
 10
-86.99993
 20
111.917
 11
-87.49993
 21
112.917
  0
LINE
  8
0
  6
CONTINUOUS
 62
     7
 10
-87.00002
 20
111.9171
 11
-84.50002
 21
111.9171
  0
LINE
  8
0
  6
CONTINUOUS
 62
     7
 10
-87.50002
 20
127.083
 11
-87.50002
 21
112.917
  0
LINE
  8
0
  6
CONTINUOUS
 62
     7
 10
-104.0
 20
115.0
 11
-102.0
 21
115.0
  0
LINE
  8
0
  6
CONTINUOUS
 62
     7
 10
-104.0
 20
114.0
 11
-102.5
 21
114.0
  0
LINE
  8
0
  6
CONTINUOUS
 62
     7
 10
-127.0
 20
124.268
 11
-126.0
 21
126.0
  0
LINE
  8
0
  6
CONTINUOUS
 62
     7
 10
-126.5773
 20
125.0
 11
-121.9097
 21
125.0
  0
LINE
  8
0
  6
CONTINUOUS
 62
     7
 10
-126.0
 20
126.0
 11
-122.0
 21
126.0
  0
LINE
  8
0
  6
CONTINUOUS
 62
     7
 10
-104.0
 20
125.0
 11
-102.0
 21
125.0
  0
LINE
  8
0
  6
CONTINUOUS
 62
     7
 10
-104.0
 20
126.0
 11
-102.5
 21
126.0
  0
LINE
  8
0
  6
CONTINUOUS
 62
     7
 10
-102.5
 20
126.0
 11
-102.0
 21
125.5
  0
LINE
  8
0
  6
DASHED
 62
     7
 10
-127.0
 20
120.0
 11
-122.0
 21
120.0
  0
LINE
  8
0
  6
DASHED
 62
     7
 10
-127.0
 20
117.0
 11
-122.0
 21
117.0
  0
LINE
  8
0
  6
CONTINUOUS
 62
     7
 10
-126.0
 20
114.0
 11
-126.0
 21
126.0
  0
LINE
  8
0
  6
CONTINUOUS
 62
     7
 10
-102.5
 20
114.0
 11
-102.5
 21
126.0
  0
LINE
  8
0
  6
CONTINUOUS
 62
     7
 10
-118.0
 20
77.99999
 11
-104.0
 21
77.99999
  0
LINE
  8
0
  6
CONTINUOUS
 62
     7
 10
-118.0
 20
162.0
 11
-104.0
 21
162.0
  0
LINE
  8
0
  6
CONTINUOUS
 62
     7
 10
-87.00002
 20
115.9585
 11
-84.50002
 21
115.9585
  0
LINE
  8
0
  6
CONTINUOUS
 62
     7
 10
-87.00002
 20
124.0414
 11
-84.50002
 21
124.0414
  0
LINE
  8
0
  6
CONTINUOUS
 62
     7
 10
-118.5
 20
111.917
 11
-118.0
 21
112.917
  0
LINE
  8
0
  6
CONTINUOUS
 62
     7
 10
-86.99992
 20
128.0829
 11
-87.49992
 21
127.0829
  0
LINE
  8
0
  6
CONTINUOUS
 62
     7
 10
-118.5
 20
128.0829
 11
-118.0
 21
127.0829
  0
LINE
  8
0
  6
CONTINUOUS
 62
     7
 10
-87.00002
 20
128.0829
 11
-84.50002
 21
128.0829
  0
LINE
  8
0
  6
DASHED
 62
     7
 10
-127.0
 20
123.0
 11
-122.0
 21
123.0
  0
LINE
  8
0
  6
CONTINUOUS
 62
     7
 10
-84.50002
 20
160.0
 11
-84.50002
 21
79.99999
  0
LINE
  8
0
  6
CONTINUOUS
 62
     7
 10
-84.50002
 20
79.99999
 11
59.49998
 21
79.99999
  0
LINE
  8
0
  6
CONTINUOUS
 62
     7
 10
59.49998
 20
79.99999
 11
59.49998
 21
160.0
  0
LINE
  8
0
  6
CONTINUOUS
 62
     7
 10
59.49998
 20
160.0
 11
-84.50002
 21
160.0
  0
LINE
  8
0
  6
CENTER
 62
     2
 10
9.99998
 20
128.5
 11
9.99998
 21
111.5
  0
LINE
  8
0
  6
CENTER
 62
     2
 10
19.49998
 20
155.0
 11
30.49998
 21
155.0
  0
LINE
  8
0
  6
CENTER
 62
     2
 10
144.0
 20
140.0
 11
-121.0
 21
140.0
  0
LINE
  8
0
  6
CENTER
 62
     2
 10
135.0
 20
77.24999
 11
135.0
 21
92.74999
  0
LINE
  8
0
  6
CENTER
 62
     2
 10
142.75
 20
84.99999
 11
127.25
 21
84.99999
  0
LINE
  8
0
  6
CONTINUOUS
 62
     7
 10
-104.0
 20
134.0
 11
-84.50002
 21
134.0
  0
LINE
  8
0
  6
CONTINUOUS
 62
     7
 10
-104.0
 20
146.0
 11
-84.50002
 21
146.0
  0
LINE
  8
0
  6
CONTINUOUS
 62
     7
 10
-104.0
 20
106.0
 11
-84.50002
 21
106.0
  0
LINE
  8
0
  6
CONTINUOUS
 62
     7
 10
-104.0
 20
93.99999
 11
-84.50002
 21
93.99999
  0
LINE
  8
0
  6
CONTINUOUS
 62
     7
 10
141.0
 20
162.0
 11
141.0
 21
77.99999
  0
LINE
  8
0
  6
CONTINUOUS
 62
     7
 10
127.0
 20
162.0
 11
127.0
 21
77.99999
  0
LINE
  8
0
  6
CONTINUOUS
 62
     7
 10
149.0
 20
114.0
 11
145.0
 21
114.0
  0
LINE
  8
0
  6
CONTINUOUS
 62
     7
 10
149.5774
 20
115.0
 11
145.0
 21
115.0
  0
LINE
  8
0
  6
CONTINUOUS
 62
     7
 10
150.0
 20
115.732
 11
150.0
 21
124.2679
  0
LINE
  8
0
  6
CONTINUOUS
 62
     7
 10
125.0
 20
114.5
 11
125.0
 21
125.5
  0
LINE
  8
0
  6
CONTINUOUS
 62
     7
 10
150.0001
 20
115.732
 11
149.0
 21
114.0
  0
LINE
  8
0
  6
CONTINUOUS
 62
     7
 10
125.4999
 20
114.0
 11
124.9999
 21
114.5
  0
LINE
  8
0
  6
CONTINUOUS
 62
     7
 10
144.5001
 20
111.9171
 11
145.0001
 21
112.917
  0
LINE
  8
0
  6
CONTINUOUS
 62
     7
 10
144.5
 20
111.9171
 11
141.5
 21
111.9171
  0
LINE
  8
0
  6
CONTINUOUS
 62
     7
 10
145.0
 20
127.083
 11
145.0
 21
112.917
  0
LINE
  8
0
  6
CONTINUOUS
 62
     7
 10
127.0
 20
115.0
 11
125.0
 21
115.0
  0
LINE
  8
0
  6
CONTINUOUS
 62
     7
 10
127.0
 20
114.0
 11
125.5
 21
114.0
  0
LINE
  8
0
  6
CONTINUOUS
 62
     7
 10
150.0001
 20
124.2679
 11
149.0002
 21
126.0
  0
LINE
  8
0
  6
CONTINUOUS
 62
     7
 10
149.5774
 20
125.0
 11
144.9097
 21
125.0
  0
LINE
  8
0
  6
CONTINUOUS
 62
     7
 10
149.0
 20
126.0
 11
145.0
 21
126.0
  0
LINE
  8
0
  6
CONTINUOUS
 62
     7
 10
127.0
 20
125.0
 11
125.0
 21
125.0
  0
LINE
  8
0
  6
CONTINUOUS
 62
     7
 10
127.0
 20
126.0
 11
125.5
 21
126.0
  0
LINE
  8
0
  6
CONTINUOUS
 62
     7
 10
125.5001
 20
126.0
 11
125.0001
 21
125.5
  0
LINE
  8
0
  6
DASHED
 62
     7
 10
150.0
 20
120.0
 11
145.0
 21
120.0
  0
LINE
  8
0
  6
DASHED
 62
     7
 10
150.0
 20
117.0
 11
145.0
 21
117.0
  0
LINE
  8
0
  6
CONTINUOUS
 62
     7
 10
149.0
 20
114.0
 11
149.0
 21
126.0
  0
LINE
  8
0
  6
CONTINUOUS
 62
     7
 10
125.5
 20
114.0
 11
125.5
 21
126.0
  0
LINE
  8
0
  6
CONTINUOUS
 62
     7
 10
141.0
 20
77.99999
 11
127.0
 21
77.99999
  0
LINE
  8
0
  6
CONTINUOUS
 62
     7
 10
141.0
 20
162.0
 11
127.0
 21
162.0
  0
LINE
  8
0
  6
CONTINUOUS
 62
     7
 10
144.5
 20
115.9585
 11
141.5
 21
115.9585
  0
LINE
  8
0
  6
CONTINUOUS
 62
     7
 10
144.5
 20
124.0414
 11
141.5
 21
124.0414
  0
LINE
  8
0
  6
CONTINUOUS
 62
     7
 10
141.5001
 20
111.9171
 11
141.0001
 21
112.917
  0
LINE
  8
0
  6
CONTINUOUS
 62
     7
 10
144.5
 20
128.0829
 11
145.0
 21
127.0829
  0
LINE
  8
0
  6
CONTINUOUS
 62
     7
 10
141.5002
 20
128.0829
 11
141.0002
 21
127.0829
  0
LINE
  8
0
  6
CONTINUOUS
 62
     7
 10
144.5
 20
128.0829
 11
141.5
 21
128.0829
  0
LINE
  8
0
  6
DASHED
 62
     7
 10
150.0
 20
123.0
 11
145.0
 21
123.0
  0
LINE
  8
0
  6
CONTINUOUS
 62
     7
 10
127.0
 20
134.0
 11
59.49998
 21
134.0
  0
LINE
  8
0
  6
CONTINUOUS
 62
     7
 10
127.0
 20
146.0
 11
59.49998
 21
146.0
  0
LINE
  8
0
  6
CONTINUOUS
 62
     7
 10
127.0
 20
106.0
 11
59.49998
 21
106.0
  0
LINE
  8
0
  6
CONTINUOUS
 62
     7
 10
127.0
 20
93.99999
 11
59.49998
 21
93.99999
  0
LINE
  8
0
  6
CONTINUOUS
 62
     7
 10
-121.5
 20
111.917
 11
-122.0
 21
112.917
  0
LINE
  8
0
  6
CONTINUOUS
 62
     7
 10
-121.5
 20
111.9171
 11
-118.5
 21
111.9171
  0
LINE
  8
0
  6
CONTINUOUS
 62
     7
 10
-121.5
 20
115.9585
 11
-118.5
 21
115.9585
  0
LINE
  8
0
  6
CONTINUOUS
 62
     7
 10
-122.0
 20
127.083
 11
-122.0
 21
112.917
  0
LINE
  8
0
  6
CONTINUOUS
 62
     7
 10
-121.5
 20
124.0414
 11
-118.5
 21
124.0414
  0
LINE
  8
0
  6
CONTINUOUS
 62
     7
 10
-121.4999
 20
128.0829
 11
-121.9999
 21
127.083
  0
LINE
  8
0
  6
CONTINUOUS
 62
     7
 10
-121.5
 20
128.0829
 11
-118.5
 21
128.0829
  0
LINE
  8
0
  6
CONTINUOUS
 62
     7
 10
62.00018
 20
111.917
 11
62.50018
 21
112.917
  0
LINE
  8
0
  6
CONTINUOUS
 62
     7
 10
61.99998
 20
111.9171
 11
59.49998
 21
111.9171
  0
LINE
  8
0
  6
CONTINUOUS
 62
     7
 10
62.49998
 20
127.083
 11
62.49998
 21
112.917
  0
LINE
  8
0
  6
CONTINUOUS
 62
     7
 10
61.99998
 20
115.9585
 11
59.49998
 21
115.9585
  0
LINE
  8
0
  6
CONTINUOUS
 62
     7
 10
61.99998
 20
124.0414
 11
59.49998
 21
124.0414
  0
LINE
  8
0
  6
CONTINUOUS
 62
     7
 10
62.00015
 20
128.0829
 11
62.50015
 21
127.0829
  0
LINE
  8
0
  6
CONTINUOUS
 62
     7
 10
61.99998
 20
128.0829
 11
59.49998
 21
128.0829
  0
LINE
  8
0
  6
CONTINUOUS
 62
     7
 10
-84.50002
 20
80.99999
 11
59.49998
 21
80.99999
  0
LINE
  8
0
  6
CONTINUOUS
 62
     7
 10
-84.50002
 20
94.99999
 11
59.49998
 21
94.99999
  0
LINE
  8
0
  6
CONTINUOUS
 62
     7
 10
-84.50002
 20
95.99999
 11
59.49998
 21
95.99999
  0
LINE
  8
0
  6
CONTINUOUS
 62
     7
 10
-84.50002
 20
111.0
 11
59.49998
 21
111.0
  0
LINE
  8
0
  6
CONTINUOUS
 62
     7
 10
-84.50002
 20
112.0
 11
59.49998
 21
112.0
  0
LINE
  8
0
  6
CONTINUOUS
 62
     7
 10
-84.50002
 20
128.0
 11
59.49998
 21
128.0
  0
LINE
  8
0
  6
CONTINUOUS
 62
     7
 10
-84.50002
 20
129.0
 11
59.49998
 21
129.0
  0
LINE
  8
0
  6
CONTINUOUS
 62
     7
 10
-84.50002
 20
144.0
 11
59.49998
 21
144.0
  0
LINE
  8
0
  6
CONTINUOUS
 62
     7
 10
-84.50002
 20
145.0
 11
59.49998
 21
145.0
  0
LINE
  8
0
  6
CONTINUOUS
 62
     7
 10
-84.50002
 20
159.0
 11
59.49998
 21
159.0
  0
LINE
  8
0
  6
CENTER
 62
     2
 10
-104.25
 20
155.0
 11
-119.75
 21
155.0
  0
LINE
  8
0
  6
CENTER
 62
     2
 10
-112.0
 20
147.25
 11
-112.0
 21
162.75
  0
LINE
  8
0
  6
CENTER
 62
     2
 10
-104.25
 20
84.99999
 11
-119.75
 21
84.99999
  0
LINE
  8
0
  6
CENTER
 62
     2
 10
-112.0
 20
77.24999
 11
-112.0
 21
92.74999
  0
LINE
  8
0
  6
CENTER
 62
     2
 10
142.75
 20
155.0
 11
127.25
 21
155.0
  0
LINE
  8
0
  6
CENTER
 62
     2
 10
135.0
 20
147.25
 11
135.0
 21
162.75
  0
LINE
  8
0
  6
CENTER
 62
     2
 10
-35.00002
 20
128.5
 11
-35.00002
 21
111.5
  0
LINE
  8
0
  6
CENTER
 62
     2
 10
24.99998
 20
160.5
 11
24.99998
 21
149.5
  0
LINE
  8
0
  6
CENTER
 62
     2
 10
-70.00002
 20
126.0
 11
-70.00002
 21
114.0
  0
LINE
  8
0
  6
CENTER
 62
     2
 10
-55.50002
 20
155.0
 11
-44.50002
 21
155.0
  0
LINE
  8
0
  6
CENTER
 62
     2
 10
-50.00002
 20
79.49999
 11
-50.00002
 21
90.49999
  0
LINE
  8
0
  6
CENTER
 62
     2
 10
-55.50002
 20
84.99999
 11
-44.50002
 21
84.99999
  0
LINE
  8
0
  6
CENTER
 62
     2
 10
24.99998
 20
79.49999
 11
24.99998
 21
90.49999
  0
LINE
  8
0
  6
CENTER
 62
     2
 10
19.49998
 20
84.99999
 11
30.49998
 21
84.99999
  0
LINE
  8
0
  6
CENTER
 62
     2
 10
-50.00002
 20
160.5
 11
-50.00002
 21
149.5
  0
LINE
  8
0
  6
CENTER
 62
     2
 10
45.99998
 20
126.0
 11
45.99998
 21
114.0
  0
LINE
  8
0
  6
CENTER
 62
     2
 10
44.99998
 20
126.0
 11
44.99998
 21
114.0
  0
LINE
  8
0
  6
CENTER
 62
     2
 10
43.99998
 20
126.0
 11
43.99998
 21
114.0
  0
LINE
  8
0
  6
CONTINUOUS
 62
     7
 10
-71.00002
 20
123.0
 11
-69.00002
 21
123.0
  0
LINE
  8
0
  6
CONTINUOUS
 62
     7
 10
-71.00002
 20
117.0
 11
-69.00002
 21
117.0
  0
LINE
  8
0
  6
CENTER
 62
     2
 10
144.0
 20
-134.9999
 11
-121.0
 21
-134.9999
  0
LINE
  8
0
  6
CONTINUOUS
 62
     7
 10
-118.0
 20
-196.9999
 11
-118.0
 21
-112.9999
  0
LINE
  8
0
  6
CONTINUOUS
 62
     7
 10
-104.0
 20
-196.9999
 11
-104.0
 21
-112.9999
  0
LINE
  8
0
  6
CENTER
 62
     2
 10
-124.9999
 20
-154.9999
 11
155.0001
 21
-154.9999
  0
LINE
  8
0
  6
CONTINUOUS
 62
     7
 10
-126.0
 20
-148.9999
 11
-122.0
 21
-148.9999
  0
LINE
  8
0
  6
CONTINUOUS
 62
     7
 10
-126.5773
 20
-149.9999
 11
-122.0
 21
-149.9999
  0
LINE
  8
0
  6
CONTINUOUS
 62
     7
 10
-127.0
 20
-150.732
 11
-127.0
 21
-159.2679
  0
LINE
  8
0
  6
CONTINUOUS
 62
     7
 10
-102.0
 20
-149.4999
 11
-102.0
 21
-160.4999
  0
LINE
  8
0
  6
CONTINUOUS
 62
     7
 10
-127.0
 20
-150.732
 11
-126.0
 21
-148.9999
  0
LINE
  8
0
  6
CONTINUOUS
 62
     7
 10
-102.5
 20
-149.0
 11
-102.0
 21
-149.5
  0
LINE
  8
0
  6
CONTINUOUS
 62
     7
 10
-86.99994
 20
-146.917
 11
-87.49994
 21
-147.9169
  0
LINE
  8
0
  6
CONTINUOUS
 62
     7
 10
-86.99999
 20
-146.917
 11
-84.49999
 21
-146.917
  0
LINE
  8
0
  6
CONTINUOUS
 62
     7
 10
-87.49999
 20
-162.0829
 11
-87.49999
 21
-147.917
  0
LINE
  8
0
  6
CONTINUOUS
 62
     7
 10
-104.0
 20
-149.9999
 11
-102.0
 21
-149.9999
  0
LINE
  8
0
  6
CONTINUOUS
 62
     7
 10
-104.0
 20
-148.9999
 11
-102.5
 21
-148.9999
  0
LINE
  8
0
  6
CONTINUOUS
 62
     7
 10
-127.0
 20
-159.2679
 11
-126.0
 21
-161.0
  0
LINE
  8
0
  6
CONTINUOUS
 62
     7
 10
-126.5773
 20
-159.9999
 11
-121.9096
 21
-159.9999
  0
LINE
  8
0
  6
CONTINUOUS
 62
     7
 10
-126.0
 20
-160.9999
 11
-122.0
 21
-160.9999
  0
LINE
  8
0
  6
CONTINUOUS
 62
     7
 10
-104.0
 20
-159.9999
 11
-102.0
 21
-159.9999
  0
LINE
  8
0
  6
CONTINUOUS
 62
     7
 10
-104.0
 20
-160.9999
 11
-102.5
 21
-160.9999
  0
LINE
  8
0
  6
CONTINUOUS
 62
     7
 10
-102.5
 20
-161.0
 11
-102.0
 21
-160.5
  0
LINE
  8
0
  6
DASHED
 62
     7
 10
-127.0
 20
-154.9999
 11
-122.0
 21
-154.9999
  0
LINE
  8
0
  6
DASHED
 62
     7
 10
-127.0
 20
-151.9999
 11
-122.0
 21
-151.9999
  0
LINE
  8
0
  6
CONTINUOUS
 62
     7
 10
-126.0
 20
-148.9999
 11
-126.0
 21
-160.9999
  0
LINE
  8
0
  6
CONTINUOUS
 62
     7
 10
-102.5
 20
-148.9999
 11
-102.5
 21
-160.9999
  0
LINE
  8
0
  6
CONTINUOUS
 62
     7
 10
-118.0
 20
-112.9999
 11
-104.0
 21
-112.9999
  0
LINE
  8
0
  6
CONTINUOUS
 62
     7
 10
-118.0
 20
-196.9999
 11
-104.0
 21
-196.9999
  0
LINE
  8
0
  6
CENTER
 62
     2
 10
-112.0
 20
-125.7499
 11
-112.0
 21
-114.2499
  0
LINE
  8
0
  6
CENTER
 62
     2
 10
-106.25
 20
-119.9999
 11
-117.75
 21
-119.9999
  0
LINE
  8
0
  6
CONTINUOUS
 62
     7
 10
-86.99999
 20
-150.9585
 11
-84.49999
 21
-150.9585
  0
LINE
  8
0
  6
CONTINUOUS
 62
     7
 10
-86.99999
 20
-159.0414
 11
-84.49999
 21
-159.0414
  0
LINE
  8
0
  6
CONTINUOUS
 62
     7
 10
-118.5
 20
-146.917
 11
-118.0
 21
-147.9169
  0
LINE
  8
0
  6
CONTINUOUS
 62
     7
 10
-86.99992
 20
-163.0828
 11
-87.49992
 21
-162.0829
  0
LINE
  8
0
  6
CONTINUOUS
 62
     7
 10
-118.5
 20
-163.0829
 11
-118.0
 21
-162.0829
  0
LINE
  8
0
  6
CONTINUOUS
 62
     7
 10
-86.99999
 20
-163.0828
 11
-84.49999
 21
-163.0828
  0
LINE
  8
0
  6
DASHED
 62
     7
 10
-127.0
 20
-157.9999
 11
-122.0
 21
-157.9999
  0
LINE
  8
0
  6
CONTINUOUS
 62
     7
 10
-84.49999
 20
-194.9999
 11
-84.49999
 21
-114.9999
  0
LINE
  8
0
  6
CONTINUOUS
 62
     7
 10
-84.49999
 20
-114.9999
 11
59.5
 21
-114.9999
  0
LINE
  8
0
  6
CONTINUOUS
 62
     7
 10
59.5
 20
-114.9999
 11
59.5
 21
-194.9999
  0
LINE
  8
0
  6
CONTINUOUS
 62
     7
 10
59.5
 20
-194.9999
 11
-84.49999
 21
-194.9999
  0
LINE
  8
0
  6
CONTINUOUS
 62
     7
 10
-84.49999
 20
-193.1499
 11
59.5
 21
-193.1499
  0
LINE
  8
0
  6
CONTINUOUS
 62
     7
 10
-84.49999
 20
-189.8499
 11
59.5
 21
-189.8499
  0
LINE
  8
0
  6
CENTER
 62
     2
 10
-111.0
 20
-140.9999
 11
-111.0
 21
-128.9999
  0
LINE
  8
0
  6
CENTER
 62
     2
 10
10.00001
 20
-163.4999
 11
10.00001
 21
-146.4999
  0
LINE
  8
0
  6
CENTER
 62
     2
 10
-34.99999
 20
-163.4999
 11
-34.99999
 21
-146.4999
  0
LINE
  8
0
  6
CENTER
 62
     2
 10
144.0
 20
-174.9999
 11
-121.0
 21
-174.9999
  0
LINE
  8
0
  6
CENTER
 62
     2
 10
-111.0
 20
-168.9999
 11
-111.0
 21
-180.9999
  0
LINE
  8
0
  6
CENTER
 62
     2
 10
-112.0
 20
-184.2499
 11
-112.0
 21
-195.7499
  0
LINE
  8
0
  6
CENTER
 62
     2
 10
-106.25
 20
-189.9999
 11
-117.75
 21
-189.9999
  0
LINE
  8
0
  6
CONTINUOUS
 62
     7
 10
-104.0
 20
-168.9999
 11
-84.49999
 21
-168.9999
  0
LINE
  8
0
  6
CONTINUOUS
 62
     7
 10
-104.0
 20
-180.9999
 11
-84.49999
 21
-180.9999
  0
LINE
  8
0
  6
CONTINUOUS
 62
     7
 10
-104.0
 20
-140.9999
 11
-84.49999
 21
-140.9999
  0
LINE
  8
0
  6
CONTINUOUS
 62
     7
 10
-104.0
 20
-128.9999
 11
-84.49999
 21
-128.9999
  0
LINE
  8
0
  6
CONTINUOUS
 62
     7
 10
141.0
 20
-196.9999
 11
141.0
 21
-112.9999
  0
LINE
  8
0
  6
CONTINUOUS
 62
     7
 10
127.0
 20
-196.9999
 11
127.0
 21
-112.9999
  0
LINE
  8
0
  6
CONTINUOUS
 62
     7
 10
149.0
 20
-148.9999
 11
145.0
 21
-148.9999
  0
LINE
  8
0
  6
CONTINUOUS
 62
     7
 10
149.5774
 20
-149.9999
 11
145.0
 21
-149.9999
  0
LINE
  8
0
  6
CONTINUOUS
 62
     7
 10
150.0
 20
-150.732
 11
150.0
 21
-159.2679
  0
LINE
  8
0
  6
CONTINUOUS
 62
     7
 10
125.0
 20
-149.4999
 11
125.0
 21
-160.4999
  0
LINE
  8
0
  6
CONTINUOUS
 62
     7
 10
150.0001
 20
-150.732
 11
149.0001
 21
-149.0
  0
LINE
  8
0
  6
CONTINUOUS
 62
     7
 10
125.5
 20
-149.0
 11
125.0
 21
-149.5
  0
LINE
  8
0
  6
CONTINUOUS
 62
     7
 10
144.5002
 20
-146.917
 11
145.0002
 21
-147.9169
  0
LINE
  8
0
  6
CONTINUOUS
 62
     7
 10
144.5
 20
-146.917
 11
141.5001
 21
-146.917
  0
LINE
  8
0
  6
CONTINUOUS
 62
     7
 10
145.0
 20
-162.0829
 11
145.0
 21
-147.917
  0
LINE
  8
0
  6
CONTINUOUS
 62
     7
 10
127.0
 20
-149.9999
 11
125.0
 21
-149.9999
  0
LINE
  8
0
  6
CONTINUOUS
 62
     7
 10
127.0
 20
-148.9999
 11
125.5
 21
-148.9999
  0
LINE
  8
0
  6
CONTINUOUS
 62
     7
 10
150.0001
 20
-159.2679
 11
149.0001
 21
-160.9999
  0
LINE
  8
0
  6
CONTINUOUS
 62
     7
 10
149.5774
 20
-159.9999
 11
144.9097
 21
-159.9999
  0
LINE
  8
0
  6
CONTINUOUS
 62
     7
 10
149.0
 20
-160.9999
 11
145.0
 21
-160.9999
  0
LINE
  8
0
  6
CONTINUOUS
 62
     7
 10
127.0
 20
-159.9999
 11
125.0
 21
-159.9999
  0
LINE
  8
0
  6
CONTINUOUS
 62
     7
 10
127.0
 20
-160.9999
 11
125.5
 21
-160.9999
  0
LINE
  8
0
  6
CONTINUOUS
 62
     7
 10
125.5
 20
-161.0
 11
125.0
 21
-160.5
  0
LINE
  8
0
  6
DASHED
 62
     7
 10
150.0
 20
-154.9999
 11
145.0
 21
-154.9999
  0
LINE
  8
0
  6
DASHED
 62
     7
 10
150.0
 20
-151.9999
 11
145.0
 21
-151.9999
  0
LINE
  8
0
  6
CONTINUOUS
 62
     7
 10
149.0001
 20
-148.9999
 11
149.0001
 21
-160.9999
  0
LINE
  8
0
  6
CONTINUOUS
 62
     7
 10
125.5
 20
-148.9999
 11
125.5
 21
-160.9999
  0
LINE
  8
0
  6
CONTINUOUS
 62
     7
 10
141.0
 20
-112.9999
 11
127.0
 21
-112.9999
  0
LINE
  8
0
  6
CONTINUOUS
 62
     7
 10
141.0
 20
-196.9999
 11
127.0
 21
-196.9999
  0
LINE
  8
0
  6
CENTER
 62
     2
 10
135.0
 20
-125.7499
 11
135.0
 21
-114.2499
  0
LINE
  8
0
  6
CENTER
 62
     2
 10
129.25
 20
-119.9999
 11
140.75
 21
-119.9999
  0
LINE
  8
0
  6
CONTINUOUS
 62
     7
 10
144.5
 20
-150.9585
 11
141.5001
 21
-150.9585
  0
LINE
  8
0
  6
CONTINUOUS
 62
     7
 10
144.5
 20
-159.0414
 11
141.5001
 21
-159.0414
  0
LINE
  8
0
  6
CONTINUOUS
 62
     7
 10
141.5001
 20
-146.917
 11
141.0001
 21
-147.9169
  0
LINE
  8
0
  6
CONTINUOUS
 62
     7
 10
144.5
 20
-163.0829
 11
145.0
 21
-162.0829
  0
LINE
  8
0
  6
CONTINUOUS
 62
     7
 10
141.5003
 20
-163.0829
 11
141.0003
 21
-162.0829
  0
LINE
  8
0
  6
CONTINUOUS
 62
     7
 10
144.5
 20
-163.0828
 11
141.5001
 21
-163.0828
  0
LINE
  8
0
  6
DASHED
 62
     7
 10
150.0
 20
-157.9999
 11
145.0
 21
-157.9999
  0
LINE
  8
0
  6
CENTER
 62
     2
 10
134.0
 20
-140.9999
 11
134.0
 21
-128.9999
  0
LINE
  8
0
  6
CENTER
 62
     2
 10
134.0
 20
-168.9999
 11
134.0
 21
-180.9999
  0
LINE
  8
0
  6
CENTER
 62
     2
 10
135.0
 20
-184.2499
 11
135.0
 21
-195.7499
  0
LINE
  8
0
  6
CENTER
 62
     2
 10
129.25
 20
-189.9999
 11
140.75
 21
-189.9999
  0
LINE
  8
0
  6
CONTINUOUS
 62
     7
 10
127.0
 20
-168.9999
 11
59.5
 21
-168.9999
  0
LINE
  8
0
  6
CONTINUOUS
 62
     7
 10
127.0
 20
-180.9999
 11
59.5
 21
-180.9999
  0
LINE
  8
0
  6
CONTINUOUS
 62
     7
 10
127.0
 20
-140.9999
 11
59.5
 21
-140.9999
  0
LINE
  8
0
  6
CONTINUOUS
 62
     7
 10
127.0
 20
-128.9999
 11
59.5
 21
-128.9999
  0
LINE
  8
0
  6
CONTINUOUS
 62
     7
 10
-121.4999
 20
-146.917
 11
-121.9999
 21
-147.9169
  0
LINE
  8
0
  6
CONTINUOUS
 62
     7
 10
-121.5
 20
-146.917
 11
-118.5
 21
-146.917
  0
LINE
  8
0
  6
CONTINUOUS
 62
     7
 10
-121.5
 20
-150.9585
 11
-118.5
 21
-150.9585
  0
LINE
  8
0
  6
CONTINUOUS
 62
     7
 10
-122.0
 20
-162.0829
 11
-122.0
 21
-147.917
  0
LINE
  8
0
  6
CONTINUOUS
 62
     7
 10
-121.5
 20
-159.0414
 11
-118.5
 21
-159.0414
  0
LINE
  8
0
  6
CONTINUOUS
 62
     7
 10
-121.4999
 20
-163.0829
 11
-121.9999
 21
-162.0829
  0
LINE
  8
0
  6
CONTINUOUS
 62
     7
 10
-121.5
 20
-163.0828
 11
-118.5
 21
-163.0828
  0
LINE
  8
0
  6
CONTINUOUS
 62
     7
 10
62.00018
 20
-146.917
 11
62.50018
 21
-147.9169
  0
LINE
  8
0
  6
CONTINUOUS
 62
     7
 10
62.0
 20
-146.917
 11
59.5
 21
-146.917
  0
LINE
  8
0
  6
CONTINUOUS
 62
     7
 10
62.5
 20
-162.0829
 11
62.5
 21
-147.917
  0
LINE
  8
0
  6
CONTINUOUS
 62
     7
 10
62.0
 20
-150.9585
 11
59.5
 21
-150.9585
  0
LINE
  8
0
  6
CONTINUOUS
 62
     7
 10
62.0
 20
-159.0414
 11
59.5
 21
-159.0414
  0
LINE
  8
0
  6
CONTINUOUS
 62
     7
 10
62.00009
 20
-163.0828
 11
62.50009
 21
-162.0829
  0
LINE
  8
0
  6
CONTINUOUS
 62
     7
 10
62.0
 20
-163.0828
 11
59.5
 21
-163.0828
  0
LINE
  8
0
  6
CENTER
 62
     2
 10
-242.0
 20
-16.0
 11
-242.0
 21
-55.0
  0
LINE
  8
0
  6
CONTINUOUS
 62
     7
 10
-283.9999
 20
-21.0
 11
-283.9999
 21
-52.0
  0
LINE
  8
0
  6
CONTINUOUS
 62
     7
 10
-200.0
 20
-52.0
 11
-283.9999
 21
-52.0
  0
LINE
  8
0
  6
CONTINUOUS
 62
     7
 10
-261.0259
 20
-40.9204
 11
-261.3059
 21
-41.96551
  0
LINE
  8
0
  6
CONTINUOUS
 62
     7
 10
-262.974
 20
-40.9204
 11
-262.694
 21
-41.9655
  0
LINE
  8
0
  6
CONTINUOUS
 62
     7
 10
-245.0
 20
-42.73205
 11
-245.0
 21
-39.26794
  0
LINE
  8
0
  6
CONTINUOUS
 62
     7
 10
-234.0
 20
-19.0
 11
-250.0
 21
-19.0
  0
LINE
  8
0
  6
CONTINUOUS
 62
     7
 10
-251.0
 20
-19.99998
 11
-265.9999
 21
-19.99998
  0
LINE
  8
0
  6
CONTINUOUS
 62
     7
 10
-281.0
 20
-19.0
 11
-282.0
 21
-19.99998
  0
LINE
  8
0
  6
CONTINUOUS
 62
     7
 10
-266.0
 20
-19.99998
 11
-267.0
 21
-18.99999
  0
LINE
  8
0
  6
CONTINUOUS
 62
     7
 10
-249.9999
 20
-19.0
 11
-250.9999
 21
-19.99999
  0
LINE
  8
0
  6
CONTINUOUS
 62
     7
 10
-266.9999
 20
-19.0
 11
-280.9999
 21
-19.0
  0
LINE
  8
0
  6
CONTINUOUS
 62
     7
 10
-281.9999
 20
-19.99998
 11
-281.9999
 21
-21.0
  0
LINE
  8
0
  6
CENTER
 62
     2
 10
-252.0
 20
-41.0
 11
-232.0
 21
-41.0
  0
LINE
  8
0
  6
CONTINUOUS
 62
     7
 10
-283.9999
 20
-21.0
 11
-200.0
 21
-21.0
  0
LINE
  8
0
  6
CONTINUOUS
 62
     7
 10
-246.0414
 20
-47.99999
 11
-237.9585
 21
-48.0
  0
LINE
  8
0
  6
CONTINUOUS
 62
     7
 10
-237.9585
 20
-47.99999
 11
-233.917
 21
-41.0
  0
LINE
  8
0
  6
CONTINUOUS
 62
     7
 10
-233.9171
 20
-41.0
 11
-237.9585
 21
-33.99999
  0
LINE
  8
0
  6
CONTINUOUS
 62
     7
 10
-237.9585
 20
-34.0
 11
-246.0414
 21
-33.99999
  0
LINE
  8
0
  6
CONTINUOUS
 62
     7
 10
-246.0414
 20
-33.99999
 11
-250.0828
 21
-41.0
  0
LINE
  8
0
  6
CONTINUOUS
 62
     7
 10
-250.0828
 20
-40.99998
 11
-246.0414
 21
-48.0
  0
LINE
  8
0
  6
CONTINUOUS
 62
     7
 10
-242.0
 20
-44.4641
 11
-245.0
 21
-42.73204
  0
LINE
  8
0
  6
CONTINUOUS
 62
     7
 10
-239.0
 20
-42.73206
 11
-242.0
 21
-44.4641
  0
LINE
  8
0
  6
CONTINUOUS
 62
     7
 10
-239.0
 20
-39.26794
 11
-239.0
 21
-42.73205
  0
LINE
  8
0
  6
CONTINUOUS
 62
     7
 10
-241.9999
 20
-37.53589
 11
-238.9999
 21
-39.26794
  0
LINE
  8
0
  6
CONTINUOUS
 62
     7
 10
-245.0
 20
-39.26795
 11
-242.0
 21
-37.5359
  0
LINE
  8
0
  6
CONTINUOUS
 62
     7
 10
-200.0
 20
-21.0
 11
-200.0
 21
-52.0
  0
LINE
  8
0
  6
CENTER
 62
     2
 10
-222.0
 20
-24.5
 11
-222.0
 21
-45.5
  0
LINE
  8
0
  6
CONTINUOUS
 62
     7
 10
-222.974
 20
-40.9204
 11
-222.694
 21
-41.9655
  0
LINE
  8
0
  6
CONTINUOUS
 62
     7
 10
-221.0259
 20
-40.9204
 11
-221.3059
 21
-41.9655
  0
LINE
  8
0
  6
CONTINUOUS
 62
     7
 10
-233.0
 20
-19.99998
 11
-218.0
 21
-19.99998
  0
LINE
  8
0
  6
CONTINUOUS
 62
     7
 10
-202.9999
 20
-18.99999
 11
-201.9999
 21
-19.99998
  0
LINE
  8
0
  6
CONTINUOUS
 62
     7
 10
-217.9999
 20
-19.99998
 11
-217.0
 21
-19.0
  0
LINE
  8
0
  6
CONTINUOUS
 62
     7
 10
-233.9999
 20
-18.99999
 11
-232.9999
 21
-19.99999
  0
LINE
  8
0
  6
CONTINUOUS
 62
     7
 10
-217.0
 20
-19.0
 11
-203.0
 21
-19.0
  0
LINE
  8
0
  6
CONTINUOUS
 62
     7
 10
-202.0
 20
-19.99998
 11
-202.0
 21
-21.0
  0
LINE
  8
0
  6
CENTER
 62
     2
 10
-207.0
 20
-30.0
 11
-207.0
 21
-40.0
  0
LINE
  8
0
  6
CENTER
 62
     2
 10
-197.0
 20
-35.0
 11
-232.5
 21
-35.0
  0
LINE
  8
0
  6
CENTER
 62
     2
 10
-276.9999
 20
-30.0
 11
-276.9999
 21
-40.0
  0
LINE
  8
0
  6
CENTER
 62
     2
 10
-286.9999
 20
-35.0
 11
-251.5
 21
-35.0
  0
LINE
  8
0
  6
CENTER
 62
     2
 10
-261.9999
 20
-24.5
 11
-261.9999
 21
-45.5
  0
LINE
  8
0
  6
CENTER
 62
     2
 10
262.0001
 20
-15.99998
 11
262.0001
 21
-54.99998
  0
LINE
  8
0
  6
CONTINUOUS
 62
     7
 10
220.0001
 20
-20.99998
 11
220.0001
 21
-51.99998
  0
LINE
  8
0
  6
CONTINUOUS
 62
     7
 10
304.0001
 20
-51.99998
 11
220.0001
 21
-51.99998
  0
LINE
  8
0
  6
CONTINUOUS
 62
     7
 10
242.9741
 20
-40.92039
 11
242.6941
 21
-41.9655
  0
LINE
  8
0
  6
CONTINUOUS
 62
     7
 10
241.026
 20
-40.92038
 11
241.306
 21
-41.96548
  0
LINE
  8
0
  6
CONTINUOUS
 62
     7
 10
259.0001
 20
-42.73203
 11
259.0001
 21
-39.26793
  0
LINE
  8
0
  6
CONTINUOUS
 62
     7
 10
270.0001
 20
-18.99998
 11
254.0001
 21
-18.99998
  0
LINE
  8
0
  6
CONTINUOUS
 62
     7
 10
253.0001
 20
-19.99997
 11
238.0001
 21
-19.99997
  0
LINE
  8
0
  6
CONTINUOUS
 62
     7
 10
223.0001
 20
-18.99998
 11
222.0001
 21
-19.99997
  0
LINE
  8
0
  6
CONTINUOUS
 62
     7
 10
238.0001
 20
-19.99996
 11
237.0001
 21
-18.99998
  0
LINE
  8
0
  6
CONTINUOUS
 62
     7
 10
254.0001
 20
-18.99998
 11
253.0
 21
-19.99998
  0
LINE
  8
0
  6
CONTINUOUS
 62
     7
 10
237.0001
 20
-18.99998
 11
223.0001
 21
-18.99998
  0
LINE
  8
0
  6
CONTINUOUS
 62
     7
 10
222.0001
 20
-19.99997
 11
222.0001
 21
-20.99998
  0
LINE
  8
0
  6
CENTER
 62
     2
 10
252.0001
 20
-40.99998
 11
272.0001
 21
-40.99998
  0
LINE
  8
0
  6
CONTINUOUS
 62
     7
 10
220.0001
 20
-20.99998
 11
304.0001
 21
-20.99998
  0
LINE
  8
0
  6
CONTINUOUS
 62
     7
 10
257.9586
 20
-47.99997
 11
266.0415
 21
-47.99998
  0
LINE
  8
0
  6
CONTINUOUS
 62
     7
 10
266.0415
 20
-47.99998
 11
270.083
 21
-40.99998
  0
LINE
  8
0
  6
CONTINUOUS
 62
     7
 10
270.0829
 20
-40.99997
 11
266.0415
 21
-33.99997
  0
LINE
  8
0
  6
CONTINUOUS
 62
     7
 10
266.0415
 20
-33.99998
 11
257.9586
 21
-33.99997
  0
LINE
  8
0
  6
CONTINUOUS
 62
     7
 10
257.9586
 20
-33.99997
 11
253.9172
 21
-40.99997
  0
LINE
  8
0
  6
CONTINUOUS
 62
     7
 10
253.9171
 20
-40.99996
 11
257.9586
 21
-47.99997
  0
LINE
  8
0
  6
CONTINUOUS
 62
     7
 10
262.0001
 20
-44.46408
 11
259.0001
 21
-42.73203
  0
LINE
  8
0
  6
CONTINUOUS
 62
     7
 10
265.0001
 20
-42.73203
 11
262.0001
 21
-44.46408
  0
LINE
  8
0
  6
CONTINUOUS
 62
     7
 10
265.0001
 20
-39.26793
 11
265.0001
 21
-42.73203
  0
LINE
  8
0
  6
CONTINUOUS
 62
     7
 10
262.0
 20
-37.53587
 11
265.0001
 21
-39.26792
  0
LINE
  8
0
  6
CONTINUOUS
 62
     7
 10
259.0001
 20
-39.26793
 11
262.0
 21
-37.53588
  0
LINE
  8
0
  6
CONTINUOUS
 62
     7
 10
239.5001
 20
-36.44335
 11
239.5001
 21
-33.5566
  0
LINE
  8
0
  6
CONTINUOUS
 62
     7
 10
242.0
 20
-37.88673
 11
239.5
 21
-36.44335
  0
LINE
  8
0
  6
CONTINUOUS
 62
     7
 10
244.5
 20
-36.44336
 11
242.0
 21
-37.88673
  0
LINE
  8
0
  6
CONTINUOUS
 62
     7
 10
244.5001
 20
-33.5566
 11
244.5001
 21
-36.44335
  0
LINE
  8
0
  6
CONTINUOUS
 62
     7
 10
242.0001
 20
-32.11323
 11
244.5001
 21
-33.5566
  0
LINE
  8
0
  6
CONTINUOUS
 62
     7
 10
239.5001
 20
-33.55661
 11
242.0001
 21
-32.11323
  0
LINE
  8
0
  6
CONTINUOUS
 62
     7
 10
304.0001
 20
-20.99998
 11
304.0001
 21
-51.99998
  0
LINE
  8
0
  6
CONTINUOUS
 62
     7
 10
281.0261
 20
-40.9204
 11
281.3061
 21
-41.9655
  0
LINE
  8
0
  6
CONTINUOUS
 62
     7
 10
282.9741
 20
-40.92037
 11
282.6941
 21
-41.96548
  0
LINE
  8
0
  6
CONTINUOUS
 62
     7
 10
271.0001
 20
-19.99997
 11
286.0001
 21
-19.99997
  0
LINE
  8
0
  6
CONTINUOUS
 62
     7
 10
301.0001
 20
-18.99998
 11
302.0
 21
-19.99997
  0
LINE
  8
0
  6
CONTINUOUS
 62
     7
 10
286.0
 20
-19.99997
 11
287.0001
 21
-18.99998
  0
LINE
  8
0
  6
CONTINUOUS
 62
     7
 10
270.0
 20
-18.99997
 11
271.0
 21
-19.99997
  0
LINE
  8
0
  6
CONTINUOUS
 62
     7
 10
287.0001
 20
-18.99998
 11
301.0001
 21
-18.99998
  0
LINE
  8
0
  6
CONTINUOUS
 62
     7
 10
302.0001
 20
-19.99997
 11
302.0001
 21
-20.99998
  0
LINE
  8
0
  6
CENTER
 62
     2
 10
297.0001
 20
-29.99998
 11
297.0001
 21
-39.99998
  0
LINE
  8
0
  6
CONTINUOUS
 62
     7
 10
284.5001
 20
-36.44335
 11
284.5001
 21
-33.5566
  0
LINE
  8
0
  6
CONTINUOUS
 62
     7
 10
282.0001
 20
-37.88673
 11
284.5001
 21
-36.44336
  0
LINE
  8
0
  6
CONTINUOUS
 62
     7
 10
279.5001
 20
-36.44336
 11
282.0001
 21
-37.88673
  0
LINE
  8
0
  6
CONTINUOUS
 62
     7
 10
279.5001
 20
-33.5566
 11
279.5001
 21
-36.44335
  0
LINE
  8
0
  6
CONTINUOUS
 62
     7
 10
282.0001
 20
-32.11323
 11
279.5001
 21
-33.5566
  0
LINE
  8
0
  6
CONTINUOUS
 62
     7
 10
284.5001
 20
-33.5566
 11
282.0001
 21
-32.11323
  0
LINE
  8
0
  6
CENTER
 62
     2
 10
302.0001
 20
-34.99998
 11
292.0001
 21
-34.99998
  0
LINE
  8
0
  6
CENTER
 62
     2
 10
227.0001
 20
-29.99998
 11
227.0001
 21
-39.99998
  0
LINE
  8
0
  6
CENTER
 62
     2
 10
222.0001
 20
-34.99998
 11
232.0001
 21
-34.99998
  0
ARC
  8
0
  6
CONTINUOUS
 62
     7
 10
273.0353
 20
-235.0456
 40
2.21188
 50
0.0
 51
89.99999
  0
ARC
  8
0
  6
CONTINUOUS
 62
     7
 10
291.2835
 20
-246.9346
 40
2.2119
 50
270.0
 51
0.0
  0
ARC
  8
0
  6
CONTINUOUS
 62
     7
 10
290.1775
 20
-236.1515
 40
3.31784
 50
0.0
 51
89.99999
  0
ARC
  8
0
  6
CONTINUOUS
 62
     7
 10
310.3611
 20
-235.0456
 40
2.21188
 50
0.0
 51
89.99999
  0
ARC
  8
0
  6
CONTINUOUS
 62
     7
 10
310.3611
 20
-236.8127
 40
2.21189
 50
295.0
 51
0.0
  0
ARC
  8
0
  6
CONTINUOUS
 62
     7
 10
327.5033
 20
-232.8337
 40
3.31784
 50
291.6884
 51
0.0
  0
ARC
  8
0
  6
CONTINUOUS
 62
     7
 10
326.3972
 20
-232.0833
 40
1.10595
 50
291.689
 51
0.0
  0
ARC
  8
0
  6
CONTINUOUS
 62
     7
 10
153.4997
 20
-37.50002
 40
12.4997
 50
163.7395
 51
196.2603
  0
CIRCLE
  8
0
  6
CONTINUOUS
 62
     7
 10
129.5
 20
-39.99998
 40
1.5
  0
CIRCLE
  8
0
  6
CONTINUOUS
 62
     7
 10
129.5
 20
-39.99998
 40
1.23
  0
ARC
  8
0
  6
CONTINUOUS
 62
     7
 10
132.5003
 20
-44.49994
 40
12.4997
 50
343.7396
 51
16.26036
  0
ARC
  8
0
  6
CONTINUOUS
 62
     7
 10
153.4997
 20
-44.49994
 40
12.4997
 50
163.7396
 51
196.2603
  0
ARC
  8
0
  6
CONTINUOUS
 62
     7
 10
132.5003
 20
-37.50002
 40
12.4997
 50
343.7395
 51
16.26031
  0
ARC
  8
0
  6
CONTINUOUS
 62
     7
 10
-130.4997
 20
-37.50002
 40
12.4997
 50
343.7396
 51
16.26037
  0
CIRCLE
  8
0
  6
CONTINUOUS
 62
     7
 10
-106.5
 20
-39.99998
 40
1.5
  0
CIRCLE
  8
0
  6
CONTINUOUS
 62
     7
 10
-106.5
 20
-39.99998
 40
1.23
  0
ARC
  8
0
  6
CONTINUOUS
 62
     7
 10
-74.5003
 20
-44.49994
 40
12.4997
 50
163.7396
 51
196.2603
  0
ARC
  8
0
  6
CONTINUOUS
 62
     7
 10
-130.4997
 20
-44.49994
 40
12.4997
 50
343.7396
 51
16.26035
  0
ARC
  8
0
  6
DASHED
 62
     7
 10
-74.5003
 20
-37.50002
 40
12.4997
 50
163.7396
 51
196.2603
  0
ARC
  8
0
  6
CONTINUOUS
 62
     7
 10
-109.5003
 20
-44.49994
 40
12.4997
 50
163.7396
 51
196.2603
  0
ARC
  8
0
  6
CONTINUOUS
 62
     7
 10
-109.5003
 20
-37.50002
 40
12.4997
 50
163.7396
 51
196.2603
  0
CIRCLE
  8
0
  6
CONTINUOUS
 62
     7
 10
-61.99999
 20
-34.99998
 40
4.283
  0
CIRCLE
  8
0
  6
CONTINUOUS
 62
     7
 10
-61.99999
 20
-34.99998
 40
4.864
  0
CIRCLE
  8
0
  6
CONTINUOUS
 62
     7
 10
38.00001
 20
-34.99998
 40
4.283
  0
CIRCLE
  8
0
  6
CONTINUOUS
 62
     7
 10
38.00001
 20
-34.99998
 40
4.864
  0
ARC
  8
0
  6
DASHED
 62
     7
 10
50.50031
 20
-37.50002
 40
12.4997
 50
343.7396
 51
16.26039
  0
ARC
  8
0
  6
CONTINUOUS
 62
     7
 10
50.50031
 20
-44.49994
 40
12.4997
 50
343.7396
 51
16.26039
  0
CIRCLE
  8
0
  6
CONTINUOUS
 62
     7
 10
-112.0
 20
84.99999
 40
2.75
  0
ARC
  8
0
  6
CONTINUOUS
 62
     7
 10
-83.16669
 20
113.9378
 40
4.33333
 50
152.2043
 51
207.7957
  0
ARC
  8
0
  6
CONTINUOUS
 62
     7
 10
-70.9167
 20
120.0
 40
16.58332
 50
165.8946
 51
194.1052
  0
ARC
  8
0
  6
CONTINUOUS
 62
     7
 10
-134.5833
 20
120.0
 40
16.58332
 50
345.8946
 51
14.1053
  0
ARC
  8
0
  6
CONTINUOUS
 62
     7
 10
-122.3333
 20
113.9378
 40
4.33333
 50
332.2041
 51
27.79561
  0
ARC
  8
0
  6
CONTINUOUS
 62
     7
 10
-83.16669
 20
126.0622
 40
4.33333
 50
152.2041
 51
207.7956
  0
ARC
  8
0
  6
CONTINUOUS
 62
     7
 10
-122.3333
 20
126.0622
 40
4.33333
 50
332.2043
 51
27.79584
  0
CIRCLE
  8
0
  6
CONTINUOUS
 62
     7
 10
9.99998
 20
120.0
 40
3.3
  0
CIRCLE
  8
0
  6
CONTINUOUS
 62
     7
 10
9.99998
 20
120.0
 40
5.5
  0
CIRCLE
  8
0
  6
CONTINUOUS
 62
     7
 10
24.99998
 20
155.0
 40
2.5
  0
CIRCLE
  8
0
  6
CONTINUOUS
 62
     7
 10
24.99998
 20
155.0
 40
2.065
  0
CIRCLE
  8
0
  6
CONTINUOUS
 62
     7
 10
-112.0
 20
155.0
 40
2.75
  0
CIRCLE
  8
0
  6
CONTINUOUS
 62
     7
 10
135.0
 20
155.0
 40
2.75
  0
ARC
  8
0
  6
CONTINUOUS
 62
     7
 10
145.3333
 20
126.0622
 40
4.33333
 50
152.2041
 51
207.7957
  0
CIRCLE
  8
0
  6
CONTINUOUS
 62
     7
 10
135.0
 20
84.99999
 40
2.75
  0
ARC
  8
0
  6
CONTINUOUS
 62
     7
 10
140.6667
 20
113.9378
 40
4.33333
 50
332.2041
 51
27.79566
  0
ARC
  8
0
  6
CONTINUOUS
 62
     7
 10
128.4167
 20
120.0
 40
16.58333
 50
345.8946
 51
14.1053
  0
ARC
  8
0
  6
CONTINUOUS
 62
     7
 10
157.5833
 20
120.0
 40
16.58332
 50
165.8946
 51
194.1052
  0
ARC
  8
0
  6
CONTINUOUS
 62
     7
 10
145.3333
 20
113.9378
 40
4.33333
 50
152.2043
 51
207.7957
  0
ARC
  8
0
  6
CONTINUOUS
 62
     7
 10
140.6667
 20
126.0622
 40
4.33333
 50
332.2043
 51
27.79584
  0
ARC
  8
0
  6
CONTINUOUS
 62
     7
 10
-117.6667
 20
113.9378
 40
4.33333
 50
152.2043
 51
207.7957
  0
ARC
  8
0
  6
CONTINUOUS
 62
     7
 10
-105.4167
 20
120.0
 40
16.58332
 50
165.8946
 51
194.1052
  0
ARC
  8
0
  6
CONTINUOUS
 62
     7
 10
-117.6667
 20
126.0622
 40
4.33333
 50
152.2041
 51
207.7956
  0
ARC
  8
0
  6
CONTINUOUS
 62
     7
 10
58.16666
 20
126.0622
 40
4.33333
 50
332.2043
 51
27.79582
  0
ARC
  8
0
  6
CONTINUOUS
 62
     7
 10
45.91666
 20
120.0
 40
16.58332
 50
345.8946
 51
14.1053
  0
ARC
  8
0
  6
CONTINUOUS
 62
     7
 10
58.16666
 20
113.9378
 40
4.33333
 50
332.2041
 51
27.79561
  0
CIRCLE
  8
0
  6
CONTINUOUS
 62
     7
 10
135.0
 20
84.99999
 40
4.75
  0
CIRCLE
  8
0
  6
CONTINUOUS
 62
     7
 10
-112.0
 20
155.0
 40
4.75
  0
CIRCLE
  8
0
  6
CONTINUOUS
 62
     7
 10
-112.0
 20
84.99999
 40
4.75
  0
CIRCLE
  8
0
  6
CONTINUOUS
 62
     7
 10
135.0
 20
155.0
 40
4.75
  0
CIRCLE
  8
0
  6
CONTINUOUS
 62
     7
 10
-35.00002
 20
120.0
 40
5.5
  0
CIRCLE
  8
0
  6
CONTINUOUS
 62
     7
 10
-35.00002
 20
120.0
 40
3.3
  0
CIRCLE
  8
0
  6
CONTINUOUS
 62
     7
 10
-50.00002
 20
155.0
 40
2.065
  0
CIRCLE
  8
0
  6
CONTINUOUS
 62
     7
 10
-50.00002
 20
155.0
 40
2.5
  0
CIRCLE
  8
0
  6
CONTINUOUS
 62
     7
 10
-50.00002
 20
84.99999
 40
2.5
  0
CIRCLE
  8
0
  6
CONTINUOUS
 62
     7
 10
-50.00002
 20
84.99999
 40
2.065
  0
CIRCLE
  8
0
  6
CONTINUOUS
 62
     7
 10
24.99998
 20
84.99999
 40
2.065
  0
CIRCLE
  8
0
  6
CONTINUOUS
 62
     7
 10
24.99998
 20
84.99999
 40
2.5
  0
CIRCLE
  8
0
  6
CONTINUOUS
 62
     7
 10
-70.00002
 20
120.0
 40
3.0
  0
ARC
  8
0
  6
CONTINUOUS
 62
     7
 10
45.99998
 20
120.0
 40
3.0
 50
269.9999
 51
89.99999
  0
ARC
  8
0
  6
CONTINUOUS
 62
     7
 10
43.99998
 20
120.0
 40
3.0
 50
89.99999
 51
270.0
  0
CIRCLE
  8
0
  6
CONTINUOUS
 62
     7
 10
-111.0
 20
-134.9999
 40
3.0
  0
CIRCLE
  8
0
  6
CONTINUOUS
 62
     7
 10
-112.0
 20
-119.9999
 40
2.75
  0
ARC
  8
0
  6
CONTINUOUS
 62
     7
 10
-83.16666
 20
-148.9378
 40
4.33333
 50
152.2043
 51
207.7957
  0
ARC
  8
0
  6
CONTINUOUS
 62
     7
 10
-70.91668
 20
-154.9999
 40
16.58332
 50
165.8947
 51
194.1053
  0
ARC
  8
0
  6
CONTINUOUS
 62
     7
 10
-134.5833
 20
-154.9999
 40
16.58332
 50
345.8946
 51
14.10533
  0
ARC
  8
0
  6
CONTINUOUS
 62
     7
 10
-122.3333
 20
-148.9378
 40
4.33333
 50
332.2043
 51
27.79575
  0
ARC
  8
0
  6
CONTINUOUS
 62
     7
 10
-83.16666
 20
-161.0621
 40
4.33333
 50
152.2043
 51
207.7957
  0
ARC
  8
0
  6
CONTINUOUS
 62
     7
 10
-122.3333
 20
-161.0621
 40
4.33333
 50
332.2043
 51
27.7957
  0
CIRCLE
  8
0
  6
CONTINUOUS
 62
     7
 10
10.00001
 20
-154.9999
 40
3.3
  0
CIRCLE
  8
0
  6
CONTINUOUS
 62
     7
 10
10.00001
 20
-154.9999
 40
5.5
  0
CIRCLE
  8
0
  6
CONTINUOUS
 62
     7
 10
-34.99999
 20
-154.9999
 40
5.5
  0
CIRCLE
  8
0
  6
CONTINUOUS
 62
     7
 10
-34.99999
 20
-154.9999
 40
3.3
  0
CIRCLE
  8
0
  6
CONTINUOUS
 62
     7
 10
-111.0
 20
-174.9999
 40
3.0
  0
CIRCLE
  8
0
  6
CONTINUOUS
 62
     7
 10
-112.0
 20
-189.9999
 40
2.75
  0
CIRCLE
  8
0
  6
CONTINUOUS
 62
     7
 10
134.0
 20
-174.9999
 40
3.0
  0
CIRCLE
  8
0
  6
CONTINUOUS
 62
     7
 10
135.0
 20
-189.9999
 40
2.75
  0
ARC
  8
0
  6
CONTINUOUS
 62
     7
 10
145.3334
 20
-161.0621
 40
4.33333
 50
152.2043
 51
207.7957
  0
CIRCLE
  8
0
  6
CONTINUOUS
 62
     7
 10
134.0
 20
-134.9999
 40
3.0
  0
CIRCLE
  8
0
  6
CONTINUOUS
 62
     7
 10
135.0
 20
-119.9999
 40
2.75
  0
ARC
  8
0
  6
CONTINUOUS
 62
     7
 10
140.6667
 20
-148.9378
 40
4.33333
 50
332.2043
 51
27.79575
  0
ARC
  8
0
  6
CONTINUOUS
 62
     7
 10
128.4167
 20
-154.9999
 40
16.58333
 50
345.8946
 51
14.10533
  0
ARC
  8
0
  6
CONTINUOUS
 62
     7
 10
157.5834
 20
-154.9999
 40
16.58333
 50
165.8947
 51
194.1053
  0
ARC
  8
0
  6
CONTINUOUS
 62
     7
 10
145.3334
 20
-148.9378
 40
4.33333
 50
152.2043
 51
207.7957
  0
ARC
  8
0
  6
CONTINUOUS
 62
     7
 10
140.6667
 20
-161.0621
 40
4.33333
 50
332.2043
 51
27.79575
  0
ARC
  8
0
  6
CONTINUOUS
 62
     7
 10
-117.6666
 20
-148.9378
 40
4.33333
 50
152.2043
 51
207.7957
  0
ARC
  8
0
  6
CONTINUOUS
 62
     7
 10
-105.4166
 20
-154.9999
 40
16.58332
 50
165.8947
 51
194.1053
  0
ARC
  8
0
  6
CONTINUOUS
 62
     7
 10
-117.6666
 20
-161.0621
 40
4.33333
 50
152.2043
 51
207.7957
  0
ARC
  8
0
  6
CONTINUOUS
 62
     7
 10
58.16669
 20
-161.0621
 40
4.33333
 50
332.2043
 51
27.79573
  0
ARC
  8
0
  6
CONTINUOUS
 62
     7
 10
45.91669
 20
-154.9999
 40
16.58332
 50
345.8946
 51
14.10533
  0
ARC
  8
0
  6
CONTINUOUS
 62
     7
 10
58.16669
 20
-148.9378
 40
4.33333
 50
332.2043
 51
27.79573
  0
CIRCLE
  8
0
  6
CONTINUOUS
 62
     7
 10
-261.9999
 20
-35.0
 40
6.0
  0
CIRCLE
  8
0
  6
CONTINUOUS
 62
     7
 10
-242.0
 20
-41.0
 40
6.0
  0
CIRCLE
  8
0
  6
CONTINUOUS
 62
     7
 10
-242.0
 20
-41.0
 40
5.0
  0
CIRCLE
  8
0
  6
CONTINUOUS
 62
     7
 10
-261.9999
 20
-35.0
 40
7.5
  0
CIRCLE
  8
0
  6
CONTINUOUS
 62
     7
 10
-242.0
 20
-41.0
 40
7.0
  0
CIRCLE
  8
0
  6
CONTINUOUS
 62
     7
 10
-222.0
 20
-35.0
 40
6.0
  0
CIRCLE
  8
0
  6
CONTINUOUS
 62
     7
 10
-207.0
 20
-35.0
 40
2.5
  0
CIRCLE
  8
0
  6
CONTINUOUS
 62
     7
 10
-207.0
 20
-35.0
 40
2.065
  0
CIRCLE
  8
0
  6
CONTINUOUS
 62
     7
 10
-222.0
 20
-35.0
 40
7.5
  0
CIRCLE
  8
0
  6
CONTINUOUS
 62
     7
 10
-276.9999
 20
-35.0
 40
2.5
  0
CIRCLE
  8
0
  6
CONTINUOUS
 62
     7
 10
-276.9999
 20
-35.0
 40
2.065
  0
CIRCLE
  8
0
  6
CONTINUOUS
 62
     7
 10
-242.0
 20
-41.0
 40
4.29769
  0
ARC
  8
0
  6
CONTINUOUS
 62
     7
 10
-261.9999
 20
-35.0
 40
7.0
 50
275.6898
 51
264.3099
  0
ARC
  8
0
  6
CONTINUOUS
 62
     7
 10
-222.0
 20
-35.0
 40
7.0
 50
275.6901
 51
264.31
  0
CIRCLE
  8
0
  6
CONTINUOUS
 62
     7
 10
-222.0
 20
-35.0
 40
4.283
  0
CIRCLE
  8
0
  6
CONTINUOUS
 62
     7
 10
-222.0
 20
-35.0
 40
4.864
  0
CIRCLE
  8
0
  6
CONTINUOUS
 62
     7
 10
-261.9999
 20
-35.0
 40
4.283
  0
CIRCLE
  8
0
  6
CONTINUOUS
 62
     7
 10
-261.9999
 20
-35.0
 40
4.864
  0
CIRCLE
  8
0
  6
CONTINUOUS
 62
     7
 10
242.0001
 20
-34.99998
 40
4.864
  0
CIRCLE
  8
0
  6
CONTINUOUS
 62
     7
 10
242.0001
 20
-34.99998
 40
6.0
  0
CIRCLE
  8
0
  6
CONTINUOUS
 62
     7
 10
262.0001
 20
-40.99998
 40
6.0
  0
CIRCLE
  8
0
  6
CONTINUOUS
 62
     7
 10
262.0001
 20
-40.99998
 40
5.0
  0
CIRCLE
  8
0
  6
CONTINUOUS
 62
     7
 10
242.0001
 20
-34.99998
 40
7.5
  0
CIRCLE
  8
0
  6
CONTINUOUS
 62
     7
 10
262.0001
 20
-40.99998
 40
7.0
  0
CIRCLE
  8
0
  6
CONTINUOUS
 62
     7
 10
282.0001
 20
-34.99998
 40
4.864
  0
CIRCLE
  8
0
  6
CONTINUOUS
 62
     7
 10
282.0001
 20
-34.99998
 40
4.283
  0
CIRCLE
  8
0
  6
CONTINUOUS
 62
     7
 10
282.0001
 20
-34.99998
 40
6.0
  0
CIRCLE
  8
0
  6
CONTINUOUS
 62
     7
 10
297.0001
 20
-34.99998
 40
2.5
  0
CIRCLE
  8
0
  6
CONTINUOUS
 62
     7
 10
297.0001
 20
-34.99998
 40
2.065
  0
CIRCLE
  8
0
  6
CONTINUOUS
 62
     7
 10
282.0001
 20
-34.99998
 40
7.5
  0
CIRCLE
  8
0
  6
CONTINUOUS
 62
     7
 10
227.0001
 20
-34.99998
 40
2.5
  0
CIRCLE
  8
0
  6
CONTINUOUS
 62
     7
 10
227.0001
 20
-34.99998
 40
2.065
  0
CIRCLE
  8
0
  6
CONTINUOUS
 62
     7
 10
242.0001
 20
-34.99998
 40
4.283
  0
CIRCLE
  8
0
  6
CONTINUOUS
 62
     7
 10
262.0001
 20
-40.99998
 40
4.29769
  0
ARC
  8
0
  6
CONTINUOUS
 62
     7
 10
282.0001
 20
-34.99998
 40
7.0
 50
275.6901
 51
264.3102
  0
ARC
  8
0
  6
CONTINUOUS
 62
     7
 10
242.0001
 20
-34.99998
 40
7.0
 50
275.6898
 51
264.3098
  0
TEXT
  8
0
  6
CONTINUOUS
 62
     7
 10
-324.2352
 20
180.5125
 40
10.0
  1
MODEL : SUP 25*ST(75)
 41
0.8
  7
STANDARD
  0
TEXT
  8
0
  6
CONTINUOUS
 62
     7
 10
-189.44633118
 20
68.70997
 40
7.0
  1
2-M12*1
 41
0.8
  7
STANDARD
  0
TEXT
  8
0
  6
CONTINUOUS
 62
     7
 10
-186.3775
 20
-82.85737
 40
7.0
  1
2-PT1/8
 41
0.8
  7
STANDARD
  0
TEXT
  8
0
  6
CONTINUOUS
 62
     7
 10
-333.0235
 20
-226.2899
 40
7.0
  1
NOTE : A ,B ,C ,D ,E ,F
 41
0.8
  7
STANDARD
  0
TEXT
  8
0
  6
CONTINUOUS
 62
     7
 10
-226.4654837
 20
-226.2899
 40
7.0
  1
CATALOG
 41
0.8
  7
STANDARD
  0
TEXT
  8
0
  6
CONTINUOUS
 62
     7
 10
229.2196
 20
236.4974
 40
8.0
  1
DATE : JAN ,1988
 41
0.8
  7
STANDARD
  0
TEXT
  8
0
  6
CONTINUOUS
 62
     7
 10
-342.9299
 20
235.5574
 40
10.0
  1
SLIDE UNIT
 41
0.8
  7
STANDARD
  0
TEXT
  8
0
  6
CONTINUOUS
 62
     7
 10
-298.9224
 20
-82.85737
 40
7.0
  1
4-M5*0.8
 41
0.8
  7
STANDARD
  0
TEXT
  8
0
  6
CONTINUOUS
 62
     7
 10
-22.83
 20
-87.28997
 40
7.0
  1
109+(ST*2)
 41
0.8
  7
STANDARD
  0
TEXT
  8
0
  6
CONTINUOUS
 62
     7
 10
-14.83
 20
13.70995
 40
7.0
  1
A
 41
0.8
  7
STANDARD
  0
TEXT
  8
0
  6
CONTINUOUS
 62
     7
 10
-14.83004
 20
53.70992
 40
7.0
  1
E
 41
0.8
  7
STANDARD
  0
TEXT
  8
0
  6
CONTINUOUS
 62
     7
 10
-62.08004
 20
53.70992
 40
7.0
  1
F
 41
0.8
  7
STANDARD
  0
TEXT
  8
0
  6
CONTINUOUS
 62
     7
 10
58.60431
 20
33.70991
 40
7.0
  1
4-M5*0.8
 41
0.8
  7
STANDARD
  0
TEXT
  8
0
  6
CONTINUOUS
 62
     7
 10
-68.20642
 20
33.70995
 40
7.0
  1
D
 41
0.8
  7
STANDARD
  0
TEXT
  8
0
  6
CONTINUOUS
 62
     7
 10
-14.82993
 20
33.70995
 40
7.0
  1
C
 41
0.8
  7
STANDARD
  0
TEXT
  8
0
  6
CONTINUOUS
 62
     7
 10
-79.58
 20
13.70995
 40
7.0
  1
B
 41
0.8
  7
STANDARD
  0
TEXT
  8
0
  6
CONTINUOUS
 62
     7
 10
-28.82999
 20
183.7099
 40
7.0
  1
69+ST
 41
0.8
  7
STANDARD
  0
ENDSEC
  0
EOF
