  0
SECTION
  2
HEADER
  9
$ACADVER
  1
AC1002
  9
$INSBASE
 10
0.0
 20
0.0
  9
$EXTMIN
 10
-370.8735
 20
-254.5584
  9
$EXTMAX
 10
370.8735
 20
254.5584
  9
$LIMMIN
 10
0.0
 20
0.0
  9
$LIMMAX
 10
12.0
 20
9.0
  9
$VIEWCTR
 10
28.60926417
 20
0.0
  9
$VIEWSIZE
 40
509.1168
  9
$SNAPMODE
 70
     0
  9
$SNAPUNIT
 10
1.0
 20
1.0
  9
$SNAPBASE
 10
0.0
 20
0.0
  9
$SNAPANG
 50
0.0
  9
$SNAPSTYLE
 70
     0
  9
$SNAPISOPAIR
 70
     0
  9
$GRIDMODE
 70
     0
  9
$GRIDUNIT
 10
0.0
 20
0.0
  9
$ORTHOMODE
 70
     0
  9
$REGENMODE
 70
     1
  9
$FILLMODE
 70
     1
  9
$QTEXTMODE
 70
     0
  9
$DRAGMODE
 70
     2
  9
$LTSCALE
 40
1.0
  9
$OSMODE
 70
     0
  9
$ATTMODE
 70
     1
  9
$TEXTSIZE
 40
0.2
  9
$TRACEWID
 40
0.05
  9
$TEXTSTYLE
  7
AAA
  9
$CLAYER
  8
0
  9
$CELTYPE
  6
BYLAYER
  9
$CECOLOR
 62
   256
  9
$DIMSCALE
 40
1.0
  9
$DIMASZ
 40
0.18
  9
$DIMEXO
 40
0.0625
  9
$DIMDLI
 40
0.38
  9
$DIMRND
 40
0.0
  9
$DIMDLE
 40
0.0
  9
$DIMEXE
 40
0.18
  9
$DIMTP
 40
0.0
  9
$DIMTM
 40
0.0
  9
$DIMTXT
 40
0.18
  9
$DIMCEN
 40
0.09
  9
$DIMTSZ
 40
0.0
  9
$DIMTOL
 70
     0
  9
$DIMLIM
 70
     0
  9
$DIMTIH
 70
     1
  9
$DIMTOH
 70
     1
  9
$DIMSE1
 70
     0
  9
$DIMSE2
 70
     0
  9
$DIMTAD
 70
     0
  9
$DIMZIN
 70
     0
  9
$DIMBLK
  1

  9
$LUNITS
 70
     2
  9
$LUPREC
 70
     4
  9
$AXISMODE
 70
     0
  9
$AXISUNIT
 10
0.0
 20
0.0
  9
$SKETCHINC
 40
0.1
  9
$FILLETRAD
 40
0.0
  9
$AUNITS
 70
     0
  9
$AUPREC
 70
     0
  9
$MENU
  1
ACAD
  9
$ELEVATION
 40
0.0
  9
$THICKNESS
 40
0.0
  9
$VIEWDIR
 10
0.0
 20
0.0
 30
1.0
  9
$LIMCHECK
 70
     0
  9
$BLIPMODE
 70
     1
  9
$CHAMFERA
 40
0.0
  9
$CHAMFERB
 40
0.0
  9
$FASTZOOM
 70
     1
  9
$SKPOLY
 70
     0
  9
$TDCREATE
 40
2447816.7309375495
  9
$TDUPDATE
 40
2447816.7309375495
  9
$TDINDWG
 40
0.0021990741
  9
$TDUSRTIMER
 40
0.0021990741
  9
$USRTIMER
 70
     1
  9
$ANGBASE
 50
0.0
  9
$ANGDIR
 70
     0
  9
$PDMODE
 70
     0
  9
$PDSIZE
 40
0.0
  9
$PLINEWID
 40
0.0
  9
$COORDS
 70
     0
  9
$USERI1
 70
     0
  9
$USERI2
 70
     0
  9
$USERI3
 70
     0
  9
$USERI4
 70
     0
  9
$USERI5
 70
     0
  9
$USERR1
 40
0.0
  9
$USERR2
 40
0.0
  9
$USERR3
 40
0.0
  9
$USERR4
 40
0.0
  9
$USERR5
 40
0.0
  0
ENDSEC
  0
SECTION
  2
TABLES
  0
TABLE
  2
LTYPE
 70
     4
  0
LTYPE
  2
CONTINUOUS
 70
    64
  3
SOLID
 72
    65
 73
     0
 40
0.0
  0
LTYPE
  2
DASHED
 70
    64
  3
DASHED
 72
    65
 73
     2
 40
0.75
 49
0.5
 49
-0.25
  0
LTYPE
  2
CENTER
 70
    64
  3
CENTER
 72
    65
 73
     4
 40
2.0
 49
1.25
 49
-0.25
 49
0.25
 49
-0.25
  0
ENDTAB
  0
TABLE
  2
LAYER
 70
     1
  0
LAYER
  2
0
 70
    64
 62
     7
  6
CONTINUOUS
  0
ENDTAB
  0
TABLE
  2
STYLE
 70
     2
  0
STYLE
  2
AAA
 70
     0
 40
0.0
 41
1.0
 50
0.0
 71
     0
 42
0.2
  3
TXT
  4

  0
STYLE
  2
STANDARD
 70
    64
 40
0.0
 41
1.0
 50
0.0
 71
     0
 42
0.2
  3
TXT
  4
BIGFONT
  0
ENDTAB
  0
TABLE
  2
VIEW
 70
     0
  0
ENDTAB
  0
ENDSEC
  0
SECTION
  2
BLOCKS
  0
ENDSEC
  0
SECTION
  2
ENTITIES
  0
LINE
  8
0
  6
CONTINUOUS
 62
     2
 10
-152.3901
 20
45.99998
 11
-124.1
 21
94.99998
  0
LINE
  8
0
  6
CONTINUOUS
 62
     2
 10
-190.40765506
 20
45.99996
 11
-152.3901
 21
45.99996
  0
LINE
  8
0
  6
CONTINUOUS
 62
     2
 10
-124.1
 20
94.99996
 11
-125.6
 21
89.4019
  0
LINE
  8
0
  6
CONTINUOUS
 62
     2
 10
-124.0999
 20
94.99994
 11
-128.198
 21
90.90187
  0
LINE
  8
0
  6
CONTINUOUS
 62
     2
 10
-258.2499
 20
-27.16506
 11
-294.5277
 21
-89.99996
  0
LINE
  8
0
  6
CONTINUOUS
 62
     2
 10
-294.5277
 20
-89.99997
 11
-243.00390253
 21
-89.99997
  0
LINE
  8
0
  6
CONTINUOUS
 62
     2
 10
-258.2499
 20
-27.16508
 11
-262.348
 21
-31.26314
  0
LINE
  8
0
  6
CONTINUOUS
 62
     2
 10
-258.2501
 20
-27.16502
 11
-259.7501
 21
-32.76308
  0
LINE
  8
0
  6
CONTINUOUS
 62
     7
 10
-263.44279579
 20
-223.0
 11
-253.44279579
 21
-223.0
  0
LINE
  8
0
  6
CONTINUOUS
 62
     7
 10
-253.44289579
 20
-223.0
 11
-259.04099579
 21
-224.5
  0
LINE
  8
0
  6
CONTINUOUS
 62
     7
 10
-253.44289579
 20
-223.0001
 11
-259.04099579
 21
-221.5001
  0
LINE
  8
0
  6
CONTINUOUS
 62
     7
 10
270.8235
 20
-236.1515
 11
270.8235
 21
-245.8286
  0
LINE
  8
0
  6
CONTINUOUS
 62
     7
 10
275.2473
 20
-235.0456
 11
275.2473
 21
-249.1464
  0
LINE
  8
0
  6
CONTINUOUS
 62
     7
 10
258.3816
 20
-232.8337
 11
258.3816
 21
-236.1515
  0
LINE
  8
0
  6
CONTINUOUS
 62
     7
 10
258.3816
 20
-236.1515
 11
270.8235
 21
-236.1515
  0
LINE
  8
0
  6
CONTINUOUS
 62
     7
 10
258.3816
 20
-249.1464
 11
275.2473
 21
-249.1464
  0
LINE
  8
0
  6
CONTINUOUS
 62
     7
 10
258.3816
 20
-245.8286
 11
270.8235
 21
-245.8286
  0
LINE
  8
0
  6
CONTINUOUS
 62
     7
 10
258.3816
 20
-232.8337
 11
273.0353
 21
-232.8337
  0
LINE
  8
0
  6
CONTINUOUS
 62
     7
 10
218.3291
 20
-225.9564
 11
370.8735
 21
-225.9564
  0
LINE
  8
0
  6
CONTINUOUS
 62
     7
 10
-218.3291
 20
225.9563
 11
-218.3291
 21
254.5584
  0
LINE
  8
0
  6
CONTINUOUS
 62
     7
 10
-370.8735
 20
225.9563
 11
-218.3291
 21
225.9563
  0
LINE
  8
0
  6
CONTINUOUS
 62
     7
 10
-370.8735
 20
254.5584
 11
370.8735
 21
254.5584
  0
LINE
  8
0
  6
CONTINUOUS
 62
     7
 10
-370.8735
 20
-254.5584
 11
370.8735
 21
-254.5584
  0
LINE
  8
0
  6
CONTINUOUS
 62
     7
 10
370.8735
 20
254.5584
 11
370.8735
 21
-254.5584
  0
LINE
  8
0
  6
CONTINUOUS
 62
     7
 10
-370.8735
 20
-254.5584
 11
-370.8735
 21
254.5584
  0
LINE
  8
0
  6
CONTINUOUS
 62
     7
 10
277.7356
 20
-232.8337
 11
277.7356
 21
-236.1515
  0
LINE
  8
0
  6
CONTINUOUS
 62
     7
 10
293.4953
 20
-236.1515
 11
293.4953
 21
-246.9346
  0
LINE
  8
0
  6
CONTINUOUS
 62
     7
 10
218.3291
 20
-225.9564
 11
218.3291
 21
-254.5584
  0
LINE
  8
0
  6
CONTINUOUS
 62
     7
 10
218.3291
 20
254.5584
 11
218.3291
 21
225.9563
  0
LINE
  8
0
  6
CONTINUOUS
 62
     7
 10
218.3291
 20
225.9563
 11
370.8735
 21
225.9563
  0
LINE
  8
0
  6
CONTINUOUS
 62
     7
 10
293.9378
 20
-232.5849
 11
295.5138
 21
-232.5849
  0
LINE
  8
0
  6
CONTINUOUS
 62
     7
 10
293.9378
 20
-230.373
 11
295.5138
 21
-230.373
  0
LINE
  8
0
  6
CONTINUOUS
 62
     7
 10
295.5138
 20
-230.373
 11
295.5138
 21
-232.5849
  0
LINE
  8
0
  6
CONTINUOUS
 62
     7
 10
293.9378
 20
-230.373
 11
293.9378
 21
-232.5849
  0
LINE
  8
0
  6
CONTINUOUS
 62
     7
 10
293.1082
 20
-230.373
 11
293.1082
 21
-232.5849
  0
LINE
  8
0
  6
CONTINUOUS
 62
     7
 10
291.6982
 20
-230.373
 11
291.6982
 21
-232.5849
  0
LINE
  8
0
  6
CONTINUOUS
 62
     7
 10
291.6982
 20
-232.5849
 11
293.1082
 21
-232.5849
  0
LINE
  8
0
  6
CONTINUOUS
 62
     7
 10
301.5135
 20
-230.373
 11
305.9372
 21
-230.373
  0
LINE
  8
0
  6
CONTINUOUS
 62
     7
 10
291.6982
 20
-230.373
 11
293.1082
 21
-230.373
  0
LINE
  8
0
  6
CONTINUOUS
 62
     7
 10
282.4993
 20
-230.373
 11
286.2008
 21
-230.373
  0
LINE
  8
0
  6
CONTINUOUS
 62
     7
 10
327.5038
 20
-236.4046
 11
328.7298
 21
-235.9169
  0
LINE
  8
0
  6
CONTINUOUS
 62
     7
 10
327.5033
 20
-236.4044
 11
327.5033
 21
-249.1464
  0
LINE
  8
0
  6
CONTINUOUS
 62
     7
 10
323.0794
 20
-249.1464
 11
327.5033
 21
-249.1464
  0
LINE
  8
0
  6
CONTINUOUS
 62
     7
 10
313.9554
 20
-241.7926
 11
323.0795
 21
-238.1638
  0
LINE
  8
0
  6
CONTINUOUS
 62
     7
 10
313.9556
 20
-238.222
 11
326.8062
 21
-233.1111
  0
LINE
  8
0
  6
CONTINUOUS
 62
     7
 10
323.0794
 20
-238.1637
 11
323.0794
 21
-249.1464
  0
LINE
  8
0
  6
CONTINUOUS
 62
     7
 10
327.5033
 20
-231.3684
 11
327.5033
 21
-232.0833
  0
LINE
  8
0
  6
CONTINUOUS
 62
     7
 10
330.821
 20
-231.3684
 11
330.821
 21
-232.8337
  0
LINE
  8
0
  6
CONTINUOUS
 62
     7
 10
313.9554
 20
-238.2218
 11
313.9554
 21
-241.7924
  0
LINE
  8
0
  6
CONTINUOUS
 62
     7
 10
327.5033
 20
-231.3684
 11
330.821
 21
-231.3684
  0
LINE
  8
0
  6
CONTINUOUS
 62
     7
 10
308.3422
 20
-240.195
 11
311.2961
 21
-238.8176
  0
LINE
  8
0
  6
CONTINUOUS
 62
     7
 10
305.9372
 20
-242.7344
 11
305.9372
 21
-249.1464
  0
LINE
  8
0
  6
CONTINUOUS
 62
     7
 10
301.5135
 20
-243.379
 11
301.5135
 21
-249.1464
  0
LINE
  8
0
  6
CONTINUOUS
 62
     7
 10
305.9372
 20
-232.8337
 11
310.3611
 21
-232.8337
  0
LINE
  8
0
  6
CONTINUOUS
 62
     7
 10
305.9372
 20
-230.373
 11
305.9372
 21
-232.8337
  0
LINE
  8
0
  6
CONTINUOUS
 62
     7
 10
301.5135
 20
-230.373
 11
301.5135
 21
-232.8337
  0
LINE
  8
0
  6
CONTINUOUS
 62
     7
 10
312.5729
 20
-235.0456
 11
312.5729
 21
-236.8127
  0
LINE
  8
0
  6
CONTINUOUS
 62
     7
 10
308.3424
 20
-240.1951
 11
312.5734
 21
-242.1681
  0
LINE
  8
0
  6
CONTINUOUS
 62
     7
 10
305.9373
 20
-242.7344
 11
312.5731
 21
-245.8286
  0
LINE
  8
0
  6
CONTINUOUS
 62
     7
 10
296.2602
 20
-242.1678
 11
296.2602
 21
-245.8286
  0
LINE
  8
0
  6
CONTINUOUS
 62
     7
 10
296.2606
 20
-242.168
 11
309.1624
 21
-236.1518
  0
LINE
  8
0
  6
CONTINUOUS
 62
     7
 10
296.2601
 20
-245.8285
 11
301.5135
 21
-243.3788
  0
LINE
  8
0
  6
CONTINUOUS
 62
     7
 10
312.5729
 20
-242.1678
 11
312.5729
 21
-245.8286
  0
LINE
  8
0
  6
CONTINUOUS
 62
     7
 10
296.2602
 20
-232.8337
 11
296.2602
 21
-236.1515
  0
LINE
  8
0
  6
CONTINUOUS
 62
     7
 10
301.5135
 20
-249.1464
 11
305.9372
 21
-249.1464
  0
LINE
  8
0
  6
CONTINUOUS
 62
     7
 10
296.2602
 20
-236.1515
 11
309.162
 21
-236.1515
  0
LINE
  8
0
  6
CONTINUOUS
 62
     7
 10
296.2602
 20
-232.8337
 11
301.5135
 21
-232.8337
  0
LINE
  8
0
  6
CONTINUOUS
 62
     7
 10
285.5413
 20
-232.8335
 11
286.2006
 21
-230.3728
  0
LINE
  8
0
  6
CONTINUOUS
 62
     7
 10
282.1066
 20
-232.8337
 11
282.766
 21
-230.373
  0
LINE
  8
0
  6
CONTINUOUS
 62
     7
 10
285.5415
 20
-232.8337
 11
290.1775
 21
-232.8337
  0
LINE
  8
0
  6
CONTINUOUS
 62
     7
 10
284.6525
 20
-236.1515
 11
289.0716
 21
-236.1515
  0
LINE
  8
0
  6
CONTINUOUS
 62
     7
 10
286.6428
 20
-249.1464
 11
291.2835
 21
-249.1464
  0
LINE
  8
0
  6
CONTINUOUS
 62
     7
 10
285.7536
 20
-245.8286
 11
286.6426
 21
-249.1463
  0
LINE
  8
0
  6
CONTINUOUS
 62
     7
 10
285.7537
 20
-245.8286
 11
289.0716
 21
-245.8286
  0
LINE
  8
0
  6
CONTINUOUS
 62
     7
 10
281.1707
 20
-249.1466
 11
284.6527
 21
-236.1517
  0
LINE
  8
0
  6
CONTINUOUS
 62
     7
 10
277.7356
 20
-236.1515
 11
281.2176
 21
-236.1515
  0
LINE
  8
0
  6
CONTINUOUS
 62
     7
 10
277.7355
 20
-249.1463
 11
281.2176
 21
-236.1515
  0
LINE
  8
0
  6
CONTINUOUS
 62
     7
 10
277.7356
 20
-249.1464
 11
281.1705
 21
-249.1464
  0
LINE
  8
0
  6
CONTINUOUS
 62
     7
 10
277.7356
 20
-232.8337
 11
282.1066
 21
-232.8337
  0
LINE
  8
0
  6
CONTINUOUS
 62
     7
 10
258.3816
 20
-245.8286
 11
258.3816
 21
-249.1464
  0
LINE
  8
0
  6
CONTINUOUS
 62
     7
 10
289.0716
 20
-236.1515
 11
289.0716
 21
-245.8286
  0
LINE
  8
0
  6
CONTINUOUS
 62
     2
 10
-117.9999
 20
167.6569
 11
-112.4019
 21
169.1568
  0
LINE
  8
0
  6
CONTINUOUS
 62
     2
 10
-118.0
 20
134.6568
 11
-118.0
 21
172.6568
  0
LINE
  8
0
  6
CONTINUOUS
 62
     2
 10
-118.0
 20
167.6568
 11
179.0
 21
167.6568
  0
LINE
  8
0
  6
CONTINUOUS
 62
     2
 10
179.0
 20
172.6569
 11
179.0
 21
134.6568
  0
LINE
  8
0
  6
CONTINUOUS
 62
     2
 10
-118.0
 20
167.6569
 11
-112.4019
 21
166.1569
  0
LINE
  8
0
  6
CONTINUOUS
 62
     2
 10
178.9999
 20
167.6568
 11
173.4019
 21
169.1568
  0
LINE
  8
0
  6
CONTINUOUS
 62
     2
 10
179.0002
 20
167.6568
 11
173.4021
 21
166.1568
  0
LINE
  8
0
  6
CONTINUOUS
 62
     2
 10
-85.99999
 20
132.6568
 11
-85.99999
 21
152.6568
  0
LINE
  8
0
  6
CONTINUOUS
 62
     2
 10
-85.99999
 20
147.6568
 11
75.00001
 21
147.6568
  0
LINE
  8
0
  6
CONTINUOUS
 62
     2
 10
75.00001
 20
152.6568
 11
75.00001
 21
132.6568
  0
LINE
  8
0
  6
CONTINUOUS
 62
     2
 10
-85.99997
 20
147.6569
 11
-80.40192
 21
149.1569
  0
LINE
  8
0
  6
CONTINUOUS
 62
     2
 10
-86.00004
 20
147.657
 11
-80.40199
 21
146.157
  0
LINE
  8
0
  6
CONTINUOUS
 62
     2
 10
75.00011
 20
147.6569
 11
69.40202
 21
146.1569
  0
LINE
  8
0
  6
CONTINUOUS
 62
     2
 10
75.00002
 20
147.6567
 11
69.40199
 21
149.1566
  0
LINE
  8
0
  6
CONTINUOUS
 62
     2
 10
-85.99999
 20
67.34313
 11
-85.99999
 21
17.34316
  0
LINE
  8
0
  6
CONTINUOUS
 62
     2
 10
44.50001
 20
94.49998
 11
44.50001
 21
37.34316
  0
LINE
  8
0
  6
CONTINUOUS
 62
     2
 10
-70.49999
 20
94.49998
 11
-70.49999
 21
17.34316
  0
LINE
  8
0
  6
CONTINUOUS
 62
     2
 10
-55.49999
 20
94.49998
 11
-55.49999
 21
37.34316
  0
LINE
  8
0
  6
CONTINUOUS
 62
     2
 10
59.49998
 20
22.34317
 11
53.9019
 21
23.84323
  0
LINE
  8
0
  6
CONTINUOUS
 62
     2
 10
59.50008
 20
22.34311
 11
53.90203
 21
20.84311
  0
LINE
  8
0
  6
CONTINUOUS
 62
     2
 10
44.50011
 20
42.34288
 11
38.90205
 21
43.84289
  0
LINE
  8
0
  6
CONTINUOUS
 62
     2
 10
44.49995
 20
42.34311
 11
38.90191
 21
40.84311
  0
LINE
  8
0
  6
CONTINUOUS
 62
     2
 10
-55.5
 20
42.34327
 11
-49.90194
 21
40.84327
  0
LINE
  8
0
  6
CONTINUOUS
 62
     2
 10
-55.49997
 20
42.3432
 11
-49.90191
 21
43.8432
  0
LINE
  8
0
  6
CONTINUOUS
 62
     2
 10
-70.49998
 20
22.34335
 11
-64.90192
 21
20.84335
  0
LINE
  8
0
  6
CONTINUOUS
 62
     2
 10
-70.49998
 20
22.34318
 11
-64.90191
 21
23.84318
  0
LINE
  8
0
  6
CONTINUOUS
 62
     2
 10
45.75006
 20
97.83495
 11
47.25006
 21
92.23683
  0
LINE
  8
0
  6
CONTINUOUS
 62
     2
 10
45.75002
 20
97.8349
 11
49.84809
 21
93.73681
  0
LINE
  8
0
  6
CONTINUOUS
 62
     2
 10
76.25432
 20
44.99989
 11
117.92778734
 21
44.99989
  0
LINE
  8
0
  6
CONTINUOUS
 62
     2
 10
45.75
 20
97.83492
 11
76.25434
 21
44.99989
  0
LINE
  8
0
  6
CONTINUOUS
 62
     2
 10
-55.50001
 20
42.34314
 11
-61.09807
 21
43.84315
  0
LINE
  8
0
  6
CONTINUOUS
 62
     2
 10
-55.5
 20
42.34314
 11
-61.09804
 21
40.84314
  0
LINE
  8
0
  6
CONTINUOUS
 62
     2
 10
-70.50003
 20
22.34308
 11
-76.09809
 21
23.84305
  0
LINE
  8
0
  6
CONTINUOUS
 62
     2
 10
-70.50001
 20
22.3432
 11
-76.09806
 21
20.84317
  0
LINE
  8
0
  6
CONTINUOUS
 62
     2
 10
-85.99997
 20
22.34328
 11
-80.40191
 21
20.84328
  0
LINE
  8
0
  6
CONTINUOUS
 62
     2
 10
-86.00001
 20
22.34333
 11
-80.40194
 21
23.84333
  0
LINE
  8
0
  6
CONTINUOUS
 62
     2
 10
-85.99998
 20
42.34328
 11
-80.40192
 21
40.84328
  0
LINE
  8
0
  6
CONTINUOUS
 62
     2
 10
-85.99995
 20
42.34326
 11
-80.4019
 21
43.84326
  0
LINE
  8
0
  6
CONTINUOUS
 62
     2
 10
-85.99999
 20
22.34316
 11
59.50001
 21
22.34316
  0
LINE
  8
0
  6
CONTINUOUS
 62
     2
 10
-85.99999
 20
42.34313
 11
44.50001
 21
42.34313
  0
LINE
  8
0
  6
CONTINUOUS
 62
     2
 10
59.50001
 20
94.49998
 11
59.50001
 21
17.34316
  0
LINE
  8
0
  6
CONTINUOUS
 62
     7
 10
-118.0
 20
-51.99998
 11
179.0
 21
-51.99998
  0
LINE
  8
0
  6
CONTINUOUS
 62
     7
 10
-118.0
 20
-15.49998
 11
-106.0
 21
-15.49998
  0
LINE
  8
0
  6
CENTER
 62
     2
 10
-132.5
 20
-24.99998
 11
182.0
 21
-24.99998
  0
LINE
  8
0
  6
CENTER
 62
     2
 10
161.0
 20
-27.99998
 11
192.0
 21
-27.99998
  0
LINE
  8
0
  6
CENTER
 62
     2
 10
165.0
 20
-25.49998
 11
174.0
 21
-25.49998
  0
LINE
  8
0
  6
CENTER
 62
     2
 10
169.5
 20
-20.99998
 11
169.5
 21
-29.99998
  0
LINE
  8
0
  6
CONTINUOUS
 62
     7
 10
179.0
 20
-51.99998
 11
179.0
 21
-15.49998
  0
LINE
  8
0
  6
CONTINUOUS
 62
     7
 10
167.0
 20
-36.49998
 11
-106.0
 21
-36.49998
  0
LINE
  8
0
  6
CONTINUOUS
 62
     7
 10
179.0
 20
-15.49998
 11
167.0
 21
-15.49998
  0
LINE
  8
0
  6
CONTINUOUS
 62
     7
 10
167.0
 20
-51.99998
 11
167.0
 21
-15.49998
  0
LINE
  8
0
  6
CONTINUOUS
 62
     7
 10
181.5
 20
-33.99998
 11
179.5
 21
-33.99998
  0
LINE
  8
0
  6
CONTINUOUS
 62
     7
 10
181.5
 20
-21.99998
 11
179.5
 21
-21.99998
  0
LINE
  8
0
  6
CONTINUOUS
 62
     7
 10
181.5
 20
-27.99998
 11
179.5
 21
-27.99998
  0
LINE
  8
0
  6
CONTINUOUS
 62
     7
 10
182.0
 20
-30.99998
 11
182.0
 21
-24.99998
  0
LINE
  8
0
  6
CONTINUOUS
 62
     7
 10
189.0
 20
-31.61434
 11
189.0
 21
-24.38563
  0
LINE
  8
0
  6
CONTINUOUS
 62
     7
 10
164.0
 20
-32.49998
 11
164.0
 21
-28.99998
  0
LINE
  8
0
  6
CONTINUOUS
 62
     7
 10
188.7773
 20
-31.99998
 11
181.9458
 21
-31.99998
  0
LINE
  8
0
  6
CONTINUOUS
 62
     7
 10
188.2
 20
-32.99998
 11
181.7812
 21
-32.99998
  0
LINE
  8
0
  6
CONTINUOUS
 62
     7
 10
164.4999
 20
-32.99997
 11
164.0
 21
-32.49998
  0
LINE
  8
0
  6
CONTINUOUS
 62
     7
 10
188.9999
 20
-31.61433
 11
188.1999
 21
-32.99995
  0
LINE
  8
0
  6
CONTINUOUS
 62
     7
 10
167.0
 20
-31.99998
 11
164.0
 21
-31.99998
  0
LINE
  8
0
  6
CONTINUOUS
 62
     7
 10
167.0
 20
-32.99998
 11
164.5
 21
-32.99998
  0
LINE
  8
0
  6
CONTINUOUS
 62
     7
 10
188.7773
 20
-23.99998
 11
181.9458
 21
-23.99998
  0
LINE
  8
0
  6
CONTINUOUS
 62
     7
 10
189.0
 20
-24.38561
 11
188.2
 21
-22.99997
  0
LINE
  8
0
  6
CONTINUOUS
 62
     7
 10
188.2
 20
-22.99998
 11
181.7812
 21
-22.99998
  0
LINE
  8
0
  6
DASHED
 62
     7
 10
167.0
 20
-23.99998
 11
164.0
 21
-23.99998
  0
LINE
  8
0
  6
DASHED
 62
     7
 10
167.0
 20
-22.99998
 11
164.5
 21
-22.99998
  0
LINE
  8
0
  6
DASHED
 62
     7
 10
164.4999
 20
-22.99997
 11
163.9999
 21
-23.49997
  0
LINE
  8
0
  6
CONTINUOUS
 62
     7
 10
188.2
 20
-32.99998
 11
188.2
 21
-22.99998
  0
LINE
  8
0
  6
CONTINUOUS
 62
     7
 10
164.5
 20
-32.99998
 11
164.5
 21
-28.99998
  0
LINE
  8
0
  6
DASHED
 62
     7
 10
189.0
 20
-30.88673
 11
185.0
 21
-30.88673
  0
LINE
  8
0
  6
DASHED
 62
     7
 10
189.0
 20
-29.44336
 11
185.0
 21
-29.44336
  0
LINE
  8
0
  6
DASHED
 62
     7
 10
185.0
 20
-30.88674
 11
183.3333
 21
-27.99999
  0
LINE
  8
0
  6
DASHED
 62
     7
 10
185.0
 20
-30.88673
 11
185.0
 21
-25.11323
  0
LINE
  8
0
  6
DASHED
 62
     7
 10
189.0
 20
-26.55661
 11
185.0
 21
-26.55661
  0
LINE
  8
0
  6
DASHED
 62
     7
 10
189.0
 20
-25.11323
 11
185.0
 21
-25.11323
  0
LINE
  8
0
  6
DASHED
 62
     7
 10
185.0001
 20
-25.11323
 11
183.3334
 21
-27.99998
  0
LINE
  8
0
  6
CONTINUOUS
 62
     7
 10
-85.99999
 20
-13.49998
 11
-85.99999
 21
-35.49998
  0
LINE
  8
0
  6
CONTINUOUS
 62
     7
 10
-85.99999
 20
-35.49998
 11
75.00001
 21
-35.49998
  0
LINE
  8
0
  6
CONTINUOUS
 62
     7
 10
75.00001
 20
-35.49998
 11
75.00001
 21
-13.49998
  0
LINE
  8
0
  6
CONTINUOUS
 62
     7
 10
75.00001
 20
-13.49998
 11
-85.99999
 21
-13.49998
  0
LINE
  8
0
  6
CONTINUOUS
 62
     7
 10
75.00001
 20
-14.49998
 11
-85.99999
 21
-14.49998
  0
LINE
  8
0
  6
CONTINUOUS
 62
     7
 10
-106.0
 20
-28.99998
 11
-85.99999
 21
-28.99998
  0
LINE
  8
0
  6
CONTINUOUS
 62
     7
 10
75.00001
 20
-28.99998
 11
167.0
 21
-28.99998
  0
LINE
  8
0
  6
CONTINUOUS
 62
     7
 10
-106.0
 20
-20.99998
 11
-85.99999
 21
-20.99998
  0
LINE
  8
0
  6
CONTINUOUS
 62
     7
 10
75.00001
 20
-20.99998
 11
167.0
 21
-20.99998
  0
LINE
  8
0
  6
DASHED
 62
     7
 10
164.0
 20
-28.99998
 11
164.0
 21
-23.49998
  0
LINE
  8
0
  6
DASHED
 62
     7
 10
164.5
 20
-28.99998
 11
164.5
 21
-22.99998
  0
LINE
  8
0
  6
CENTER
 62
     2
 10
-108.5
 20
-20.99998
 11
-108.5
 21
-29.99998
  0
LINE
  8
0
  6
CENTER
 62
     2
 10
-104.0
 20
-25.49998
 11
-113.0
 21
-25.49998
  0
LINE
  8
0
  6
CONTINUOUS
 62
     7
 10
-88.99999
 20
-30.99998
 11
-88.99999
 21
-28.99998
  0
LINE
  8
0
  6
CONTINUOUS
 62
     7
 10
-128.0
 20
-31.61434
 11
-128.0
 21
-28.99998
  0
LINE
  8
0
  6
CONTINUOUS
 62
     7
 10
-103.0
 20
-32.49998
 11
-103.0
 21
-28.99998
  0
LINE
  8
0
  6
CONTINUOUS
 62
     7
 10
-127.7773
 20
-31.99998
 11
-120.9458
 21
-31.99998
  0
LINE
  8
0
  6
CONTINUOUS
 62
     7
 10
-118.0
 20
-51.99998
 11
-118.0
 21
-15.49998
  0
LINE
  8
0
  6
CONTINUOUS
 62
     7
 10
-106.0
 20
-51.99998
 11
-106.0
 21
-15.49998
  0
LINE
  8
0
  6
CONTINUOUS
 62
     7
 10
-127.2
 20
-32.99998
 11
-120.7812
 21
-32.99998
  0
LINE
  8
0
  6
CONTINUOUS
 62
     7
 10
-103.5
 20
-32.99998
 11
-103.0
 21
-32.49998
  0
LINE
  8
0
  6
CONTINUOUS
 62
     7
 10
-128.0
 20
-31.61434
 11
-127.2
 21
-32.99998
  0
LINE
  8
0
  6
CONTINUOUS
 62
     7
 10
-106.0
 20
-31.99998
 11
-103.0
 21
-31.99998
  0
LINE
  8
0
  6
CONTINUOUS
 62
     7
 10
-106.0
 20
-32.99998
 11
-103.5
 21
-32.99998
  0
LINE
  8
0
  6
DASHED
 62
     7
 10
-127.7773
 20
-23.99998
 11
-120.9458
 21
-23.99998
  0
LINE
  8
0
  6
DASHED
 62
     7
 10
-120.5
 20
-27.99998
 11
-118.5
 21
-27.99998
  0
LINE
  8
0
  6
DASHED
 62
     7
 10
-128.0
 20
-24.38562
 11
-127.2
 21
-22.99998
  0
LINE
  8
0
  6
DASHED
 62
     7
 10
-127.2
 20
-22.99998
 11
-120.7812
 21
-22.99998
  0
LINE
  8
0
  6
DASHED
 62
     7
 10
-106.0
 20
-23.99998
 11
-103.0
 21
-23.99998
  0
LINE
  8
0
  6
DASHED
 62
     7
 10
-106.0
 20
-22.99998
 11
-103.5
 21
-22.99998
  0
LINE
  8
0
  6
DASHED
 62
     7
 10
-103.5
 20
-22.99998
 11
-103.0
 21
-23.49998
  0
LINE
  8
0
  6
CONTINUOUS
 62
     7
 10
-88.49999
 20
-21.99998
 11
-85.99999
 21
-21.99998
  0
LINE
  8
0
  6
DASHED
 62
     7
 10
-88.49999
 20
-27.99998
 11
-85.99999
 21
-27.99998
  0
LINE
  8
0
  6
DASHED
 62
     7
 10
-103.5
 20
-28.99998
 11
-103.5
 21
-22.99998
  0
LINE
  8
0
  6
DASHED
 62
     7
 10
-103.0
 20
-28.99998
 11
-103.0
 21
-23.49998
  0
LINE
  8
0
  6
CONTINUOUS
 62
     7
 10
-127.2
 20
-32.99998
 11
-127.2
 21
-28.99998
  0
LINE
  8
0
  6
CONTINUOUS
 62
     7
 10
-103.5
 20
-32.99998
 11
-103.5
 21
-28.99998
  0
LINE
  8
0
  6
CENTER
 62
     2
 10
-99.99999
 20
-27.99998
 11
-131.0
 21
-27.99998
  0
LINE
  8
0
  6
DASHED
 62
     7
 10
-128.0
 20
-30.88673
 11
-124.0
 21
-30.88673
  0
LINE
  8
0
  6
DASHED
 62
     7
 10
-128.0
 20
-29.44336
 11
-124.0
 21
-29.44336
  0
LINE
  8
0
  6
DASHED
 62
     7
 10
-124.0
 20
-30.88673
 11
-124.0
 21
-25.11323
  0
LINE
  8
0
  6
DASHED
 62
     7
 10
-128.0
 20
-26.5566
 11
-124.0
 21
-26.5566
  0
LINE
  8
0
  6
DASHED
 62
     7
 10
-128.0
 20
-25.11323
 11
-124.0
 21
-25.11323
  0
LINE
  8
0
  6
CONTINUOUS
 62
     7
 10
-120.5
 20
-33.99998
 11
-118.5
 21
-33.99998
  0
LINE
  8
0
  6
CONTINUOUS
 62
     7
 10
-121.0
 20
-30.99998
 11
-121.0
 21
-28.99998
  0
LINE
  8
0
  6
DASHED
 62
     7
 10
-120.5
 20
-21.99998
 11
-118.5
 21
-21.99998
  0
LINE
  8
0
  6
CONTINUOUS
 62
     7
 10
-88.49999
 20
-33.99998
 11
-85.99999
 21
-33.99998
  0
LINE
  8
0
  6
CONTINUOUS
 62
     7
 10
-66.49999
 20
-21.49998
 11
-66.49999
 21
-28.49998
  0
LINE
  8
0
  6
CONTINUOUS
 62
     7
 10
-67.49999
 20
-28.49998
 11
-67.49999
 21
-21.49998
  0
LINE
  8
0
  6
CONTINUOUS
 62
     7
 10
-69.02071
 20
-21.49998
 11
-64.97926
 21
-21.49998
  0
LINE
  8
0
  6
CONTINUOUS
 62
     7
 10
-64.97929
 20
-21.5
 11
-62.95855
 21
-25.0
  0
LINE
  8
0
  6
CONTINUOUS
 62
     7
 10
-62.95856
 20
-25.0
 11
-64.97928
 21
-28.5
  0
LINE
  8
0
  6
CONTINUOUS
 62
     7
 10
-64.97926
 20
-28.49998
 11
-69.02072
 21
-28.49998
  0
LINE
  8
0
  6
CONTINUOUS
 62
     7
 10
-69.02074
 20
-28.5
 11
-71.04146
 21
-25.0
  0
LINE
  8
0
  6
CONTINUOUS
 62
     7
 10
-71.04145
 20
-25.00001
 11
-69.02072
 21
-21.50001
  0
LINE
  8
0
  6
CONTINUOUS
 62
     7
 10
56.50001
 20
-21.49998
 11
56.50001
 21
-28.49998
  0
LINE
  8
0
  6
CONTINUOUS
 62
     7
 10
55.50001
 20
-28.49998
 11
55.50001
 21
-21.49998
  0
LINE
  8
0
  6
CONTINUOUS
 62
     7
 10
53.97929
 20
-21.49998
 11
58.02073
 21
-21.49998
  0
LINE
  8
0
  6
CONTINUOUS
 62
     7
 10
58.02069
 20
-21.5
 11
60.04142
 21
-24.99999
  0
LINE
  8
0
  6
CONTINUOUS
 62
     7
 10
60.0414
 20
-24.99999
 11
58.02068
 21
-28.5
  0
LINE
  8
0
  6
CONTINUOUS
 62
     7
 10
58.02073
 20
-28.49998
 11
53.97929
 21
-28.49998
  0
LINE
  8
0
  6
CONTINUOUS
 62
     7
 10
53.97924
 20
-28.50001
 11
51.95852
 21
-25.00001
  0
LINE
  8
0
  6
CONTINUOUS
 62
     7
 10
51.9586
 20
-25.00001
 11
53.9793
 21
-21.50002
  0
LINE
  8
0
  6
CONTINUOUS
 62
     7
 10
-129.5
 20
-20.99998
 11
-118.0
 21
-20.99998
  0
LINE
  8
0
  6
CONTINUOUS
 62
     7
 10
-129.5
 20
-20.99998
 11
-129.5
 21
-28.99998
  0
LINE
  8
0
  6
CONTINUOUS
 62
     7
 10
-129.2
 20
-21.75625
 11
-118.0
 21
-21.75625
  0
LINE
  8
0
  6
CONTINUOUS
 62
     7
 10
-129.2
 20
-24.24371
 11
-118.0
 21
-24.24371
  0
LINE
  8
0
  6
CONTINUOUS
 62
     7
 10
-129.2
 20
-25.75625
 11
-118.0
 21
-25.75625
  0
LINE
  8
0
  6
CONTINUOUS
 62
     7
 10
-129.2
 20
-28.24371
 11
-118.0
 21
-28.24371
  0
LINE
  8
0
  6
CONTINUOUS
 62
     7
 10
-129.5
 20
-28.99998
 11
-118.0
 21
-28.99998
  0
LINE
  8
0
  6
CONTINUOUS
 62
     7
 10
-129.2
 20
-24.24371
 11
-129.2
 21
-25.75625
  0
LINE
  8
0
  6
DASHED
 62
     7
 10
-121.0
 20
-28.99998
 11
-121.0
 21
-24.99998
  0
LINE
  8
0
  6
DASHED
 62
     7
 10
-127.2
 20
-28.99998
 11
-127.2
 21
-22.99998
  0
LINE
  8
0
  6
DASHED
 62
     7
 10
-128.0
 20
-28.99998
 11
-128.0
 21
-24.38563
  0
LINE
  8
0
  6
DASHED
 62
     7
 10
-88.99999
 20
-28.99998
 11
-88.99999
 21
-24.99998
  0
LINE
  8
0
  6
CENTER
 62
     2
 10
-91.99999
 20
-27.99998
 11
-82.99999
 21
-27.99998
  0
LINE
  8
0
  6
CONTINUOUS
 62
     7
 10
78.00001
 20
-30.99998
 11
78.00001
 21
-28.99998
  0
LINE
  8
0
  6
CONTINUOUS
 62
     7
 10
77.50001
 20
-21.99998
 11
75.00001
 21
-21.99998
  0
LINE
  8
0
  6
DASHED
 62
     7
 10
77.50001
 20
-27.99998
 11
75.00001
 21
-27.99998
  0
LINE
  8
0
  6
CONTINUOUS
 62
     7
 10
77.50001
 20
-33.99998
 11
75.00001
 21
-33.99998
  0
LINE
  8
0
  6
DASHED
 62
     7
 10
78.00001
 20
-28.99998
 11
78.00001
 21
-24.99998
  0
LINE
  8
0
  6
CENTER
 62
     2
 10
81.00001
 20
-27.99998
 11
72.00001
 21
-27.99998
  0
LINE
  8
0
  6
CONTINUOUS
 62
     7
 10
-118.0
 20
70.99998
 11
-118.0
 21
129.0
  0
LINE
  8
0
  6
CONTINUOUS
 62
     7
 10
-106.0
 20
70.99998
 11
-106.0
 21
129.0
  0
LINE
  8
0
  6
CONTINUOUS
 62
     7
 10
-121.0
 20
94.80383
 11
-121.0
 21
105.0
  0
LINE
  8
0
  6
CONTINUOUS
 62
     7
 10
-128.0
 20
96.38563
 11
-128.0
 21
103.6143
  0
LINE
  8
0
  6
CONTINUOUS
 62
     7
 10
-103.0
 20
95.49998
 11
-103.0
 21
104.5
  0
LINE
  8
0
  6
CONTINUOUS
 62
     7
 10
-127.7773
 20
95.99998
 11
-121.0
 21
95.99998
  0
LINE
  8
0
  6
CONTINUOUS
 62
     7
 10
-127.2
 20
94.99998
 11
-121.0
 21
94.99998
  0
LINE
  8
0
  6
CONTINUOUS
 62
     7
 10
-103.5
 20
95.00002
 11
-103.0
 21
95.50002
  0
LINE
  8
0
  6
CONTINUOUS
 62
     7
 10
-128.0
 20
96.3856
 11
-127.2
 21
94.99997
  0
LINE
  8
0
  6
CONTINUOUS
 62
     7
 10
-106.0
 20
95.99998
 11
-103.0
 21
95.99998
  0
LINE
  8
0
  6
CONTINUOUS
 62
     7
 10
-106.0
 20
94.99998
 11
-103.5
 21
94.99998
  0
LINE
  8
0
  6
CONTINUOUS
 62
     7
 10
-127.7773
 20
104.0
 11
-121.0
 21
104.0
  0
LINE
  8
0
  6
CONTINUOUS
 62
     7
 10
-128.0
 20
103.6143
 11
-127.2
 21
105.0
  0
LINE
  8
0
  6
CONTINUOUS
 62
     7
 10
-127.2
 20
105.0
 11
-121.0
 21
105.0
  0
LINE
  8
0
  6
CONTINUOUS
 62
     7
 10
-106.0
 20
104.0
 11
-103.0
 21
104.0
  0
LINE
  8
0
  6
CONTINUOUS
 62
     7
 10
-106.0
 20
105.0
 11
-103.5
 21
105.0
  0
LINE
  8
0
  6
CONTINUOUS
 62
     7
 10
-103.5
 20
105.0
 11
-103.0
 21
104.5
  0
LINE
  8
0
  6
CONTINUOUS
 62
     7
 10
-127.2
 20
94.99998
 11
-127.2
 21
105.0
  0
LINE
  8
0
  6
CONTINUOUS
 62
     7
 10
-103.5
 20
94.99998
 11
-103.5
 21
105.0
  0
LINE
  8
0
  6
DASHED
 62
     7
 10
-128.0
 20
99.99998
 11
-124.0
 21
99.99998
  0
LINE
  8
0
  6
DASHED
 62
     7
 10
-124.0
 20
97.49998
 11
-122.5566
 21
99.99998
  0
LINE
  8
0
  6
DASHED
 62
     7
 10
-124.0
 20
97.49998
 11
-124.0
 21
102.5
  0
LINE
  8
0
  6
CONTINUOUS
 62
     7
 10
-118.0
 20
70.99998
 11
-71.04144
 21
70.99998
  0
LINE
  8
0
  6
CONTINUOUS
 62
     7
 10
-118.0
 20
129.0
 11
179.0
 21
129.0
  0
LINE
  8
0
  6
CONTINUOUS
 62
     7
 10
-120.5
 20
93.07177
 11
-118.5
 21
93.07177
  0
LINE
  8
0
  6
CONTINUOUS
 62
     7
 10
-120.5
 20
96.53588
 11
-118.5
 21
96.53588
  0
LINE
  8
0
  6
CONTINUOUS
 62
     7
 10
-120.5
 20
103.4641
 11
-118.5
 21
103.4641
  0
LINE
  8
0
  6
CONTINUOUS
 62
     7
 10
-120.5
 20
106.9282
 11
-118.5
 21
106.9282
  0
LINE
  8
0
  6
DASHED
 62
     7
 10
-128.0
 20
97.49998
 11
-124.0
 21
97.49998
  0
LINE
  8
0
  6
DASHED
 62
     7
 10
-128.0
 20
102.5
 11
-124.0
 21
102.5
  0
LINE
  8
0
  6
DASHED
 62
     7
 10
-124.0
 20
102.5
 11
-122.5567
 21
99.99997
  0
LINE
  8
0
  6
CENTER
 62
     2
 10
192.0
 20
99.99998
 11
-131.0
 21
99.99998
  0
LINE
  8
0
  6
CENTER
 62
     2
 10
182.0
 20
84.99998
 11
-132.5
 21
84.99998
  0
LINE
  8
0
  6
CENTER
 62
     2
 10
-113.0
 20
70.74998
 11
-113.0
 21
81.24998
  0
LINE
  8
0
  6
CENTER
 62
     2
 10
-107.75
 20
75.99998
 11
-118.25
 21
75.99998
  0
LINE
  8
0
  6
CENTER
 62
     2
 10
182.0
 20
115.0
 11
-132.5
 21
115.0
  0
LINE
  8
0
  6
CENTER
 62
     2
 10
-107.75
 20
124.0
 11
-118.25
 21
124.0
  0
LINE
  8
0
  6
CENTER
 62
     2
 10
-113.0
 20
129.25
 11
-113.0
 21
118.75
  0
LINE
  8
0
  6
CONTINUOUS
 62
     7
 10
179.0
 20
70.99998
 11
179.0
 21
129.0
  0
LINE
  8
0
  6
CONTINUOUS
 62
     7
 10
167.0
 20
70.99998
 11
167.0
 21
129.0
  0
LINE
  8
0
  6
CONTINUOUS
 62
     7
 10
182.0
 20
94.80383
 11
182.0
 21
105.0
  0
LINE
  8
0
  6
CONTINUOUS
 62
     7
 10
189.0
 20
96.38563
 11
189.0
 21
103.6143
  0
LINE
  8
0
  6
CONTINUOUS
 62
     7
 10
164.0
 20
95.49998
 11
164.0
 21
104.5
  0
LINE
  8
0
  6
CONTINUOUS
 62
     7
 10
188.7773
 20
95.99998
 11
182.0
 21
95.99998
  0
LINE
  8
0
  6
CONTINUOUS
 62
     7
 10
188.2
 20
94.99998
 11
182.0
 21
94.99998
  0
LINE
  8
0
  6
CONTINUOUS
 62
     7
 10
164.4999
 20
95.00004
 11
163.9999
 21
95.50001
  0
LINE
  8
0
  6
CONTINUOUS
 62
     7
 10
189.0
 20
96.38558
 11
188.2
 21
94.99995
  0
LINE
  8
0
  6
CONTINUOUS
 62
     7
 10
167.0
 20
95.99998
 11
164.0
 21
95.99998
  0
LINE
  8
0
  6
CONTINUOUS
 62
     7
 10
167.0
 20
94.99998
 11
164.5
 21
94.99998
  0
LINE
  8
0
  6
CONTINUOUS
 62
     7
 10
188.7773
 20
104.0
 11
182.0
 21
104.0
  0
LINE
  8
0
  6
CONTINUOUS
 62
     7
 10
189.0
 20
103.6143
 11
188.2
 21
104.9999
  0
LINE
  8
0
  6
CONTINUOUS
 62
     7
 10
188.2
 20
105.0
 11
182.0
 21
105.0
  0
LINE
  8
0
  6
CONTINUOUS
 62
     7
 10
167.0
 20
104.0
 11
164.0
 21
104.0
  0
LINE
  8
0
  6
CONTINUOUS
 62
     7
 10
167.0
 20
105.0
 11
164.5
 21
105.0
  0
LINE
  8
0
  6
CONTINUOUS
 62
     7
 10
164.4999
 20
105.0
 11
163.9999
 21
104.5
  0
LINE
  8
0
  6
CONTINUOUS
 62
     7
 10
188.2
 20
94.99998
 11
188.2
 21
105.0
  0
LINE
  8
0
  6
CONTINUOUS
 62
     7
 10
164.5
 20
94.99998
 11
164.5
 21
105.0
  0
LINE
  8
0
  6
DASHED
 62
     7
 10
189.0
 20
99.99998
 11
185.0
 21
99.99998
  0
LINE
  8
0
  6
DASHED
 62
     7
 10
185.0002
 20
97.5
 11
183.5569
 21
99.99998
  0
LINE
  8
0
  6
DASHED
 62
     7
 10
185.0
 20
97.49998
 11
185.0
 21
102.5
  0
LINE
  8
0
  6
CONTINUOUS
 62
     7
 10
181.5
 20
93.07177
 11
179.5
 21
93.07177
  0
LINE
  8
0
  6
CONTINUOUS
 62
     7
 10
181.5
 20
96.53588
 11
179.5
 21
96.53588
  0
LINE
  8
0
  6
CONTINUOUS
 62
     7
 10
181.5
 20
103.4641
 11
179.5
 21
103.4641
  0
LINE
  8
0
  6
CONTINUOUS
 62
     7
 10
181.5
 20
106.9282
 11
179.5
 21
106.9282
  0
LINE
  8
0
  6
DASHED
 62
     7
 10
189.0
 20
97.49998
 11
185.0
 21
97.49998
  0
LINE
  8
0
  6
DASHED
 62
     7
 10
189.0
 20
102.5
 11
185.0
 21
102.5
  0
LINE
  8
0
  6
DASHED
 62
     7
 10
185.0001
 20
102.5
 11
183.5567
 21
99.99992
  0
LINE
  8
0
  6
CENTER
 62
     2
 10
174.0
 20
70.74998
 11
174.0
 21
81.24998
  0
LINE
  8
0
  6
CENTER
 62
     2
 10
168.75
 20
75.99998
 11
179.25
 21
75.99998
  0
LINE
  8
0
  6
CENTER
 62
     2
 10
168.75
 20
124.0
 11
179.25
 21
124.0
  0
LINE
  8
0
  6
CENTER
 62
     2
 10
174.0
 20
129.25
 11
174.0
 21
118.75
  0
LINE
  8
0
  6
CONTINUOUS
 62
     7
 10
-85.99999
 20
127.0
 11
-85.99999
 21
72.99998
  0
LINE
  8
0
  6
CONTINUOUS
 62
     7
 10
-85.99999
 20
72.99998
 11
75.00001
 21
72.99998
  0
LINE
  8
0
  6
CONTINUOUS
 62
     7
 10
75.00001
 20
72.99998
 11
75.00001
 21
127.0
  0
LINE
  8
0
  6
CONTINUOUS
 62
     7
 10
75.00001
 20
127.0
 11
-85.99999
 21
127.0
  0
LINE
  8
0
  6
CONTINUOUS
 62
     7
 10
-88.99999
 20
93.99998
 11
-88.99999
 21
106.0
  0
LINE
  8
0
  6
CONTINUOUS
 62
     7
 10
-89.0
 20
93.99998
 11
-88.4641
 21
93.07178
  0
LINE
  8
0
  6
CONTINUOUS
 62
     7
 10
-88.4641
 20
93.07178
 11
-85.99999
 21
93.07178
  0
LINE
  8
0
  6
CONTINUOUS
 62
     7
 10
-88.4641
 20
96.53588
 11
-85.99999
 21
96.53588
  0
LINE
  8
0
  6
CONTINUOUS
 62
     7
 10
-88.4641
 20
103.4641
 11
-85.99999
 21
103.4641
  0
LINE
  8
0
  6
CONTINUOUS
 62
     7
 10
-88.4641
 20
106.9282
 11
-85.99999
 21
106.9282
  0
LINE
  8
0
  6
CONTINUOUS
 62
     7
 10
-88.99998
 20
106.0
 11
-88.46408
 21
106.9282
  0
LINE
  8
0
  6
CONTINUOUS
 62
     7
 10
-106.0
 20
80.99998
 11
-85.99999
 21
80.99998
  0
LINE
  8
0
  6
CONTINUOUS
 62
     7
 10
75.00001
 20
80.99998
 11
167.0
 21
80.99998
  0
LINE
  8
0
  6
CONTINUOUS
 62
     7
 10
-106.0
 20
88.99998
 11
-85.99999
 21
88.99998
  0
LINE
  8
0
  6
CONTINUOUS
 62
     7
 10
75.00001
 20
88.99998
 11
167.0
 21
88.99998
  0
LINE
  8
0
  6
CONTINUOUS
 62
     7
 10
-106.0
 20
111.0
 11
-85.99999
 21
111.0
  0
LINE
  8
0
  6
CONTINUOUS
 62
     7
 10
-106.0
 20
119.0
 11
-85.99999
 21
119.0
  0
LINE
  8
0
  6
CONTINUOUS
 62
     7
 10
75.00001
 20
111.0
 11
167.0
 21
111.0
  0
LINE
  8
0
  6
CONTINUOUS
 62
     7
 10
75.00001
 20
119.0
 11
167.0
 21
119.0
  0
LINE
  8
0
  6
CENTER
 62
     2
 10
58.50001
 20
94.49998
 11
58.50001
 21
105.5
  0
LINE
  8
0
  6
CONTINUOUS
 62
     7
 10
78.00001
 20
93.99998
 11
78.00001
 21
106.0
  0
LINE
  8
0
  6
CONTINUOUS
 62
     7
 10
78.00013
 20
93.99998
 11
77.46423
 21
93.07178
  0
LINE
  8
0
  6
CONTINUOUS
 62
     7
 10
77.46412
 20
93.07178
 11
75.00001
 21
93.07178
  0
LINE
  8
0
  6
CONTINUOUS
 62
     7
 10
77.46412
 20
96.53588
 11
75.00001
 21
96.53588
  0
LINE
  8
0
  6
CONTINUOUS
 62
     7
 10
77.46412
 20
103.4641
 11
75.00001
 21
103.4641
  0
LINE
  8
0
  6
CONTINUOUS
 62
     7
 10
77.46412
 20
106.9282
 11
75.00001
 21
106.9282
  0
LINE
  8
0
  6
CONTINUOUS
 62
     7
 10
77.99998
 20
106.0
 11
77.46408
 21
106.9282
  0
LINE
  8
0
  6
CONTINUOUS
 62
     7
 10
-85.99999
 20
126.0
 11
75.00001
 21
126.0
  0
LINE
  8
0
  6
CONTINUOUS
 62
     7
 10
-85.99999
 20
118.0
 11
75.00001
 21
118.0
  0
LINE
  8
0
  6
CONTINUOUS
 62
     7
 10
-85.99999
 20
117.0
 11
75.00001
 21
117.0
  0
LINE
  8
0
  6
CONTINUOUS
 62
     7
 10
-85.99999
 20
106.0
 11
75.00001
 21
106.0
  0
LINE
  8
0
  6
CONTINUOUS
 62
     7
 10
-85.99999
 20
105.0
 11
75.00001
 21
105.0
  0
LINE
  8
0
  6
CONTINUOUS
 62
     7
 10
-85.99999
 20
94.99998
 11
75.00001
 21
94.99998
  0
LINE
  8
0
  6
CONTINUOUS
 62
     7
 10
-85.99999
 20
93.99998
 11
75.00001
 21
93.99998
  0
LINE
  8
0
  6
CONTINUOUS
 62
     7
 10
-85.99999
 20
82.99998
 11
75.00001
 21
82.99998
  0
LINE
  8
0
  6
CONTINUOUS
 62
     7
 10
-85.99999
 20
81.99998
 11
75.00001
 21
81.99998
  0
LINE
  8
0
  6
CONTINUOUS
 62
     7
 10
-85.99999
 20
73.99998
 11
75.00001
 21
73.99998
  0
LINE
  8
0
  6
CENTER
 62
     2
 10
59.50001
 20
94.49998
 11
59.50001
 21
105.5
  0
LINE
  8
0
  6
CENTER
 62
     2
 10
-55.49999
 20
94.49998
 11
-55.49999
 21
105.5
  0
LINE
  8
0
  6
CENTER
 62
     2
 10
44.50001
 20
94.49998
 11
44.50001
 21
105.5
  0
LINE
  8
0
  6
CENTER
 62
     2
 10
-70.49999
 20
94.49998
 11
-70.49999
 21
105.5
  0
LINE
  8
0
  6
CENTER
 62
     2
 10
60.50001
 20
94.49998
 11
60.50001
 21
105.5
  0
LINE
  8
0
  6
CONTINUOUS
 62
     7
 10
60.50001
 20
102.5
 11
58.50001
 21
102.5
  0
LINE
  8
0
  6
CONTINUOUS
 62
     7
 10
60.50001
 20
97.49998
 11
58.50001
 21
97.49998
  0
LINE
  8
0
  6
CONTINUOUS
 62
     7
 10
-118.0
 20
119.1822
 11
-129.2
 21
119.1822
  0
LINE
  8
0
  6
CONTINUOUS
 62
     7
 10
-118.0
 20
117.746
 11
-129.2
 21
117.746
  0
LINE
  8
0
  6
CONTINUOUS
 62
     7
 10
-118.0
 20
116.4361
 11
-129.2
 21
116.4361
  0
LINE
  8
0
  6
CONTINUOUS
 62
     7
 10
-129.5
 20
118.4641
 11
-129.5
 21
111.5359
  0
LINE
  8
0
  6
CONTINUOUS
 62
     7
 10
-118.0
 20
113.5638
 11
-129.2
 21
113.5638
  0
LINE
  8
0
  6
CONTINUOUS
 62
     7
 10
-118.0
 20
112.254
 11
-129.2
 21
112.2539
  0
LINE
  8
0
  6
CONTINUOUS
 62
     7
 10
-118.0
 20
110.8178
 11
-129.2
 21
110.8178
  0
LINE
  8
0
  6
CONTINUOUS
 62
     7
 10
-129.2
 20
117.746
 11
-129.2
 21
116.4361
  0
LINE
  8
0
  6
CONTINUOUS
 62
     7
 10
-129.2
 20
112.254
 11
-129.2
 21
113.5638
  0
LINE
  8
0
  6
CONTINUOUS
 62
     7
 10
-118.0
 20
89.18216
 11
-129.2
 21
89.18215
  0
LINE
  8
0
  6
CONTINUOUS
 62
     7
 10
-118.0
 20
87.74602
 11
-129.2
 21
87.74601
  0
LINE
  8
0
  6
CONTINUOUS
 62
     7
 10
-118.0
 20
86.43612
 11
-129.2
 21
86.43612
  0
LINE
  8
0
  6
CONTINUOUS
 62
     7
 10
-129.5
 20
88.46408
 11
-129.5
 21
81.53588
  0
LINE
  8
0
  6
CONTINUOUS
 62
     7
 10
-118.0
 20
83.56384
 11
-129.2
 21
83.56384
  0
LINE
  8
0
  6
CONTINUOUS
 62
     7
 10
-118.0
 20
82.25395
 11
-129.2
 21
82.25394
  0
LINE
  8
0
  6
CONTINUOUS
 62
     7
 10
-118.0
 20
80.81781
 11
-129.2
 21
80.81781
  0
LINE
  8
0
  6
CONTINUOUS
 62
     7
 10
-129.2
 20
87.74601
 11
-129.2
 21
86.43612
  0
LINE
  8
0
  6
CONTINUOUS
 62
     7
 10
-129.2
 20
82.25395
 11
-129.2
 21
83.56384
  0
LINE
  8
0
  6
CONTINUOUS
 62
     7
 10
-71.04144
 20
70.29999
 11
-71.04144
 21
72.99998
  0
LINE
  8
0
  6
CONTINUOUS
 62
     7
 10
-69.02071
 20
70.29999
 11
-69.02071
 21
72.79999
  0
LINE
  8
0
  6
CONTINUOUS
 62
     7
 10
-64.97927
 20
70.29999
 11
-64.97927
 21
72.79999
  0
LINE
  8
0
  6
CONTINUOUS
 62
     7
 10
-62.95854
 20
70.3
 11
-62.95854
 21
72.99998
  0
LINE
  8
0
  6
CONTINUOUS
 62
     7
 10
-70.03107
 20
69.79999
 11
-67.49999
 21
69.79999
  0
LINE
  8
0
  6
CONTINUOUS
 62
     7
 10
-71.04144
 20
72.79999
 11
-62.95854
 21
72.79999
  0
LINE
  8
0
  6
CONTINUOUS
 62
     7
 10
-67.49999
 20
69.79999
 11
-67.49999
 21
71.79999
  0
LINE
  8
0
  6
CONTINUOUS
 62
     7
 10
-67.49999
 20
71.79999
 11
-66.49999
 21
71.79999
  0
LINE
  8
0
  6
CONTINUOUS
 62
     7
 10
-66.49999
 20
71.79999
 11
-66.49999
 21
69.79999
  0
LINE
  8
0
  6
CONTINUOUS
 62
     7
 10
-66.49999
 20
69.79999
 11
-63.96891
 21
69.79999
  0
LINE
  8
0
  6
CONTINUOUS
 62
     7
 10
-71.04144
 20
72.99998
 11
-62.95854
 21
72.99998
  0
LINE
  8
0
  6
CONTINUOUS
 62
     7
 10
51.95856
 20
70.29999
 11
51.95856
 21
72.99998
  0
LINE
  8
0
  6
CONTINUOUS
 62
     7
 10
53.97929
 20
70.29999
 11
53.97929
 21
72.79999
  0
LINE
  8
0
  6
CONTINUOUS
 62
     7
 10
58.02073
 20
70.29999
 11
58.02073
 21
72.79999
  0
LINE
  8
0
  6
CONTINUOUS
 62
     7
 10
60.04147
 20
70.3
 11
60.04145
 21
72.99998
  0
LINE
  8
0
  6
CONTINUOUS
 62
     7
 10
52.96893
 20
69.79999
 11
55.50001
 21
69.79999
  0
LINE
  8
0
  6
CONTINUOUS
 62
     7
 10
51.95856
 20
72.79999
 11
60.04145
 21
72.79999
  0
LINE
  8
0
  6
CONTINUOUS
 62
     7
 10
55.50001
 20
69.79999
 11
55.50001
 21
71.79999
  0
LINE
  8
0
  6
CONTINUOUS
 62
     7
 10
55.50001
 20
71.79999
 11
56.50001
 21
71.79999
  0
LINE
  8
0
  6
CONTINUOUS
 62
     7
 10
56.50001
 20
71.79999
 11
56.50001
 21
69.79999
  0
LINE
  8
0
  6
CONTINUOUS
 62
     7
 10
56.50001
 20
69.79999
 11
59.03109
 21
69.79999
  0
LINE
  8
0
  6
CONTINUOUS
 62
     7
 10
51.95856
 20
72.99998
 11
60.04145
 21
72.99998
  0
LINE
  8
0
  6
CONTINUOUS
 62
     7
 10
-67.49999
 20
70.99998
 11
-66.49999
 21
70.99998
  0
LINE
  8
0
  6
CONTINUOUS
 62
     7
 10
-62.95854
 20
70.99998
 11
51.95856
 21
70.99998
  0
LINE
  8
0
  6
CONTINUOUS
 62
     7
 10
55.50001
 20
70.99998
 11
56.50001
 21
70.99998
  0
LINE
  8
0
  6
CONTINUOUS
 62
     7
 10
60.04147
 20
70.99998
 11
179.0
 21
70.99998
  0
LINE
  8
0
  6
CONTINUOUS
 62
     7
 10
31.50001
 20
101.1547
 11
31.50001
 21
98.84528
  0
LINE
  8
0
  6
CONTINUOUS
 62
     7
 10
29.50001
 20
102.3094
 11
31.50003
 21
101.1547
  0
LINE
  8
0
  6
CONTINUOUS
 62
     7
 10
27.49999
 20
101.1547
 11
29.49999
 21
102.3094
  0
LINE
  8
0
  6
CONTINUOUS
 62
     7
 10
27.50001
 20
98.84528
 11
27.50001
 21
101.1547
  0
LINE
  8
0
  6
CONTINUOUS
 62
     7
 10
29.50002
 20
97.69057
 11
27.50002
 21
98.84528
  0
LINE
  8
0
  6
CONTINUOUS
 62
     7
 10
31.50002
 20
98.84528
 11
29.50002
 21
97.69058
  0
LINE
  8
0
  6
CONTINUOUS
 62
     7
 10
-40.49998
 20
97.69059
 11
-42.5
 21
98.84529
  0
LINE
  8
0
  6
CONTINUOUS
 62
     7
 10
-38.49998
 20
98.84529
 11
-40.49999
 21
97.69058
  0
LINE
  8
0
  6
CONTINUOUS
 62
     7
 10
-38.49999
 20
101.1547
 11
-38.49999
 21
98.84528
  0
LINE
  8
0
  6
CONTINUOUS
 62
     7
 10
-40.49999
 20
102.3094
 11
-38.49999
 21
101.1547
  0
LINE
  8
0
  6
CONTINUOUS
 62
     7
 10
-42.5
 20
101.1547
 11
-40.49999
 21
102.3094
  0
LINE
  8
0
  6
CONTINUOUS
 62
     7
 10
-42.49999
 20
98.84528
 11
-42.49999
 21
101.1547
  0
LINE
  8
0
  6
CONTINUOUS
 62
     7
 10
-118.0
 20
-125.9999
 11
-118.0
 21
-183.9999
  0
LINE
  8
0
  6
CONTINUOUS
 62
     7
 10
-106.0
 20
-125.9999
 11
-106.0
 21
-183.9999
  0
LINE
  8
0
  6
CONTINUOUS
 62
     7
 10
-121.0
 20
-149.8038
 11
-121.0
 21
-159.9999
  0
LINE
  8
0
  6
CONTINUOUS
 62
     7
 10
-128.0
 20
-151.3856
 11
-128.0
 21
-158.6143
  0
LINE
  8
0
  6
CONTINUOUS
 62
     7
 10
-127.7773
 20
-150.9999
 11
-121.0
 21
-150.9999
  0
LINE
  8
0
  6
CONTINUOUS
 62
     7
 10
-127.2
 20
-149.9999
 11
-121.0
 21
-149.9999
  0
LINE
  8
0
  6
CONTINUOUS
 62
     7
 10
-128.0
 20
-151.3856
 11
-127.2
 21
-149.9999
  0
LINE
  8
0
  6
CONTINUOUS
 62
     7
 10
-127.7773
 20
-158.9999
 11
-121.0
 21
-158.9999
  0
LINE
  8
0
  6
CONTINUOUS
 62
     7
 10
-127.9999
 20
-158.6143
 11
-127.2
 21
-159.9999
  0
LINE
  8
0
  6
CONTINUOUS
 62
     7
 10
-127.2
 20
-159.9999
 11
-121.0
 21
-159.9999
  0
LINE
  8
0
  6
CONTINUOUS
 62
     7
 10
-127.2
 20
-149.9999
 11
-127.2
 21
-159.9999
  0
LINE
  8
0
  6
DASHED
 62
     7
 10
-128.0
 20
-154.9999
 11
-124.0
 21
-154.9999
  0
LINE
  8
0
  6
DASHED
 62
     7
 10
-124.0
 20
-152.5
 11
-122.5566
 21
-155.0
  0
LINE
  8
0
  6
DASHED
 62
     7
 10
-124.0
 20
-152.4999
 11
-124.0
 21
-157.4999
  0
LINE
  8
0
  6
CONTINUOUS
 62
     7
 10
-118.0
 20
-125.9999
 11
179.0
 21
-125.9999
  0
LINE
  8
0
  6
CONTINUOUS
 62
     7
 10
-118.0
 20
-183.9999
 11
179.0
 21
-183.9999
  0
LINE
  8
0
  6
CONTINUOUS
 62
     7
 10
-120.5
 20
-148.0717
 11
-118.5
 21
-148.0717
  0
LINE
  8
0
  6
CONTINUOUS
 62
     7
 10
-120.5
 20
-151.5358
 11
-118.5
 21
-151.5358
  0
LINE
  8
0
  6
CONTINUOUS
 62
     7
 10
-120.5
 20
-158.4641
 11
-118.5
 21
-158.4641
  0
LINE
  8
0
  6
CONTINUOUS
 62
     7
 10
-120.5
 20
-161.9282
 11
-118.5
 21
-161.9282
  0
LINE
  8
0
  6
DASHED
 62
     7
 10
-128.0
 20
-152.4999
 11
-124.0
 21
-152.4999
  0
LINE
  8
0
  6
DASHED
 62
     7
 10
-128.0
 20
-157.4999
 11
-124.0
 21
-157.4999
  0
LINE
  8
0
  6
DASHED
 62
     7
 10
-124.0
 20
-157.4999
 11
-122.5566
 21
-154.9999
  0
LINE
  8
0
  6
CENTER
 62
     2
 10
192.0
 20
-154.9999
 11
-131.0
 21
-154.9999
  0
LINE
  8
0
  6
CENTER
 62
     2
 10
-103.0
 20
-139.9999
 11
-132.5
 21
-139.9999
  0
LINE
  8
0
  6
CENTER
 62
     2
 10
-113.0
 20
-125.7499
 11
-113.0
 21
-136.2499
  0
LINE
  8
0
  6
CENTER
 62
     2
 10
-107.75
 20
-130.9999
 11
-118.25
 21
-130.9999
  0
LINE
  8
0
  6
CENTER
 62
     2
 10
-103.0
 20
-169.9999
 11
-132.5
 21
-169.9999
  0
LINE
  8
0
  6
CENTER
 62
     2
 10
-107.75
 20
-178.9999
 11
-118.25
 21
-178.9999
  0
LINE
  8
0
  6
CENTER
 62
     2
 10
-113.0
 20
-184.2499
 11
-113.0
 21
-173.7499
  0
LINE
  8
0
  6
CONTINUOUS
 62
     7
 10
179.0
 20
-125.9999
 11
179.0
 21
-183.9999
  0
LINE
  8
0
  6
CONTINUOUS
 62
     7
 10
167.0
 20
-125.9999
 11
167.0
 21
-183.9999
  0
LINE
  8
0
  6
CONTINUOUS
 62
     7
 10
182.0
 20
-149.8038
 11
182.0
 21
-159.9999
  0
LINE
  8
0
  6
CONTINUOUS
 62
     7
 10
189.0
 20
-151.3856
 11
189.0
 21
-158.6143
  0
LINE
  8
0
  6
CONTINUOUS
 62
     7
 10
188.7774
 20
-150.9999
 11
182.0
 21
-150.9999
  0
LINE
  8
0
  6
CONTINUOUS
 62
     7
 10
188.2
 20
-149.9999
 11
182.0
 21
-149.9999
  0
LINE
  8
0
  6
CONTINUOUS
 62
     7
 10
189.0
 20
-151.3856
 11
188.1999
 21
-149.9999
  0
LINE
  8
0
  6
CONTINUOUS
 62
     7
 10
188.7774
 20
-158.9999
 11
182.0
 21
-158.9999
  0
LINE
  8
0
  6
CONTINUOUS
 62
     7
 10
189.0001
 20
-158.6143
 11
188.2001
 21
-160.0
  0
LINE
  8
0
  6
CONTINUOUS
 62
     7
 10
188.2
 20
-159.9999
 11
182.0
 21
-159.9999
  0
LINE
  8
0
  6
CONTINUOUS
 62
     7
 10
188.2
 20
-149.9999
 11
188.2
 21
-159.9999
  0
LINE
  8
0
  6
DASHED
 62
     7
 10
189.0
 20
-154.9999
 11
185.0
 21
-154.9999
  0
LINE
  8
0
  6
DASHED
 62
     7
 10
185.0001
 20
-152.4999
 11
183.5567
 21
-154.9999
  0
LINE
  8
0
  6
DASHED
 62
     7
 10
185.0
 20
-152.4999
 11
185.0
 21
-157.4999
  0
LINE
  8
0
  6
CONTINUOUS
 62
     7
 10
181.5
 20
-148.0717
 11
179.5
 21
-148.0717
  0
LINE
  8
0
  6
CONTINUOUS
 62
     7
 10
181.5
 20
-151.5358
 11
179.5
 21
-151.5358
  0
LINE
  8
0
  6
CONTINUOUS
 62
     7
 10
181.5
 20
-158.4641
 11
179.5
 21
-158.4641
  0
LINE
  8
0
  6
CONTINUOUS
 62
     7
 10
181.5
 20
-161.9282
 11
179.5
 21
-161.9282
  0
LINE
  8
0
  6
DASHED
 62
     7
 10
189.0
 20
-152.4999
 11
185.0
 21
-152.4999
  0
LINE
  8
0
  6
DASHED
 62
     7
 10
189.0
 20
-157.4999
 11
185.0
 21
-157.4999
  0
LINE
  8
0
  6
DASHED
 62
     7
 10
185.0
 20
-157.4999
 11
183.5566
 21
-154.9999
  0
LINE
  8
0
  6
CENTER
 62
     2
 10
174.0
 20
-125.7499
 11
174.0
 21
-136.2499
  0
LINE
  8
0
  6
CENTER
 62
     2
 10
168.75
 20
-130.9999
 11
179.25
 21
-130.9999
  0
LINE
  8
0
  6
CENTER
 62
     2
 10
168.75
 20
-178.9999
 11
179.25
 21
-178.9999
  0
LINE
  8
0
  6
CENTER
 62
     2
 10
174.0
 20
-184.2499
 11
174.0
 21
-173.7499
  0
LINE
  8
0
  6
CONTINUOUS
 62
     7
 10
-62.95853
 20
-125.2999
 11
-62.95853
 21
-125.9999
  0
LINE
  8
0
  6
CONTINUOUS
 62
     7
 10
-64.97925
 20
-125.2999
 11
-64.97925
 21
-125.9999
  0
LINE
  8
0
  6
CONTINUOUS
 62
     7
 10
-69.02069
 20
-125.2999
 11
-69.02069
 21
-125.9999
  0
LINE
  8
0
  6
CONTINUOUS
 62
     7
 10
-71.04142
 20
-125.2999
 11
-71.04142
 21
-125.9999
  0
LINE
  8
0
  6
CONTINUOUS
 62
     7
 10
-63.96889
 20
-124.7999
 11
-66.49997
 21
-124.7999
  0
LINE
  8
0
  6
CONTINUOUS
 62
     7
 10
-66.49997
 20
-124.7999
 11
-66.49997
 21
-125.9999
  0
LINE
  8
0
  6
CONTINUOUS
 62
     7
 10
-67.49997
 20
-125.9999
 11
-67.49997
 21
-124.7999
  0
LINE
  8
0
  6
CONTINUOUS
 62
     7
 10
-67.49997
 20
-124.7999
 11
-70.03105
 21
-124.7999
  0
LINE
  8
0
  6
CONTINUOUS
 62
     7
 10
60.04147
 20
-125.2999
 11
60.04147
 21
-125.9999
  0
LINE
  8
0
  6
CONTINUOUS
 62
     7
 10
58.02075
 20
-125.2999
 11
58.02075
 21
-125.9999
  0
LINE
  8
0
  6
CONTINUOUS
 62
     7
 10
53.97931
 20
-125.2999
 11
53.97931
 21
-125.9999
  0
LINE
  8
0
  6
CONTINUOUS
 62
     7
 10
51.95857
 20
-125.2999
 11
51.95857
 21
-125.9999
  0
LINE
  8
0
  6
CONTINUOUS
 62
     7
 10
59.03111
 20
-124.7999
 11
56.50003
 21
-124.7999
  0
LINE
  8
0
  6
CONTINUOUS
 62
     7
 10
56.50003
 20
-124.7999
 11
56.50003
 21
-125.9999
  0
LINE
  8
0
  6
CONTINUOUS
 62
     7
 10
55.50003
 20
-125.9999
 11
55.50003
 21
-124.7999
  0
LINE
  8
0
  6
CONTINUOUS
 62
     7
 10
55.50003
 20
-124.7999
 11
52.96895
 21
-124.7999
  0
LINE
  8
0
  6
CONTINUOUS
 62
     7
 10
-118.0
 20
-135.8178
 11
-129.2
 21
-135.8178
  0
LINE
  8
0
  6
CONTINUOUS
 62
     7
 10
-118.0
 20
-137.2539
 11
-129.2
 21
-137.2539
  0
LINE
  8
0
  6
CONTINUOUS
 62
     7
 10
-118.0
 20
-138.5638
 11
-129.2
 21
-138.5638
  0
LINE
  8
0
  6
CONTINUOUS
 62
     7
 10
-129.5
 20
-136.5358
 11
-129.5
 21
-143.4641
  0
LINE
  8
0
  6
CONTINUOUS
 62
     7
 10
-118.0
 20
-141.4361
 11
-129.2
 21
-141.4361
  0
LINE
  8
0
  6
CONTINUOUS
 62
     7
 10
-118.0
 20
-142.746
 11
-129.2
 21
-142.746
  0
LINE
  8
0
  6
CONTINUOUS
 62
     7
 10
-118.0
 20
-144.1821
 11
-129.2
 21
-144.1821
  0
LINE
  8
0
  6
CONTINUOUS
 62
     7
 10
-129.2
 20
-137.2539
 11
-129.2
 21
-138.5638
  0
LINE
  8
0
  6
CONTINUOUS
 62
     7
 10
-129.2
 20
-142.746
 11
-129.2
 21
-141.4361
  0
LINE
  8
0
  6
CONTINUOUS
 62
     7
 10
-118.0
 20
-165.8178
 11
-129.2
 21
-165.8178
  0
LINE
  8
0
  6
CONTINUOUS
 62
     7
 10
-118.0
 20
-167.2539
 11
-129.2
 21
-167.2539
  0
LINE
  8
0
  6
CONTINUOUS
 62
     7
 10
-118.0
 20
-168.5638
 11
-129.2
 21
-168.5638
  0
LINE
  8
0
  6
CONTINUOUS
 62
     7
 10
-129.5
 20
-166.5358
 11
-129.5
 21
-173.4641
  0
LINE
  8
0
  6
CONTINUOUS
 62
     7
 10
-118.0
 20
-171.4361
 11
-129.2
 21
-171.4361
  0
LINE
  8
0
  6
CONTINUOUS
 62
     7
 10
-118.0
 20
-172.746
 11
-129.2
 21
-172.746
  0
LINE
  8
0
  6
CONTINUOUS
 62
     7
 10
-118.0
 20
-174.1821
 11
-129.2
 21
-174.1821
  0
LINE
  8
0
  6
CONTINUOUS
 62
     7
 10
-129.2
 20
-167.2539
 11
-129.2
 21
-168.5638
  0
LINE
  8
0
  6
CONTINUOUS
 62
     7
 10
-129.2
 20
-172.746
 11
-129.2
 21
-171.4361
  0
LINE
  8
0
  6
CONTINUOUS
 62
     7
 10
-106.0
 20
-138.9999
 11
167.0
 21
-138.9999
  0
LINE
  8
0
  6
CONTINUOUS
 62
     7
 10
-106.0
 20
-170.9999
 11
167.0
 21
-170.9999
  0
LINE
  8
0
  6
CENTER
 62
     2
 10
-242.0
 20
-10.5
 11
-242.0
 21
-40.5
  0
LINE
  8
0
  6
CONTINUOUS
 62
     7
 10
-213.0
 20
-15.5
 11
-213.0
 21
-52.0
  0
LINE
  8
0
  6
CENTER
 62
     2
 10
-265.4999
 20
-25.0
 11
-248.5
 21
-25.0
  0
LINE
  8
0
  6
CONTINUOUS
 62
     7
 10
-270.9999
 20
-15.5
 11
-213.0
 21
-15.5
  0
LINE
  8
0
  6
CONTINUOUS
 62
     7
 10
-270.9999
 20
-15.5
 11
-270.9999
 21
-52.0
  0
LINE
  8
0
  6
CENTER
 62
     2
 10
-256.9999
 20
-16.5
 11
-256.9999
 21
-33.5
  0
LINE
  8
0
  6
CONTINUOUS
 62
     7
 10
-213.0
 20
-52.0
 11
-270.9999
 21
-52.0
  0
LINE
  8
0
  6
CONTINUOUS
 62
     7
 10
-245.4641
 20
-33.99999
 11
-238.5359
 21
-34.0
  0
LINE
  8
0
  6
CONTINUOUS
 62
     7
 10
-238.5359
 20
-33.99999
 11
-235.0717
 21
-27.99999
  0
LINE
  8
0
  6
CONTINUOUS
 62
     7
 10
-235.0717
 20
-28.0
 11
-238.5358
 21
-21.99999
  0
LINE
  8
0
  6
CONTINUOUS
 62
     7
 10
-238.5359
 20
-21.99999
 11
-245.4641
 21
-21.99999
  0
LINE
  8
0
  6
CONTINUOUS
 62
     7
 10
-245.4641
 20
-22.00001
 11
-248.9282
 21
-28.0
  0
LINE
  8
0
  6
CONTINUOUS
 62
     7
 10
-248.9282
 20
-27.99999
 11
-245.4641
 21
-34.0
  0
LINE
  8
0
  6
CONTINUOUS
 62
     7
 10
-244.5
 20
-29.44337
 11
-244.5
 21
-26.55662
  0
LINE
  8
0
  6
CONTINUOUS
 62
     7
 10
-242.0
 20
-30.88675
 11
-244.5
 21
-29.44338
  0
LINE
  8
0
  6
CONTINUOUS
 62
     7
 10
-239.5
 20
-29.44338
 11
-242.0
 21
-30.88675
  0
LINE
  8
0
  6
CONTINUOUS
 62
     7
 10
-239.5
 20
-26.55662
 11
-239.5
 21
-29.44337
  0
LINE
  8
0
  6
CONTINUOUS
 62
     7
 10
-242.0
 20
-25.11326
 11
-239.5
 21
-26.55663
  0
LINE
  8
0
  6
CONTINUOUS
 62
     7
 10
-244.4999
 20
-26.55662
 11
-241.9999
 21
-25.11324
  0
LINE
  8
0
  6
CENTER
 62
     2
 10
-218.5
 20
-25.0
 11
-235.5
 21
-25.0
  0
LINE
  8
0
  6
CENTER
 62
     2
 10
-227.0
 20
-16.5
 11
-227.0
 21
-33.5
  0
LINE
  8
0
  6
CONTINUOUS
 62
     7
 10
-228.4886
 20
-28.99999
 11
-228.2642
 21
-29.83754
  0
LINE
  8
0
  6
CONTINUOUS
 62
     7
 10
-225.5113
 20
-29.0
 11
-225.7357
 21
-29.83753
  0
LINE
  8
0
  6
CONTINUOUS
 62
     7
 10
-237.0
 20
-13.5
 11
-247.0
 21
-13.5
  0
LINE
  8
0
  6
CONTINUOUS
 62
     7
 10
-248.0
 20
-14.5
 11
-258.9999
 21
-14.5
  0
LINE
  8
0
  6
CONTINUOUS
 62
     7
 10
-268.0
 20
-13.49998
 11
-269.0
 21
-14.49998
  0
LINE
  8
0
  6
CONTINUOUS
 62
     7
 10
-258.9999
 20
-14.5
 11
-259.9999
 21
-13.5
  0
LINE
  8
0
  6
CONTINUOUS
 62
     7
 10
-246.9999
 20
-13.5
 11
-247.9999
 21
-14.5
  0
LINE
  8
0
  6
CONTINUOUS
 62
     7
 10
-259.9999
 20
-13.5
 11
-267.9999
 21
-13.5
  0
LINE
  8
0
  6
CONTINUOUS
 62
     7
 10
-268.9999
 20
-14.5
 11
-268.9999
 21
-15.5
  0
LINE
  8
0
  6
CONTINUOUS
 62
     7
 10
-237.0
 20
-13.5
 11
-236.0
 21
-14.5
  0
LINE
  8
0
  6
CONTINUOUS
 62
     7
 10
-236.0
 20
-14.5
 11
-225.0
 21
-14.5
  0
LINE
  8
0
  6
CONTINUOUS
 62
     7
 10
-224.9999
 20
-14.49999
 11
-224.0
 21
-13.5
  0
LINE
  8
0
  6
CONTINUOUS
 62
     7
 10
-224.0
 20
-13.5
 11
-216.0
 21
-13.5
  0
LINE
  8
0
  6
CONTINUOUS
 62
     7
 10
-215.9999
 20
-13.49999
 11
-215.0
 21
-14.49998
  0
LINE
  8
0
  6
CONTINUOUS
 62
     7
 10
-215.0
 20
-14.5
 11
-215.0
 21
-15.5
  0
LINE
  8
0
  6
CENTER
 62
     2
 10
-252.0
 20
-28.0
 11
-232.0
 21
-28.0
  0
LINE
  8
0
  6
CONTINUOUS
 62
     7
 10
-252.8178
 20
-25.75626
 11
-254.2539
 21
-28.24372
  0
LINE
  8
0
  6
CONTINUOUS
 62
     7
 10
-259.7459
 20
-28.24373
 11
-261.1821
 21
-25.75627
  0
LINE
  8
0
  6
CONTINUOUS
 62
     7
 10
-255.5638
 20
-29.0
 11
-258.4361
 21
-29.0
  0
LINE
  8
0
  6
CONTINUOUS
 62
     7
 10
-259.746
 20
-21.75625
 11
-261.1821
 21
-24.24373
  0
LINE
  8
0
  6
CONTINUOUS
 62
     7
 10
-255.5638
 20
-20.99999
 11
-258.4361
 21
-21.0
  0
LINE
  8
0
  6
CONTINUOUS
 62
     7
 10
-252.8177
 20
-24.24373
 11
-254.2539
 21
-21.75626
  0
LINE
  8
0
  6
CONTINUOUS
 62
     7
 10
-222.8178
 20
-25.75627
 11
-224.2539
 21
-28.24372
  0
LINE
  8
0
  6
CONTINUOUS
 62
     7
 10
-229.746
 20
-28.24373
 11
-231.1821
 21
-25.75626
  0
LINE
  8
0
  6
CONTINUOUS
 62
     7
 10
-225.5638
 20
-29.0
 11
-228.4361
 21
-29.0
  0
LINE
  8
0
  6
CONTINUOUS
 62
     7
 10
-229.746
 20
-21.75626
 11
-231.1821
 21
-24.24373
  0
LINE
  8
0
  6
CONTINUOUS
 62
     7
 10
-225.5638
 20
-20.99999
 11
-228.4361
 21
-21.0
  0
LINE
  8
0
  6
CONTINUOUS
 62
     7
 10
-222.8177
 20
-24.24372
 11
-224.2539
 21
-21.75626
  0
LINE
  8
0
  6
CONTINUOUS
 62
     7
 10
-255.5113
 20
-28.99999
 11
-255.7357
 21
-29.83753
  0
LINE
  8
0
  6
CONTINUOUS
 62
     7
 10
-258.4886
 20
-29.0
 11
-258.2642
 21
-29.83753
  0
LINE
  8
0
  6
CONTINUOUS
 62
     7
 10
-213.0
 20
-28.49999
 11
-212.2999
 21
-28.49999
  0
LINE
  8
0
  6
CONTINUOUS
 62
     7
 10
-211.8
 20
-23.24998
 11
-211.8
 21
-26.75001
  0
LINE
  8
0
  6
CONTINUOUS
 62
     7
 10
-213.0
 20
-21.49998
 11
-212.3
 21
-21.49998
  0
LINE
  8
0
  6
CONTINUOUS
 62
     7
 10
-212.3
 20
-25.0
 11
-213.0
 21
-25.0
  0
LINE
  8
0
  6
CENTER
 62
     2
 10
262.0001
 20
-10.49998
 11
262.0001
 21
-40.49998
  0
LINE
  8
0
  6
CONTINUOUS
 62
     7
 10
291.0001
 20
-15.49998
 11
291.0001
 21
-51.99998
  0
LINE
  8
0
  6
CONTINUOUS
 62
     7
 10
233.0001
 20
-15.49998
 11
291.0001
 21
-15.49998
  0
LINE
  8
0
  6
CONTINUOUS
 62
     7
 10
233.0001
 20
-15.49998
 11
233.0001
 21
-51.99998
  0
LINE
  8
0
  6
CONTINUOUS
 62
     7
 10
291.0001
 20
-51.99998
 11
233.0001
 21
-51.99998
  0
LINE
  8
0
  6
CONTINUOUS
 62
     7
 10
248.5617
 20
-28.72753
 11
248.2643
 21
-29.83751
  0
LINE
  8
0
  6
CONTINUOUS
 62
     7
 10
245.4384
 20
-28.72753
 11
245.7358
 21
-29.83751
  0
LINE
  8
0
  6
CONTINUOUS
 62
     7
 10
243.5001
 20
-27.0207
 11
243.5001
 21
-22.97925
  0
LINE
  8
0
  6
CONTINUOUS
 62
     7
 10
247.0001
 20
-29.04143
 11
243.5001
 21
-27.02071
  0
LINE
  8
0
  6
CONTINUOUS
 62
     7
 10
250.5001
 20
-27.02071
 11
247.0001
 21
-29.04144
  0
LINE
  8
0
  6
CONTINUOUS
 62
     7
 10
250.5001
 20
-22.97925
 11
250.5001
 21
-27.0207
  0
LINE
  8
0
  6
CONTINUOUS
 62
     7
 10
247.0
 20
-20.95853
 11
250.5
 21
-22.97926
  0
LINE
  8
0
  6
CONTINUOUS
 62
     7
 10
243.5001
 20
-22.97926
 11
247.0001
 21
-20.95854
  0
LINE
  8
0
  6
CONTINUOUS
 62
     7
 10
250.5001
 20
-25.49998
 11
243.5001
 21
-25.49998
  0
LINE
  8
0
  6
CONTINUOUS
 62
     7
 10
243.5001
 20
-24.49998
 11
250.5001
 21
-24.49998
  0
LINE
  8
0
  6
CONTINUOUS
 62
     7
 10
258.5359
 20
-33.99998
 11
265.4642
 21
-33.99998
  0
LINE
  8
0
  6
CONTINUOUS
 62
     7
 10
265.4642
 20
-33.99998
 11
268.9283
 21
-27.99998
  0
LINE
  8
0
  6
CONTINUOUS
 62
     7
 10
268.9283
 20
-27.99997
 11
265.4642
 21
-21.99997
  0
LINE
  8
0
  6
CONTINUOUS
 62
     7
 10
265.4642
 20
-21.99998
 11
258.5359
 21
-21.99997
  0
LINE
  8
0
  6
CONTINUOUS
 62
     7
 10
258.536
 20
-21.99998
 11
255.0719
 21
-27.99998
  0
LINE
  8
0
  6
CONTINUOUS
 62
     7
 10
255.0719
 20
-27.99998
 11
258.536
 21
-33.99997
  0
LINE
  8
0
  6
CONTINUOUS
 62
     7
 10
259.5001
 20
-29.44335
 11
259.5001
 21
-26.5566
  0
LINE
  8
0
  6
CONTINUOUS
 62
     7
 10
262.0001
 20
-30.88673
 11
259.5001
 21
-29.44335
  0
LINE
  8
0
  6
CONTINUOUS
 62
     7
 10
264.5001
 20
-29.44335
 11
262.0001
 21
-30.88673
  0
LINE
  8
0
  6
CONTINUOUS
 62
     7
 10
264.5001
 20
-26.5566
 11
264.5001
 21
-29.44335
  0
LINE
  8
0
  6
CONTINUOUS
 62
     7
 10
262.0001
 20
-25.11324
 11
264.5001
 21
-26.55661
  0
LINE
  8
0
  6
CONTINUOUS
 62
     7
 10
259.5001
 20
-26.5566
 11
262.0001
 21
-25.11322
  0
LINE
  8
0
  6
CONTINUOUS
 62
     7
 10
275.4384
 20
-28.72753
 11
275.7358
 21
-29.83752
  0
LINE
  8
0
  6
CONTINUOUS
 62
     7
 10
278.5617
 20
-28.72753
 11
278.2643
 21
-29.83751
  0
LINE
  8
0
  6
CONTINUOUS
 62
     7
 10
280.5001
 20
-27.0207
 11
280.5001
 21
-22.97925
  0
LINE
  8
0
  6
CONTINUOUS
 62
     7
 10
277.0
 20
-29.04143
 11
280.5
 21
-27.0207
  0
LINE
  8
0
  6
CONTINUOUS
 62
     7
 10
273.5001
 20
-27.0207
 11
277.0001
 21
-29.04142
  0
LINE
  8
0
  6
CONTINUOUS
 62
     7
 10
273.5001
 20
-22.97925
 11
273.5001
 21
-27.0207
  0
LINE
  8
0
  6
CONTINUOUS
 62
     7
 10
277.0001
 20
-20.95854
 11
273.5
 21
-22.97927
  0
LINE
  8
0
  6
CONTINUOUS
 62
     7
 10
280.5
 20
-22.97926
 11
277.0
 21
-20.95853
  0
LINE
  8
0
  6
CONTINUOUS
 62
     7
 10
273.5001
 20
-25.49998
 11
280.5001
 21
-25.49998
  0
LINE
  8
0
  6
CONTINUOUS
 62
     7
 10
280.5001
 20
-24.49998
 11
273.5001
 21
-24.49998
  0
LINE
  8
0
  6
CONTINUOUS
 62
     7
 10
267.0001
 20
-13.49998
 11
257.0001
 21
-13.49998
  0
LINE
  8
0
  6
CONTINUOUS
 62
     7
 10
256.0001
 20
-14.49998
 11
245.0001
 21
-14.49998
  0
LINE
  8
0
  6
CONTINUOUS
 62
     7
 10
236.0
 20
-13.49998
 11
235.0
 21
-14.49998
  0
LINE
  8
0
  6
CONTINUOUS
 62
     7
 10
245.0
 20
-14.49998
 11
244.0001
 21
-13.49999
  0
LINE
  8
0
  6
CONTINUOUS
 62
     7
 10
257.0001
 20
-13.49999
 11
256.0001
 21
-14.49997
  0
LINE
  8
0
  6
CONTINUOUS
 62
     7
 10
244.0001
 20
-13.49998
 11
236.0001
 21
-13.49998
  0
LINE
  8
0
  6
CONTINUOUS
 62
     7
 10
235.0001
 20
-14.49998
 11
235.0001
 21
-15.49998
  0
LINE
  8
0
  6
CONTINUOUS
 62
     7
 10
267.0001
 20
-13.49999
 11
268.0
 21
-14.49998
  0
LINE
  8
0
  6
CONTINUOUS
 62
     7
 10
268.0001
 20
-14.49998
 11
279.0001
 21
-14.49998
  0
LINE
  8
0
  6
CONTINUOUS
 62
     7
 10
279.0
 20
-14.49997
 11
280.0
 21
-13.49998
  0
LINE
  8
0
  6
CONTINUOUS
 62
     7
 10
280.0001
 20
-13.49998
 11
288.0001
 21
-13.49998
  0
LINE
  8
0
  6
CONTINUOUS
 62
     7
 10
288.0001
 20
-13.49997
 11
289.0001
 21
-14.49997
  0
LINE
  8
0
  6
CONTINUOUS
 62
     7
 10
289.0001
 20
-14.49998
 11
289.0001
 21
-15.49998
  0
LINE
  8
0
  6
CENTER
 62
     2
 10
252.0001
 20
-27.99998
 11
272.0001
 21
-27.99998
  0
LINE
  8
0
  6
CONTINUOUS
 62
     7
 10
233.0001
 20
-21.49998
 11
232.3
 21
-21.49998
  0
LINE
  8
0
  6
CONTINUOUS
 62
     7
 10
231.8
 20
-26.74999
 11
231.8001
 21
-23.24997
  0
LINE
  8
0
  6
CONTINUOUS
 62
     7
 10
233.0001
 20
-28.5
 11
232.3001
 21
-28.5
  0
LINE
  8
0
  6
CONTINUOUS
 62
     7
 10
232.3
 20
-24.99998
 11
233.0001
 21
-24.99998
  0
ARC
  8
0
  6
CONTINUOUS
 62
     7
 10
273.0353
 20
-235.0456
 40
2.21188
 50
0.0
 51
89.99999
  0
ARC
  8
0
  6
CONTINUOUS
 62
     7
 10
291.2835
 20
-246.9346
 40
2.2119
 50
270.0
 51
0.0
  0
ARC
  8
0
  6
CONTINUOUS
 62
     7
 10
290.1775
 20
-236.1515
 40
3.31784
 50
0.0
 51
89.99999
  0
ARC
  8
0
  6
CONTINUOUS
 62
     7
 10
310.3611
 20
-235.0456
 40
2.21188
 50
0.0
 51
89.99999
  0
ARC
  8
0
  6
CONTINUOUS
 62
     7
 10
310.3611
 20
-236.8127
 40
2.21189
 50
295.0
 51
0.0
  0
ARC
  8
0
  6
CONTINUOUS
 62
     7
 10
327.5033
 20
-232.8337
 40
3.31784
 50
291.6884
 51
0.0
  0
ARC
  8
0
  6
CONTINUOUS
 62
     7
 10
326.3972
 20
-232.0833
 40
1.10595
 50
291.689
 51
0.0
  0
CIRCLE
  8
0
  6
CONTINUOUS
 62
     7
 10
-108.5
 20
-25.49998
 40
1.5
  0
CIRCLE
  8
0
  6
CONTINUOUS
 62
     7
 10
-108.5
 20
-25.49998
 40
1.23
  0
ARC
  8
0
  6
CONTINUOUS
 62
     7
 10
188.25
 20
-24.99998
 40
9.25
 50
161.0754
 51
198.9246
  0
CIRCLE
  8
0
  6
CONTINUOUS
 62
     7
 10
169.5
 20
-25.49998
 40
1.5
  0
CIRCLE
  8
0
  6
CONTINUOUS
 62
     7
 10
169.5
 20
-25.49998
 40
1.23
  0
ARC
  8
0
  6
CONTINUOUS
 62
     7
 10
172.75
 20
-30.99998
 40
9.25
 50
341.0753
 51
18.9246
  0
ARC
  8
0
  6
CONTINUOUS
 62
     7
 10
188.25
 20
-30.99998
 40
9.24999
 50
161.0753
 51
198.9246
  0
ARC
  8
0
  6
CONTINUOUS
 62
     7
 10
172.75
 20
-24.99998
 40
9.25
 50
341.0753
 51
18.9246
  0
ARC
  8
0
  6
CONTINUOUS
 62
     7
 10
-79.75
 20
-30.99998
 40
9.24999
 50
167.5131
 51
198.9246
  0
ARC
  8
0
  6
CONTINUOUS
 62
     7
 10
-127.25
 20
-30.99998
 40
9.24999
 50
341.0753
 51
12.4869
  0
ARC
  8
0
  6
DASHED
 62
     7
 10
-79.75
 20
-24.99998
 40
9.24999
 50
161.0753
 51
198.9245
  0
ARC
  8
0
  6
DASHED
 62
     7
 10
-127.25
 20
-24.99998
 40
9.25
 50
341.0753
 51
18.92455
  0
ARC
  8
0
  6
DASHED
 62
     7
 10
-111.75
 20
-30.99998
 40
9.24999
 50
161.0753
 51
167.5131
  0
ARC
  8
0
  6
DASHED
 62
     7
 10
-111.75
 20
-24.99998
 40
9.24999
 50
161.0753
 51
198.9246
  0
ARC
  8
0
  6
DASHED
 62
     7
 10
-79.75
 20
-30.99998
 40
9.24999
 50
161.0753
 51
167.5131
  0
ARC
  8
0
  6
CONTINUOUS
 62
     7
 10
-66.99999
 20
-24.99998
 40
3.5
 50
98.21321
 51
261.7867
  0
ARC
  8
0
  6
CONTINUOUS
 62
     7
 10
-66.99999
 20
-24.99998
 40
3.5
 50
278.2132
 51
81.78679
  0
CIRCLE
  8
0
  6
CONTINUOUS
 62
     7
 10
-66.99999
 20
-24.99998
 40
4.04146
  0
ARC
  8
0
  6
CONTINUOUS
 62
     7
 10
56.00001
 20
-24.99998
 40
3.5
 50
98.21315
 51
261.7867
  0
ARC
  8
0
  6
CONTINUOUS
 62
     7
 10
56.00001
 20
-24.99998
 40
3.5
 50
278.2131
 51
81.78679
  0
CIRCLE
  8
0
  6
CONTINUOUS
 62
     7
 10
56.00001
 20
-24.99998
 40
4.04146
  0
ARC
  8
0
  6
CONTINUOUS
 62
     7
 10
-126.7719
 20
-22.99998
 40
2.72812
 50
152.8776
 51
207.1224
  0
ARC
  8
0
  6
CONTINUOUS
 62
     7
 10
-126.7719
 20
-26.99998
 40
2.72812
 50
152.8776
 51
207.1223
  0
ARC
  8
0
  6
CONTINUOUS
 62
     7
 10
-128.3968
 20
-20.99998
 40
1.10324
 50
180.0
 51
223.2749
  0
ARC
  8
0
  6
CONTINUOUS
 62
     7
 10
-128.3968
 20
-28.99998
 40
1.10324
 50
136.725
 51
180.0
  0
ARC
  8
0
  6
CONTINUOUS
 62
     7
 10
-111.75
 20
-30.99998
 40
9.24999
 50
167.5131
 51
198.9246
  0
ARC
  8
0
  6
DASHED
 62
     7
 10
-127.25
 20
-30.99998
 40
9.24999
 50
12.4869
 51
18.9246
  0
ARC
  8
0
  6
DASHED
 62
     7
 10
68.75001
 20
-24.99998
 40
9.25
 50
341.0754
 51
18.92459
  0
ARC
  8
0
  6
DASHED
 62
     7
 10
68.75001
 20
-30.99998
 40
9.24999
 50
12.48684
 51
18.92466
  0
ARC
  8
0
  6
CONTINUOUS
 62
     7
 10
68.75001
 20
-30.99998
 40
9.24999
 50
341.0753
 51
12.48684
  0
ARC
  8
0
  6
CONTINUOUS
 62
     7
 10
-117.75
 20
94.80383
 40
3.25002
 50
147.7958
 51
212.204
  0
ARC
  8
0
  6
CONTINUOUS
 62
     7
 10
-121.25
 20
94.80383
 40
3.25002
 50
327.7958
 51
32.20416
  0
ARC
  8
0
  6
CONTINUOUS
 62
     7
 10
-117.75
 20
105.1961
 40
3.25002
 50
147.7958
 51
212.204
  0
ARC
  8
0
  6
CONTINUOUS
 62
     7
 10
-121.25
 20
105.1961
 40
3.25002
 50
327.7958
 51
32.20397
  0
ARC
  8
0
  6
CONTINUOUS
 62
     7
 10
-108.75
 20
99.99998
 40
12.25002
 50
163.5736
 51
196.4263
  0
ARC
  8
0
  6
CONTINUOUS
 62
     7
 10
-130.25
 20
99.99998
 40
12.25001
 50
343.5736
 51
16.4263
  0
CIRCLE
  8
0
  6
CONTINUOUS
 62
     7
 10
-113.0
 20
75.99998
 40
2.25
  0
CIRCLE
  8
0
  6
CONTINUOUS
 62
     7
 10
-113.0
 20
124.0
 40
2.25
  0
ARC
  8
0
  6
CONTINUOUS
 62
     7
 10
178.75
 20
94.80383
 40
3.25002
 50
327.7958
 51
32.20416
  0
ARC
  8
0
  6
CONTINUOUS
 62
     7
 10
182.25
 20
94.80383
 40
3.25002
 50
147.7958
 51
212.204
  0
ARC
  8
0
  6
CONTINUOUS
 62
     7
 10
178.75
 20
105.1961
 40
3.25002
 50
327.7958
 51
32.20416
  0
ARC
  8
0
  6
CONTINUOUS
 62
     7
 10
182.25
 20
105.1961
 40
3.25002
 50
147.7958
 51
212.2041
  0
ARC
  8
0
  6
CONTINUOUS
 62
     7
 10
169.75
 20
99.99998
 40
12.25001
 50
343.5736
 51
16.42631
  0
ARC
  8
0
  6
CONTINUOUS
 62
     7
 10
191.25
 20
99.99998
 40
12.25002
 50
163.5736
 51
196.4263
  0
CIRCLE
  8
0
  6
CONTINUOUS
 62
     7
 10
174.0
 20
75.99998
 40
2.25
  0
CIRCLE
  8
0
  6
CONTINUOUS
 62
     7
 10
174.0
 20
124.0
 40
2.25
  0
ARC
  8
0
  6
CONTINUOUS
 62
     7
 10
-85.93301
 20
94.80383
 40
3.06699
 50
145.6158
 51
214.3841
  0
ARC
  8
0
  6
CONTINUOUS
 62
     7
 10
-77.53584
 20
99.99998
 40
11.46415
 50
162.412
 51
197.5878
  0
ARC
  8
0
  6
CONTINUOUS
 62
     7
 10
-85.93301
 20
105.1961
 40
3.06699
 50
145.6158
 51
214.3841
  0
CIRCLE
  8
0
  6
CONTINUOUS
 62
     7
 10
-40.49999
 20
99.99998
 40
4.25
  0
CIRCLE
  8
0
  6
CONTINUOUS
 62
     7
 10
-40.49999
 20
99.99998
 40
4.75
  0
CIRCLE
  8
0
  6
CONTINUOUS
 62
     7
 10
29.50001
 20
99.99998
 40
4.75
  0
CIRCLE
  8
0
  6
CONTINUOUS
 62
     7
 10
29.50001
 20
99.99998
 40
4.25
  0
ARC
  8
0
  6
CONTINUOUS
 62
     7
 10
66.53585
 20
99.99998
 40
11.46416
 50
342.4121
 51
17.58784
  0
ARC
  8
0
  6
CONTINUOUS
 62
     7
 10
74.93302
 20
105.1961
 40
3.06699
 50
325.6158
 51
34.38419
  0
ARC
  8
0
  6
CONTINUOUS
 62
     7
 10
74.93302
 20
94.80383
 40
3.06699
 50
325.6158
 51
34.38419
  0
ARC
  8
0
  6
CONTINUOUS
 62
     7
 10
60.50001
 20
99.99998
 40
2.5
 50
270.0
 51
89.99999
  0
ARC
  8
0
  6
CONTINUOUS
 62
     7
 10
58.50001
 20
99.99998
 40
2.5
 50
89.99992
 51
269.9999
  0
CIRCLE
  8
0
  6
CONTINUOUS
 62
     7
 10
-70.49999
 20
99.99998
 40
2.5
  0
CIRCLE
  8
0
  6
CONTINUOUS
 62
     7
 10
-55.49999
 20
99.99998
 40
2.5
  0
CIRCLE
  8
0
  6
CONTINUOUS
 62
     7
 10
44.50001
 20
99.99998
 40
2.5
  0
CIRCLE
  8
0
  6
CONTINUOUS
 62
     7
 10
-55.49999
 20
99.99998
 40
2.065
  0
CIRCLE
  8
0
  6
CONTINUOUS
 62
     7
 10
44.50001
 20
99.99998
 40
2.065
  0
CIRCLE
  8
0
  6
CONTINUOUS
 62
     7
 10
-113.0
 20
124.0
 40
4.0
  0
CIRCLE
  8
0
  6
CONTINUOUS
 62
     7
 10
-113.0
 20
75.99998
 40
4.0
  0
CIRCLE
  8
0
  6
CONTINUOUS
 62
     7
 10
174.0
 20
124.0
 40
4.0
  0
CIRCLE
  8
0
  6
CONTINUOUS
 62
     7
 10
174.0
 20
75.99998
 40
4.0
  0
ARC
  8
0
  6
CONTINUOUS
 62
     7
 10
-128.4906
 20
118.4641
 40
1.00938
 50
134.6512
 51
225.3488
  0
ARC
  8
0
  6
CONTINUOUS
 62
     7
 10
-125.9125
 20
115.0
 40
3.58749
 50
156.4019
 51
203.5981
  0
ARC
  8
0
  6
CONTINUOUS
 62
     7
 10
-128.4906
 20
111.5359
 40
1.00938
 50
134.6512
 51
225.3488
  0
ARC
  8
0
  6
CONTINUOUS
 62
     7
 10
-128.4906
 20
88.46408
 40
1.00938
 50
134.6512
 51
225.3488
  0
ARC
  8
0
  6
CONTINUOUS
 62
     7
 10
-125.9125
 20
84.99998
 40
3.58749
 50
156.4019
 51
203.5981
  0
ARC
  8
0
  6
CONTINUOUS
 62
     7
 10
-128.4906
 20
81.53588
 40
1.00938
 50
134.6512
 51
225.3488
  0
ARC
  8
0
  6
CONTINUOUS
 62
     7
 10
-70.03107
 20
71.07081
 40
1.27083
 50
217.3409
 51
322.6591
  0
ARC
  8
0
  6
CONTINUOUS
 62
     7
 10
-66.99999
 20
74.1333
 40
4.33332
 50
242.2042
 51
263.3742
  0
ARC
  8
0
  6
CONTINUOUS
 62
     7
 10
-63.96891
 20
71.07081
 40
1.27083
 50
217.3409
 51
322.6599
  0
ARC
  8
0
  6
CONTINUOUS
 62
     7
 10
-66.99999
 20
74.1333
 40
4.33332
 50
276.6258
 51
297.7958
  0
ARC
  8
0
  6
CONTINUOUS
 62
     7
 10
52.96893
 20
71.07081
 40
1.27083
 50
217.3409
 51
322.6591
  0
ARC
  8
0
  6
CONTINUOUS
 62
     7
 10
56.00001
 20
74.1333
 40
4.33332
 50
242.2042
 51
263.3742
  0
ARC
  8
0
  6
CONTINUOUS
 62
     7
 10
59.03109
 20
71.07081
 40
1.27083
 50
217.3409
 51
322.6599
  0
ARC
  8
0
  6
CONTINUOUS
 62
     7
 10
56.00001
 20
74.1333
 40
4.33332
 50
276.6258
 51
297.7958
  0
ARC
  8
0
  6
CONTINUOUS
 62
     7
 10
-117.75
 20
-149.8038
 40
3.25002
 50
147.7958
 51
212.2041
  0
ARC
  8
0
  6
CONTINUOUS
 62
     7
 10
-121.25
 20
-149.8038
 40
3.25002
 50
327.7958
 51
32.20416
  0
ARC
  8
0
  6
CONTINUOUS
 62
     7
 10
-117.75
 20
-160.1961
 40
3.25002
 50
147.7958
 51
212.2041
  0
ARC
  8
0
  6
CONTINUOUS
 62
     7
 10
-121.25
 20
-160.1961
 40
3.25002
 50
327.7958
 51
32.20416
  0
ARC
  8
0
  6
CONTINUOUS
 62
     7
 10
-108.75
 20
-154.9999
 40
12.25001
 50
163.5736
 51
196.4263
  0
ARC
  8
0
  6
CONTINUOUS
 62
     7
 10
-130.25
 20
-154.9999
 40
12.25001
 50
343.5736
 51
16.42631
  0
CIRCLE
  8
0
  6
CONTINUOUS
 62
     7
 10
-113.0
 20
-130.9999
 40
2.25
  0
CIRCLE
  8
0
  6
CONTINUOUS
 62
     7
 10
-113.0
 20
-178.9999
 40
2.25
  0
ARC
  8
0
  6
CONTINUOUS
 62
     7
 10
178.75
 20
-149.8038
 40
3.25002
 50
327.7958
 51
32.20416
  0
ARC
  8
0
  6
CONTINUOUS
 62
     7
 10
182.25
 20
-149.8038
 40
3.25002
 50
147.7958
 51
212.2041
  0
ARC
  8
0
  6
CONTINUOUS
 62
     7
 10
178.75
 20
-160.1961
 40
3.25002
 50
327.7958
 51
32.20416
  0
ARC
  8
0
  6
CONTINUOUS
 62
     7
 10
182.25
 20
-160.1961
 40
3.25002
 50
147.7958
 51
212.2041
  0
ARC
  8
0
  6
CONTINUOUS
 62
     7
 10
169.75
 20
-154.9999
 40
12.25001
 50
343.5736
 51
16.42631
  0
ARC
  8
0
  6
CONTINUOUS
 62
     7
 10
191.25
 20
-154.9999
 40
12.25001
 50
163.5736
 51
196.4263
  0
CIRCLE
  8
0
  6
CONTINUOUS
 62
     7
 10
174.0
 20
-130.9999
 40
2.25
  0
CIRCLE
  8
0
  6
CONTINUOUS
 62
     7
 10
174.0
 20
-178.9999
 40
2.25
  0
ARC
  8
0
  6
CONTINUOUS
 62
     7
 10
-63.96889
 20
-126.0708
 40
1.27083
 50
37.34087
 51
142.6591
  0
ARC
  8
0
  6
CONTINUOUS
 62
     7
 10
-66.99997
 20
-129.1333
 40
4.33332
 50
62.2042
 51
83.37427
  0
ARC
  8
0
  6
CONTINUOUS
 62
     7
 10
-70.03105
 20
-126.0708
 40
1.27083
 50
37.34087
 51
142.6599
  0
ARC
  8
0
  6
CONTINUOUS
 62
     7
 10
-66.99997
 20
-129.1333
 40
4.33332
 50
96.62583
 51
117.7958
  0
ARC
  8
0
  6
CONTINUOUS
 62
     7
 10
59.03111
 20
-126.0708
 40
1.27083
 50
37.34087
 51
142.6591
  0
ARC
  8
0
  6
CONTINUOUS
 62
     7
 10
56.00003
 20
-129.1333
 40
4.33332
 50
62.2042
 51
83.37421
  0
ARC
  8
0
  6
CONTINUOUS
 62
     7
 10
52.96895
 20
-126.0708
 40
1.27083
 50
37.34087
 51
142.6599
  0
ARC
  8
0
  6
CONTINUOUS
 62
     7
 10
56.00003
 20
-129.1333
 40
4.33332
 50
96.62579
 51
117.7958
  0
ARC
  8
0
  6
CONTINUOUS
 62
     7
 10
-128.4906
 20
-136.5358
 40
1.00937
 50
134.6515
 51
225.3485
  0
ARC
  8
0
  6
CONTINUOUS
 62
     7
 10
-125.9125
 20
-139.9999
 40
3.58749
 50
156.4019
 51
203.5981
  0
ARC
  8
0
  6
CONTINUOUS
 62
     7
 10
-128.4906
 20
-143.4641
 40
1.00937
 50
134.6515
 51
225.3485
  0
ARC
  8
0
  6
CONTINUOUS
 62
     7
 10
-128.4906
 20
-166.5358
 40
1.00937
 50
134.6515
 51
225.3485
  0
ARC
  8
0
  6
CONTINUOUS
 62
     7
 10
-125.9125
 20
-169.9999
 40
3.58749
 50
156.4019
 51
203.5981
  0
ARC
  8
0
  6
CONTINUOUS
 62
     7
 10
-128.4906
 20
-173.4641
 40
1.00937
 50
134.6515
 51
225.3485
  0
CIRCLE
  8
0
  6
CONTINUOUS
 62
     7
 10
-242.0
 20
-28.0
 40
5.0
  0
CIRCLE
  8
0
  6
CONTINUOUS
 62
     7
 10
-242.0
 20
-28.0
 40
4.0
  0
CIRCLE
  8
0
  6
CONTINUOUS
 62
     7
 10
-256.9999
 20
-25.0
 40
5.5
  0
CIRCLE
  8
0
  6
CONTINUOUS
 62
     7
 10
-242.0
 20
-28.0
 40
6.0
  0
ARC
  8
0
  6
CONTINUOUS
 62
     7
 10
-227.0
 20
-25.0
 40
5.0
 50
284.6459
 51
255.3541
  0
CIRCLE
  8
0
  6
CONTINUOUS
 62
     7
 10
-227.0
 20
-25.0
 40
5.5
  0
CIRCLE
  8
0
  6
CONTINUOUS
 62
     7
 10
-242.0
 20
-28.0
 40
3.61436
  0
ARC
  8
0
  6
CONTINUOUS
 62
     7
 10
-256.9999
 20
-25.0
 40
4.25
 50
109.7497
 51
130.2501
  0
CIRCLE
  8
0
  6
CONTINUOUS
 62
     7
 10
-256.9999
 20
-25.0
 40
2.065
  0
ARC
  8
0
  6
CONTINUOUS
 62
     7
 10
-256.9999
 20
-25.0
 40
4.25
 50
289.7499
 51
310.2501
  0
CIRCLE
  8
0
  6
CONTINUOUS
 62
     7
 10
-256.9999
 20
-25.0
 40
2.5
  0
ARC
  8
0
  6
CONTINUOUS
 62
     7
 10
-256.9999
 20
-25.0
 40
4.25
 50
49.74987
 51
70.25006
  0
ARC
  8
0
  6
CONTINUOUS
 62
     7
 10
-256.9999
 20
-25.0
 40
4.25
 50
349.7498
 51
10.2501
  0
ARC
  8
0
  6
CONTINUOUS
 62
     7
 10
-256.9999
 20
-25.0
 40
4.25
 50
229.7499
 51
250.2502
  0
CIRCLE
  8
0
  6
CONTINUOUS
 62
     7
 10
-256.9999
 20
-25.0
 40
4.0
  0
ARC
  8
0
  6
CONTINUOUS
 62
     7
 10
-256.9999
 20
-25.0
 40
4.24999
 50
169.7499
 51
190.2501
  0
CIRCLE
  8
0
  6
CONTINUOUS
 62
     7
 10
-256.9999
 20
-25.0
 40
0.6
  0
ARC
  8
0
  6
CONTINUOUS
 62
     7
 10
-227.0
 20
-25.0
 40
4.25
 50
109.7499
 51
130.2501
  0
CIRCLE
  8
0
  6
CONTINUOUS
 62
     7
 10
-227.0
 20
-25.0
 40
2.065
  0
ARC
  8
0
  6
CONTINUOUS
 62
     7
 10
-227.0
 20
-25.0
 40
4.25
 50
289.7499
 51
310.2501
  0
CIRCLE
  8
0
  6
CONTINUOUS
 62
     7
 10
-227.0
 20
-25.0
 40
2.5
  0
ARC
  8
0
  6
CONTINUOUS
 62
     7
 10
-227.0
 20
-25.0
 40
4.25
 50
49.74987
 51
70.25006
  0
ARC
  8
0
  6
CONTINUOUS
 62
     7
 10
-227.0
 20
-25.0
 40
4.25
 50
349.7498
 51
10.2501
  0
ARC
  8
0
  6
CONTINUOUS
 62
     7
 10
-227.0
 20
-25.0
 40
4.25
 50
229.7499
 51
250.25
  0
CIRCLE
  8
0
  6
CONTINUOUS
 62
     7
 10
-227.0
 20
-25.0
 40
4.0
  0
ARC
  8
0
  6
CONTINUOUS
 62
     7
 10
-227.0
 20
-25.0
 40
4.25
 50
169.75
 51
190.25
  0
CIRCLE
  8
0
  6
CONTINUOUS
 62
     7
 10
-227.0
 20
-25.0
 40
0.6
  0
ARC
  8
0
  6
CONTINUOUS
 62
     7
 10
-256.9999
 20
-25.0
 40
5.0
 50
284.6459
 51
255.3541
  0
ARC
  8
0
  6
CONTINUOUS
 62
     7
 10
-215.1125
 20
-23.24998
 40
3.31253
 50
328.1093
 51
31.89068
  0
ARC
  8
0
  6
CONTINUOUS
 62
     7
 10
-215.1125
 20
-26.75
 40
3.31253
 50
328.1093
 51
31.89065
  0
CIRCLE
  8
0
  6
CONTINUOUS
 62
     7
 10
277.0001
 20
-24.99998
 40
4.04145
  0
ARC
  8
0
  6
CONTINUOUS
 62
     7
 10
247.0001
 20
-24.99998
 40
5.0
 50
284.6457
 51
255.3541
  0
CIRCLE
  8
0
  6
CONTINUOUS
 62
     7
 10
262.0001
 20
-27.99998
 40
5.0
  0
CIRCLE
  8
0
  6
CONTINUOUS
 62
     7
 10
262.0001
 20
-27.99998
 40
4.0
  0
CIRCLE
  8
0
  6
CONTINUOUS
 62
     7
 10
247.0001
 20
-24.99998
 40
5.5
  0
CIRCLE
  8
0
  6
CONTINUOUS
 62
     7
 10
262.0001
 20
-27.99998
 40
6.0
  0
ARC
  8
0
  6
CONTINUOUS
 62
     7
 10
277.0001
 20
-24.99998
 40
5.0
 50
284.6459
 51
255.3541
  0
CIRCLE
  8
0
  6
CONTINUOUS
 62
     7
 10
277.0001
 20
-24.99998
 40
5.5
  0
CIRCLE
  8
0
  6
CONTINUOUS
 62
     7
 10
247.0001
 20
-24.99998
 40
4.04145
  0
CIRCLE
  8
0
  6
CONTINUOUS
 62
     7
 10
262.0001
 20
-27.99998
 40
3.61436
  0
ARC
  8
0
  6
CONTINUOUS
 62
     7
 10
235.1126
 20
-23.24997
 40
3.31253
 50
148.1093
 51
211.8907
  0
ARC
  8
0
  6
CONTINUOUS
 62
     7
 10
235.1126
 20
-26.74999
 40
3.31253
 50
148.1093
 51
211.8907
  0
TEXT
  8
0
  6
CONTINUOUS
 62
     7
 10
-324.2352
 20
180.5125
 40
10.0
  1
MODEL : SUL 16*ST(100)
 41
0.8
  7
STANDARD
  0
TEXT
  8
0
  6
CONTINUOUS
 62
     7
 10
-187.74191657
 20
48.83363247
 40
7.0
  1
2-M12*1
 41
0.8
  7
STANDARD
  0
TEXT
  8
0
  6
CONTINUOUS
 62
     7
 10
-283.6778
 20
-86.28997
 40
7.0
  1
2-M5*0.8
 41
0.8
  7
STANDARD
  0
TEXT
  8
0
  6
CONTINUOUS
 62
     7
 10
-333.0235
 20
-226.2899
 40
7.0
  1
NOTE : A ,B ,C ,D
 41
0.8
  7
STANDARD
  0
TEXT
  8
0
  6
CONTINUOUS
 62
     7
 10
-245.59279579
 20
-226.2899
 40
7.0
  1
CATALOG
 41
0.8
  7
STANDARD
  0
TEXT
  8
0
  6
CONTINUOUS
 62
     7
 10
229.2196
 20
236.4974
 40
8.0
  1
DATE : JAN ,1988
 41
0.8
  7
STANDARD
  0
TEXT
  8
0
  6
CONTINUOUS
 62
     7
 10
-342.9299
 20
235.5574
 40
10.0
  1
SLIDE UNIT
 41
0.8
  7
STANDARD
  0
TEXT
  8
0
  6
CONTINUOUS
 62
     7
 10
0.17
 20
171.3669
 40
7.0
  1
97+(ST*2)
 41
0.8
  7
STANDARD
  0
TEXT
  8
0
  6
CONTINUOUS
 62
     7
 10
-7.82999
 20
26.05316
 40
7.0
  1
A
 41
0.8
  7
STANDARD
  0
TEXT
  8
0
  6
CONTINUOUS
 62
     7
 10
78.10432
 20
48.70989
 40
7.0
  1
2-M5*0.8
 41
0.8
  7
STANDARD
  0
TEXT
  8
0
  6
CONTINUOUS
 62
     7
 10
-69.70641
 20
46.05316
 40
7.0
  1
D
 41
0.8
  7
STANDARD
  0
TEXT
  8
0
  6
CONTINUOUS
 62
     7
 10
-7.82999
 20
46.05316
 40
7.0
  1
C
 41
0.8
  7
STANDARD
  0
TEXT
  8
0
  6
CONTINUOUS
 62
     7
 10
-80.57999
 20
26.05316
 40
7.0
  1
B
 41
0.8
  7
STANDARD
  0
TEXT
  8
0
  6
CONTINUOUS
 62
     7
 10
-21.82999
 20
151.3669
 40
7.0
  1
61+ST
 41
0.8
  7
STANDARD
  0
ENDSEC
  0
EOF
